  0
SECTION
  2
HEADER
  9
$ACADVER
  1
AC1009
  9
$INSBASE
 10
0.0
 20
0.0
 30
0.0
  9
$EXTMIN
 10
-1335.872999999998
 20
-532.36586799999998
 30
0.0
  9
$EXTMAX
 10
1173.957730729388
 20
905.53036017035595
 30
50.0
  9
$LIMMIN
 10
-2970.0
 20
-2100.0
  9
$LIMMAX
 10
2970.0
 20
2100.0
  9
$ORTHOMODE
 70
     0
  9
$REGENMODE
 70
     0
  9
$FILLMODE
 70
     1
  9
$QTEXTMODE
 70
     0
  9
$MIRRTEXT
 70
     0
  9
$DRAGMODE
 70
     2
  9
$LTSCALE
 40
20.0
  9
$OSMODE
 70
   175
  9
$ATTMODE
 70
     1
  9
$TEXTSIZE
 40
64.0
  9
$TRACEWID
 40
0.05
  9
$TEXTSTYLE
  7
STANDARD
  9
$CLAYER
  8
DETAIL
  9
$CELTYPE
  6
CONTINUOUS
  9
$CECOLOR
 62
     5
  9
$DIMSCALE
 40
1.0
  9
$DIMASZ
 40
12.0
  9
$DIMEXO
 40
20.0
  9
$DIMDLI
 40
200.0
  9
$DIMRND
 40
0.0
  9
$DIMDLE
 40
0.0
  9
$DIMEXE
 40
20.0
  9
$DIMTP
 40
0.0
  9
$DIMTM
 40
0.0
  9
$DIMTXT
 40
64.0
  9
$DIMCEN
 40
0.09
  9
$DIMTSZ
 40
0.0
  9
$DIMTOL
 70
     0
  9
$DIMLIM
 70
     0
  9
$DIMTIH
 70
     0
  9
$DIMTOH
 70
     0
  9
$DIMSE1
 70
     0
  9
$DIMSE2
 70
     0
  9
$DIMTAD
 70
     1
  9
$DIMZIN
 70
     8
  9
$DIMBLK
  1
DOT1
  9
$DIMASO
 70
     1
  9
$DIMSHO
 70
     0
  9
$DIMPOST
  1

  9
$DIMAPOST
  1

  9
$DIMALT
 70
     0
  9
$DIMALTD
 70
     2
  9
$DIMALTF
 40
25.399999999999999
  9
$DIMLFAC
 40
1.0
  9
$DIMTOFL
 70
     1
  9
$DIMTVP
 40
0.0
  9
$DIMTIX
 70
     1
  9
$DIMSOXD
 70
     0
  9
$DIMSAH
 70
     1
  9
$DIMBLK1
  1
ORIGIN
  9
$DIMBLK2
  1
ORIGIN
  9
$DIMSTYLE
  2
STANDARD
  9
$DIMCLRD
 70
     0
  9
$DIMCLRE
 70
     0
  9
$DIMCLRT
 70
     0
  9
$DIMTFAC
 40
1.0
  9
$DIMGAP
 40
0.09
  9
$LUNITS
 70
     2
  9
$LUPREC
 70
     4
  9
$SKETCHINC
 40
0.1
  9
$FILLETRAD
 40
4.0
  9
$AUNITS
 70
     1
  9
$AUPREC
 70
     3
  9
$MENU
  1
ACAD
  9
$ELEVATION
 40
0.0
  9
$PELEVATION
 40
0.0
  9
$THICKNESS
 40
50.0
  9
$LIMCHECK
 70
     0
  9
$BLIPMODE
 70
     0
  9
$CHAMFERA
 40
0.0
  9
$CHAMFERB
 40
0.0
  9
$SKPOLY
 70
     0
  9
$TDCREATE
 40
2452321.3961996529
  9
$TDUPDATE
 40
2453778.885993009
  9
$TDINDWG
 40
0.2128541319
  9
$TDUSRTIMER
 40
0.2128537616
  9
$USRTIMER
 70
     1
  9
$ANGBASE
 50
0.0
  9
$ANGDIR
 70
     0
  9
$PDMODE
 70
     3
  9
$PDSIZE
 40
-2.0
  9
$PLINEWID
 40
0.0
  9
$COORDS
 70
     2
  9
$SPLFRAME
 70
     0
  9
$SPLINETYPE
 70
     6
  9
$SPLINESEGS
 70
     8
  9
$ATTDIA
 70
     0
  9
$ATTREQ
 70
     1
  9
$HANDLING
 70
 22529
  9
$HANDSEED
  5
5BD
  9
$SURFTAB1
 70
     6
  9
$SURFTAB2
 70
     6
  9
$SURFTYPE
 70
     6
  9
$SURFU
 70
     6
  9
$SURFV
 70
     6
  9
$UCSNAME
  2

  9
$UCSORG
 10
0.0
 20
0.0
 30
0.0
  9
$UCSXDIR
 10
1.0
 20
0.0
 30
0.0
  9
$UCSYDIR
 10
0.0
 20
1.0
 30
0.0
  9
$PUCSNAME
  2

  9
$PUCSORG
 10
0.0
 20
0.0
 30
0.0
  9
$PUCSXDIR
 10
1.0
 20
0.0
 30
0.0
  9
$PUCSYDIR
 10
0.0
 20
1.0
 30
0.0
  9
$USERI1
 70
     0
  9
$USERI2
 70
     0
  9
$USERI3
 70
     0
  9
$USERI4
 70
     0
  9
$USERI5
 70
     0
  9
$USERR1
 40
20.0
  9
$USERR2
 40
0.0
  9
$USERR3
 40
0.0
  9
$USERR4
 40
0.0
  9
$USERR5
 40
0.0
  9
$WORLDVIEW
 70
     1
  9
$SHADEDGE
 70
     3
  9
$SHADEDIF
 70
    70
  9
$TILEMODE
 70
     1
  9
$MAXACTVP
 70
    64
  9
$PLIMCHECK
 70
     0
  9
$PEXTMIN
 10
1.0000000000000000E+020
 20
1.0000000000000000E+020
 30
1.0000000000000000E+020
  9
$PEXTMAX
 10
-1.0000000000000000E+020
 20
-1.0000000000000000E+020
 30
-1.0000000000000000E+020
  9
$PLIMMIN
 10
0.0
 20
0.0
  9
$PLIMMAX
 10
12.0
 20
9.0
  9
$UNITMODE
 70
     0
  9
$VISRETAIN
 70
     1
  9
$PLINEGEN
 70
     0
  9
$PSLTSCALE
 70
     1
  0
ENDSEC
  0
SECTION
  2
TABLES
  0
TABLE
  2
VPORT
 70
     3
  0
VPORT
  2
*ACTIVE
 70
     0
 10
0.0
 20
0.0
 11
1.0
 21
1.0
 12
16.4442207419097
 22
178.70970418804171
 13
0.0
 23
0.0
 14
1.0
 24
1.0
 15
0.0
 25
0.0
 16
0.0
 26
0.0
 36
1.0
 17
0.0
 27
0.0
 37
0.0
 40
2081.890204759718
 41
1.447268106734434
 42
50.0
 43
0.0
 44
0.0
 50
0.0
 51
0.0
 71
     0
 72
   100
 73
     1
 74
     0
 75
     0
 76
     0
 77
     0
 78
     0
  0
ENDTAB
  0
TABLE
  2
LTYPE
 70
     2
  0
LTYPE
  2
CONTINUOUS
 70
     0
  3
Ä└É³
 72
    65
 73
     0
 40
0.0
  0
LTYPE
  2
DASHDOT
 70
     0
  3
____ _ ____ _ ____ _ ____ _ ____ _ ____ _ ____
 72
    65
 73
     4
 40
5.5
 49
4.0
 49
-0.6
 49
0.3
 49
-0.6
  0
ENDTAB
  0
TABLE
  2
LAYER
 70
    12
  0
LAYER
  2
0
 70
     0
 62
     7
  6
CONTINUOUS
  0
LAYER
  2
DETAIL
 70
     0
 62
     5
  6
CONTINUOUS
  0
LAYER
  2
SIZE
 70
     0
 62
    30
  6
CONTINUOUS
  0
LAYER
  2
BASIS
 70
     0
 62
     6
  6
DASHDOT
  0
LAYER
  2
OUTLINE
 70
     0
 62
     3
  6
CONTINUOUS
  0
LAYER
  2
ARRANGE
 70
     0
 62
     1
  6
CONTINUOUS
  0
LAYER
  2
DEFPOINTS
 70
     0
 62
     7
  6
CONTINUOUS
  0
LAYER
  2
ETC
 70
     0
 62
    61
  6
CONTINUOUS
  0
LAYER
  2
FIX
 70
     0
 62
    11
  6
CONTINUOUS
  0
LAYER
  2
NOTE
 70
     0
 62
     4
  6
CONTINUOUS
  0
LAYER
  2
SERVICESPACE
 70
     0
 62
     2
  6
DASHDOT
  0
LAYER
  2
SYMBOLLINE
 70
     0
 62
    15
  6
CONTINUOUS
  0
ENDTAB
  0
TABLE
  2
STYLE
 70
     1
  0
STYLE
  2
STANDARD
 70
     0
 40
64.0
 41
0.9
 50
0.0
 71
     0
 42
64.0
  3
SIMPLEX.shx
  4
BIGFONT.shx
  0
ENDTAB
  0
TABLE
  2
VIEW
 70
     1
  0
VIEW
  2
ALL
 70
     0
 40
4282.6198079999967
 10
0.0
 20
41.309903999999989
 41
5940.0
 11
0.0
 21
0.0
 31
1.0
 12
0.0
 22
0.0
 32
0.0
 42
50.0
 43
0.0
 44
0.0
 50
0.0
 71
     0
  0
ENDTAB
  0
TABLE
  2
UCS
 70
     0
  0
ENDTAB
  0
TABLE
  2
APPID
 70
     1
  0
APPID
  2
ACAD
 70
     0
  0
ENDTAB
  0
TABLE
  2
DIMSTYLE
 70
     1
  0
DIMSTYLE
  2
STANDARD
 70
     0
  3

  4

  5

  6

  7

 40
1.0
 41
0.18
 42
0.0625
 43
0.38
 44
0.18
 45
0.0
 46
0.0
 47
0.0
 48
0.0
140
0.18
141
0.09
142
0.0
143
25.399999999999999
144
1.0
145
0.0
146
1.0
147
0.09
 71
     0
 72
     0
 73
     1
 74
     1
 75
     0
 76
     0
 77
     0
 78
     0
170
     0
171
     2
172
     0
173
     0
174
     0
175
     0
176
     0
177
     0
178
     0
  0
ENDTAB
  0
ENDSEC
  0
SECTION
  2
BLOCKS
  0
BLOCK
  8
0
  2
$MODEL_SPACE
 70
     0
 10
0.0
 20
0.0
 30
0.0
  3
$MODEL_SPACE
  1

  0
ENDBLK
  5
3F5
  8
0
  0
BLOCK
 67
     1
  8
0
  2
$PAPER_SPACE
 70
     0
 10
0.0
 20
0.0
 30
0.0
  3
$PAPER_SPACE
  1

  0
ENDBLK
  5
3F1
 67
     1
  8
0
  0
BLOCK
  8
0
  2
DOT1
 70
     0
 10
0.0
 20
0.0
 30
0.0
  3
DOT1
  1

  0
CIRCLE
  5
410
  8
SIZE
  6
CONTINUOUS
 62
     7
 10
0.0
 20
0.0
 30
0.0
 40
3.0
  0
ENDBLK
  5
411
  8
0
  0
BLOCK
  8
0
  2
_ORIGIN
 70
     0
 10
0.0
 20
0.0
 30
0.0
  3
_ORIGIN
  1

  0
CIRCLE
  5
414
  8
0
  6
CONTINUOUS
 62
     7
 10
0.0
 20
0.0
 30
0.0
 40
0.5
  0
LINE
  5
415
  8
0
  6
CONTINUOUS
 62
     7
 10
0.0
 20
0.0
 30
0.0
 11
-1.0
 21
0.0
 31
0.0
  0
ENDBLK
  5
416
  8
0
  0
ENDSEC
  0
SECTION
  2
ENTITIES
  0
CIRCLE
  5
417
  8
ARRANGE
  6
CONTINUOUS
 62
     1
 10
0.0
 20
0.0
 30
0.0
 40
40.0
  0
LINE
  5
418
  8
BASIS
  6
DASHDOT
 62
     6
 10
0.0
 20
-70.106681999999992
 30
0.0
 11
0.0
 21
294.61590999999999
 31
0.0
  0
LINE
  5
419
  8
BASIS
  6
DASHDOT
 62
     6
 10
-2.0
 20
173.87266099999999
 30
0.0
 11
-2.0
 21
265.88841500000001
 31
0.0
  0
LINE
  5
41A
  8
DETAIL
  6
CONTINUOUS
 62
     5
 10
-60.0
 20
208.0
 30
0.0
 11
56.0
 21
208.0
 31
0.0
  0
LINE
  5
41B
  8
DETAIL
  6
CONTINUOUS
 62
     5
 10
153.5
 20
0.0
 30
0.0
 11
153.5
 21
43.0
 31
0.0
  0
LINE
  5
41C
  8
DETAIL
  6
CONTINUOUS
 62
     5
 10
-153.5
 20
0.0
 30
0.0
 11
-153.5
 21
200.0
 31
0.0
  0
ARC
  5
41D
  8
DETAIL
  6
CONTINUOUS
 62
     5
 10
-37.939999999999998
 20
233.34
 30
0.0
 40
5.060001999999999
 50
90.0
 51
179.999999
  0
LINE
  5
41E
  8
DETAIL
  6
CONTINUOUS
 62
     5
 10
-43.0
 20
208.0
 30
0.0
 11
-43.0
 21
233.34
 31
0.0
  0
LINE
  5
41F
  8
DETAIL
  6
CONTINUOUS
 62
     5
 10
28.63747
 20
238.3999859999999
 30
0.0
 11
27.468962000000001
 21
240.42388799999981
 31
0.0
  0
LINE
  5
420
  8
DETAIL
  6
CONTINUOUS
 62
     5
 10
-2.0
 20
240.42390199999991
 30
0.0
 11
27.468952999999999
 21
240.42390199999991
 31
0.0
  0
LINE
  5
421
  8
DETAIL
  6
CONTINUOUS
 62
     5
 10
33.939999999999998
 20
238.3999859999999
 30
0.0
 11
-2.0
 21
238.3999859999999
 31
0.0
  0
ARC
  5
422
  8
DETAIL
  6
CONTINUOUS
 62
     5
 10
33.939999999999998
 20
233.34
 30
0.0
 40
5.060001999999999
 50
0.000001
 51
90.0
  0
LINE
  5
423
  8
DETAIL
  6
CONTINUOUS
 62
     5
 10
39.0
 20
208.0
 30
0.0
 11
39.0
 21
233.34421399999991
 31
0.0
  0
LINE
  5
424
  8
DETAIL
  6
CONTINUOUS
 62
     5
 10
20.079999999999998
 20
238.3999859999999
 30
0.0
 11
-2.0
 21
238.3999859999999
 31
0.0
  0
LINE
  5
425
  8
DETAIL
  6
CONTINUOUS
 62
     5
 10
-2.0
 20
240.42390199999991
 30
0.0
 11
20.079999999999998
 21
240.42390199999991
 31
0.0
  0
LINE
  5
426
  8
DETAIL
  6
CONTINUOUS
 62
     5
 10
4.6722339999999987
 20
241.42907099999991
 30
0.0
 11
4.8208209999999987
 21
240.42390199999991
 31
0.0
  0
LINE
  5
427
  8
DETAIL
  6
CONTINUOUS
 62
     5
 10
2.852011999999998
 20
243.0
 30
0.0
 11
-2.0
 21
243.0
 31
0.0
  0
ARC
  5
428
  8
DETAIL
  6
CONTINUOUS
 62
     5
 10
2.852011999999998
 20
241.15998599999989
 30
0.0
 40
1.8400009999999991
 50
8.4091109999999976
 51
90.0
  0
ARC
  5
429
  8
DETAIL
  6
CONTINUOUS
 62
     5
 10
-6.8520119999999993
 20
241.15998599999989
 30
0.0
 40
1.8400009999999991
 50
90.0
 51
171.59088899999981
  0
LINE
  5
42A
  8
DETAIL
  6
CONTINUOUS
 62
     5
 10
-6.8520119999999993
 20
243.0
 30
0.0
 11
-2.0
 21
243.0
 31
0.0
  0
LINE
  5
42B
  8
DETAIL
  6
CONTINUOUS
 62
     5
 10
-8.672233999999996
 20
241.42907099999991
 30
0.0
 11
-8.8208210000000005
 21
240.42390199999991
 31
0.0
  0
LINE
  5
42C
  8
DETAIL
  6
CONTINUOUS
 62
     5
 10
-2.0
 20
240.42390199999991
 30
0.0
 11
-31.468952999999999
 21
240.42390199999991
 31
0.0
  0
LINE
  5
42D
  8
DETAIL
  6
CONTINUOUS
 62
     5
 10
-37.939999999999998
 20
238.3999859999999
 30
0.0
 11
-2.0
 21
238.3999859999999
 31
0.0
  0
LINE
  5
42E
  8
DETAIL
  6
CONTINUOUS
 62
     5
 10
-32.63747
 20
238.3999859999999
 30
0.0
 11
-31.468962000000001
 21
240.42388799999981
 31
0.0
  0
CIRCLE
  5
42F
  8
FIX
  6
CONTINUOUS
 62
    11
 10
-100.0
 20
0.0
 30
0.0
 40
2.5
  0
LINE
  5
430
  8
NOTE
  6
CONTINUOUS
 62
     4
 10
-100.0
 20
-20.0
 30
0.0
 11
-100.0
 21
20.0
 31
0.0
  0
LINE
  5
431
  8
NOTE
  6
CONTINUOUS
 62
     4
 10
-80.0
 20
0.0
 30
0.0
 11
-120.0
 21
0.0
 31
0.0
  0
CIRCLE
  5
432
  8
FIX
  6
CONTINUOUS
 62
    11
 10
-166.0
 20
0.0
 30
0.0
 40
2.5
  0
LINE
  5
433
  8
NOTE
  6
CONTINUOUS
 62
     4
 10
-166.0
 20
-20.0
 30
0.0
 11
-166.0
 21
20.0
 31
0.0
  0
LINE
  5
434
  8
NOTE
  6
CONTINUOUS
 62
     4
 10
-146.0
 20
0.0
 30
0.0
 11
-186.0
 21
0.0
 31
0.0
  0
LINE
  5
435
  8
DETAIL
  6
CONTINUOUS
 62
     5
 10
-153.5
 20
200.0
 30
0.0
 11
-125.0
 21
200.0
 31
0.0
  0
TEXT
  5
436
  8
NOTE
  6
CONTINUOUS
 62
     4
 10
-608.36592400000018
 20
-211.92264700000001
 30
0.0
 40
64.0
  1
8-âË5ü~8
 41
0.9
  0
LINE
  5
437
  8
NOTE
  6
CONTINUOUS
 62
     4
 10
-363.09238900000003
 20
409.59560399999992
 30
0.0
 11
-1335.872999999998
 21
409.59560399999992
 31
0.0
  0
LINE
  5
438
  8
NOTE
  6
CONTINUOUS
 62
     4
 10
-243.453656
 20
-244.88691799999989
 30
0.0
 11
-637.85826699999996
 21
-244.88691799999989
 31
0.0
  0
LINE
  5
439
  8
NOTE
  6
CONTINUOUS
 62
     4
 10
-166.01824999999991
 20
-0.049917
 30
0.0
 11
-243.453656
 21
-244.88691799999989
 31
0.0
  0
LINE
  5
43A
  8
NOTE
  6
CONTINUOUS
 62
     4
 10
-168.35062299999981
 20
-39.927779000000001
 30
0.0
 11
-166.02198599999991
 21
0.004382
 31
0.0
  0
LINE
  5
43B
  8
NOTE
  6
CONTINUOUS
 62
     4
 10
-166.02198599999991
 20
0.004382
 30
0.0
 11
-188.00472500000001
 21
-33.413564999999991
 31
0.0
  0
TEXT
  5
43C
  8
NOTE
  6
CONTINUOUS
 62
     4
 10
-1313.8510000000001
 20
449.30025599999988
 30
0.0
 40
64.0
  1
AH 4-âË15ü~22(4ô_Æ¦éÞ)
 41
0.9
  0
LINE
  5
43D
  8
DETAIL
  6
CONTINUOUS
 62
     5
 10
-190.0
 20
-0.8571229999999998
 30
0.0
 11
-190.0
 21
0.0
 31
0.0
  0
LINE
  5
43E
  8
DETAIL
  6
CONTINUOUS
 62
     5
 10
190.0
 20
-0.8571229999999998
 30
0.0
 11
190.0
 21
0.0
 31
0.0
  0
LINE
  5
43F
  8
DETAIL
  6
CONTINUOUS
 62
     5
 10
-153.5
 20
192.0
 30
0.0
 11
-125.0
 21
192.0
 31
0.0
  0
LINE
  5
440
  8
DETAIL
  6
CONTINUOUS
 62
     5
 10
-60.0
 20
208.0
 30
0.0
 11
-66.394959999999998
 21
200.0
 31
0.0
  0
LINE
  5
441
  8
SIZE
  6
CONTINUOUS
 62
    30
 10
-465.18085599999989
 20
198.0
 30
0.0
 11
-465.18085599999989
 21
313.38666999999998
 31
0.0
  0
LINE
  5
442
  8
DETAIL
  6
CONTINUOUS
 62
     5
 10
-43.0
 20
213.0
 30
0.0
 11
39.0
 21
213.0
 31
0.0
  0
LINE
  5
443
  8
NOTE
  6
CONTINUOUS
 62
     4
 10
100.0
 20
-20.0
 30
0.0
 11
100.0
 21
20.0
 31
0.0
  0
LINE
  5
444
  8
NOTE
  6
CONTINUOUS
 62
     4
 10
80.0
 20
0.0
 30
0.0
 11
120.0
 21
0.0
 31
0.0
  0
CIRCLE
  5
445
  8
FIX
  6
CONTINUOUS
 62
    11
 10
100.0
 20
0.0
 30
0.0
 40
2.5
  0
LINE
  5
446
  8
NOTE
  6
CONTINUOUS
 62
     4
 10
166.0
 20
-20.0
 30
0.0
 11
166.0
 21
20.0
 31
0.0
  0
LINE
  5
447
  8
NOTE
  6
CONTINUOUS
 62
     4
 10
146.0
 20
0.0
 30
0.0
 11
186.0
 21
0.0
 31
0.0
  0
CIRCLE
  5
448
  8
FIX
  6
CONTINUOUS
 62
    11
 10
166.0
 20
0.0
 30
0.0
 40
2.5
  0
LINE
  5
449
  8
SIZE
  6
CONTINUOUS
 62
    30
 10
-100.0
 20
-40.0
 30
0.0
 11
-100.0
 21
-253.709227
 31
0.0
  0
LINE
  5
44A
  8
SIZE
  6
CONTINUOUS
 62
    30
 10
100.0
 20
-40.0
 30
0.0
 11
100.0
 21
-253.709227
 31
0.0
  0
LINE
  5
44B
  8
SIZE
  6
CONTINUOUS
 62
    30
 10
-88.0
 20
-233.7092269999998
 30
0.0
 11
88.0
 21
-233.7092269999998
 31
0.0
  0
TEXT
  5
44C
  8
SIZE
  6
CONTINUOUS
 62
    30
 10
-74.05714285714285
 20
-210.221385
 30
0.0
 40
64.0
  1
200
 41
0.9
 72
     1
 11
0.0
 21
-210.221385
 31
0.0
  0
CIRCLE
  5
44D
  8
SIZE
  6
CONTINUOUS
 62
    30
 10
-100.0
 20
-233.7092269999998
 30
0.0
 40
6.0
  0
LINE
  5
44E
  8
SIZE
  6
CONTINUOUS
 62
    30
 10
-100.0
 20
-233.7092269999998
 30
0.0
 11
-88.0
 21
-233.7092269999998
 31
0.0
  0
CIRCLE
  5
44F
  8
SIZE
  6
CONTINUOUS
 62
    30
 10
100.0
 20
-233.7092269999998
 30
0.0
 40
6.0
  0
LINE
  5
450
  8
SIZE
  6
CONTINUOUS
 62
    30
 10
100.0
 20
-233.7092269999998
 30
0.0
 11
88.0
 21
-233.7092269999998
 31
0.0
  0
LINE
  5
451
  8
SIZE
  6
CONTINUOUS
 62
    30
 10
-166.0
 20
-40.0
 30
0.0
 11
-166.0
 21
-398.37280600000003
 31
0.0
  0
LINE
  5
452
  8
SIZE
  6
CONTINUOUS
 62
    30
 10
166.0
 20
-40.0
 30
0.0
 11
166.0
 21
-398.37280600000003
 31
0.0
  0
LINE
  5
453
  8
SIZE
  6
CONTINUOUS
 62
    30
 10
-154.0
 20
-378.37280600000003
 30
0.0
 11
154.0
 21
-378.37280600000003
 31
0.0
  0
TEXT
  5
454
  8
SIZE
  6
CONTINUOUS
 62
    30
 10
-74.05714285714285
 20
-351.26997599999982
 30
0.0
 40
64.0
  1
332
 41
0.9
 72
     1
 11
0.0
 21
-351.26997599999982
 31
0.0
  0
CIRCLE
  5
455
  8
SIZE
  6
CONTINUOUS
 62
    30
 10
-166.0
 20
-378.37280600000003
 30
0.0
 40
6.0
  0
LINE
  5
456
  8
SIZE
  6
CONTINUOUS
 62
    30
 10
-166.0
 20
-378.37280600000003
 30
0.0
 11
-154.0
 21
-378.37280600000003
 31
0.0
  0
CIRCLE
  5
457
  8
SIZE
  6
CONTINUOUS
 62
    30
 10
166.0
 20
-378.37280600000003
 30
0.0
 40
6.0
  0
LINE
  5
458
  8
SIZE
  6
CONTINUOUS
 62
    30
 10
166.0
 20
-378.37280600000003
 30
0.0
 11
154.0
 21
-378.37280600000003
 31
0.0
  0
LINE
  5
459
  8
SIZE
  6
CONTINUOUS
 62
    30
 10
-190.0
 20
-20.0
 30
0.0
 11
-190.0
 21
-532.36586799999998
 31
0.0
  0
LINE
  5
45A
  8
SIZE
  6
CONTINUOUS
 62
    30
 10
190.0
 20
-20.0
 30
0.0
 11
190.0
 21
-532.36586799999998
 31
0.0
  0
LINE
  5
45B
  8
SIZE
  6
CONTINUOUS
 62
    30
 10
-178.0
 20
-512.36586799999998
 30
0.0
 11
178.0
 21
-512.36586799999998
 31
0.0
  0
TEXT
  5
45C
  8
SIZE
  6
CONTINUOUS
 62
    30
 10
-110.5371428571428
 20
-488.50644799999992
 30
0.0
 40
64.0
  1
üá380
 41
0.9
 72
     1
 11
0.0
 21
-488.50644799999992
 31
0.0
  0
CIRCLE
  5
45D
  8
SIZE
  6
CONTINUOUS
 62
    30
 10
-190.0
 20
-512.36586799999998
 30
0.0
 40
6.0
  0
LINE
  5
45E
  8
SIZE
  6
CONTINUOUS
 62
    30
 10
-190.0
 20
-512.36586799999998
 30
0.0
 11
-178.0
 21
-512.36586799999998
 31
0.0
  0
CIRCLE
  5
45F
  8
SIZE
  6
CONTINUOUS
 62
    30
 10
190.0
 20
-512.36586799999998
 30
0.0
 40
6.0
  0
LINE
  5
460
  8
SIZE
  6
CONTINUOUS
 62
    30
 10
190.0
 20
-512.36586799999998
 30
0.0
 11
178.0
 21
-512.36586799999998
 31
0.0
  0
LINE
  5
461
  8
DETAIL
  6
CONTINUOUS
 62
     5
 10
153.5
 20
0.0
 30
0.0
 11
153.5
 21
208.0
 31
0.0
  0
LINE
  5
462
  8
DETAIL
  6
CONTINUOUS
 62
     5
 10
56.0
 20
208.0
 30
0.0
 11
62.39495999999999
 21
200.0
 31
0.0
  0
LINE
  5
463
  8
DETAIL
  6
CONTINUOUS
 62
     5
 10
-125.0
 20
7.0
 30
0.0
 11
-75.0
 21
7.0
 31
0.0
  0
LINE
  5
464
  8
DETAIL
  6
CONTINUOUS
 62
     5
 10
-125.0
 20
208.0
 30
0.0
 11
-75.0
 21
208.0
 31
0.0
  0
LINE
  5
465
  8
DETAIL
  6
CONTINUOUS
 62
     5
 10
-125.0
 20
208.0
 30
0.0
 11
-75.0
 21
208.0
 31
0.0
  0
LINE
  5
466
  8
DETAIL
  6
CONTINUOUS
 62
     5
 10
-75.0
 20
7.0
 30
0.0
 11
-75.0
 21
208.0
 31
0.0
  0
LINE
  5
467
  8
DETAIL
  6
CONTINUOUS
 62
     5
 10
-125.0
 20
7.0
 30
0.0
 11
-125.0
 21
208.0
 31
0.0
  0
LINE
  5
468
  8
DETAIL
  6
CONTINUOUS
 62
     5
 10
-125.0
 20
204.49999999999989
 30
0.0
 11
-75.0
 21
204.49999999999989
 31
0.0
  0
LINE
  5
469
  8
DETAIL
  6
CONTINUOUS
 62
     5
 10
125.0
 20
204.49999999999989
 30
0.0
 11
75.0
 21
204.49999999999989
 31
0.0
  0
LINE
  5
46A
  8
DETAIL
  6
CONTINUOUS
 62
     5
 10
125.0
 20
7.0
 30
0.0
 11
125.0
 21
208.0
 31
0.0
  0
LINE
  5
46B
  8
DETAIL
  6
CONTINUOUS
 62
     5
 10
75.0
 20
7.0
 30
0.0
 11
75.0
 21
208.0
 31
0.0
  0
LINE
  5
46C
  8
DETAIL
  6
CONTINUOUS
 62
     5
 10
125.0
 20
208.0
 30
0.0
 11
75.0
 21
208.0
 31
0.0
  0
LINE
  5
46D
  8
DETAIL
  6
CONTINUOUS
 62
     5
 10
125.0
 20
208.0
 30
0.0
 11
75.0
 21
208.0
 31
0.0
  0
LINE
  5
46E
  8
DETAIL
  6
CONTINUOUS
 62
     5
 10
125.0
 20
7.0
 30
0.0
 11
75.0
 21
7.0
 31
0.0
  0
LINE
  5
46F
  8
DETAIL
  6
CONTINUOUS
 62
     5
 10
153.5
 20
0.0
 30
0.0
 11
153.5
 21
229.0
 31
0.0
  0
LINE
  5
470
  8
DETAIL
  6
CONTINUOUS
 62
     5
 10
155.25
 20
229.0
 30
0.0
 11
155.25
 21
0.0
 31
0.0
  0
LINE
  5
471
  8
DETAIL
  6
CONTINUOUS
 62
     5
 10
158.75
 20
55.0
 30
0.0
 11
158.75
 21
0.0
 31
0.0
  0
LINE
  5
472
  8
DETAIL
  6
CONTINUOUS
 62
     5
 10
158.75
 20
229.0
 30
0.0
 11
153.5
 21
229.0
 31
0.0
  0
LINE
  5
473
  8
DETAIL
  6
CONTINUOUS
 62
     5
 10
158.75
 20
229.0
 30
0.0
 11
158.75
 21
215.0
 31
0.0
  0
LINE
  5
474
  8
DETAIL
  6
CONTINUOUS
 62
     5
 10
238.5
 20
55.0
 30
0.0
 11
238.5
 21
215.0
 31
0.0
  0
LINE
  5
475
  8
DETAIL
  6
CONTINUOUS
 62
     5
 10
268.5
 20
59.0
 30
0.0
 11
268.5
 21
211.0
 31
0.0
  0
LINE
  5
476
  8
DETAIL
  6
CONTINUOUS
 62
     5
 10
268.5
 20
211.0
 30
0.0
 11
238.5
 21
211.0
 31
0.0
  0
LINE
  5
477
  8
DETAIL
  6
CONTINUOUS
 62
     5
 10
268.5
 20
59.0
 30
0.0
 11
238.5
 21
59.0
 31
0.0
  0
LINE
  5
478
  8
DETAIL
  6
CONTINUOUS
 62
     5
 10
295.5
 20
63.0
 30
0.0
 11
268.5
 21
63.0
 31
0.0
  0
LINE
  5
479
  8
DETAIL
  6
CONTINUOUS
 62
     5
 10
295.5
 20
207.0
 30
0.0
 11
268.5
 21
207.0
 31
0.0
  0
LINE
  5
47A
  8
DETAIL
  6
CONTINUOUS
 62
     5
 10
238.5
 20
55.0
 30
0.0
 11
153.5
 21
55.0
 31
0.0
  0
LINE
  5
47B
  8
DETAIL
  6
CONTINUOUS
 62
     5
 10
238.5
 20
215.0
 30
0.0
 11
155.25
 21
215.0
 31
0.0
  0
LINE
  5
47C
  8
DETAIL
  6
CONTINUOUS
 62
     5
 10
153.5
 20
0.0
 30
0.0
 11
153.5
 21
200.0
 31
0.0
  0
LINE
  5
47D
  8
BASIS
  6
DASHDOT
 62
     6
 10
327.26425699999982
 20
135.0
 30
0.0
 11
130.216452
 21
135.0
 31
0.0
  0
LINE
  5
47E
  8
NOTE
  6
CONTINUOUS
 62
     4
 10
-100.0
 20
188.0
 30
0.0
 11
-100.0
 21
228.0
 31
0.0
  0
LINE
  5
47F
  8
NOTE
  6
CONTINUOUS
 62
     4
 10
-80.0
 20
208.0
 30
0.0
 11
-120.0
 21
208.0
 31
0.0
  0
CIRCLE
  5
480
  8
FIX
  6
CONTINUOUS
 62
    11
 10
-100.0
 20
208.0
 30
0.0
 40
7.5
  0
LINE
  5
481
  8
DETAIL
  6
CONTINUOUS
 62
     5
 10
-75.0
 20
192.0
 30
0.0
 11
75.0
 21
192.0
 31
0.0
  0
LINE
  5
482
  8
DETAIL
  6
CONTINUOUS
 62
     5
 10
-75.0
 20
200.0
 30
0.0
 11
75.0
 21
200.0
 31
0.0
  0
LINE
  5
483
  8
DETAIL
  6
CONTINUOUS
 62
     5
 10
125.0
 20
200.0
 30
0.0
 11
153.5
 21
200.0
 31
0.0
  0
LINE
  5
484
  8
DETAIL
  6
CONTINUOUS
 62
     5
 10
125.0
 20
192.0
 30
0.0
 11
153.5
 21
192.0
 31
0.0
  0
LINE
  5
485
  8
NOTE
  6
CONTINUOUS
 62
     4
 10
100.0
 20
188.0
 30
0.0
 11
100.0
 21
228.0
 31
0.0
  0
LINE
  5
486
  8
NOTE
  6
CONTINUOUS
 62
     4
 10
80.0
 20
208.0
 30
0.0
 11
120.0
 21
208.0
 31
0.0
  0
CIRCLE
  5
487
  8
FIX
  6
CONTINUOUS
 62
    11
 10
100.0
 20
208.0
 30
0.0
 40
7.5
  0
TEXT
  5
488
  8
NOTE
  6
CONTINUOUS
 62
     4
 10
361.60746899999998
 20
83.469680000000025
 30
0.0
 40
64.0
  1
EA
 41
0.9
  0
LINE
  5
489
  8
SIZE
  6
CONTINUOUS
 62
    30
 10
0.0
 20
311.47948300000002
 30
0.0
 11
0.0
 21
431.63216100000011
 31
0.0
  0
LINE
  5
48A
  8
SIZE
  6
CONTINUOUS
 62
    30
 10
-2.0
 20
285.88841500000001
 30
0.0
 11
-2.0
 21
431.63216100000011
 31
0.0
  0
LINE
  5
48B
  8
SIZE
  6
CONTINUOUS
 62
    30
 10
12.0
 20
411.63216099999988
 30
0.0
 11
24.0
 21
411.63216099999988
 31
0.0
  0
LINE
  5
48C
  8
SIZE
  6
CONTINUOUS
 62
    30
 10
-14.0
 20
411.63216099999988
 30
0.0
 11
-26.0
 21
411.63216099999988
 31
0.0
  0
LINE
  5
48D
  8
SIZE
  6
CONTINUOUS
 62
    30
 10
-272.21749199999999
 20
411.63216099999988
 30
0.0
 11
-2.0
 21
411.63216099999988
 31
0.0
  0
TEXT
  5
48E
  8
SIZE
  6
CONTINUOUS
 62
    30
 10
-247.21749199999971
 20
436.632161
 30
0.0
 40
64.0
  1
2
 41
0.9
 72
     1
 11
-228.01749199999981
 21
436.632161
 31
0.0
  0
LINE
  5
48F
  8
SIZE
  6
CONTINUOUS
 62
    30
 10
0.0
 20
411.63216099999988
 30
0.0
 11
-2.0
 21
411.63216099999988
 31
0.0
  0
LINE
  5
490
  8
SIZE
  6
CONTINUOUS
 62
    30
 10
0.0
 20
411.63216099999988
 30
0.0
 11
-2.0
 21
411.63216099999988
 31
0.0
  0
CIRCLE
  5
491
  8
SIZE
  6
CONTINUOUS
 62
    30
 10
0.0
 20
411.63216099999988
 30
0.0
 40
6.0
  0
LINE
  5
492
  8
SIZE
  6
CONTINUOUS
 62
    30
 10
0.0
 20
411.63216099999988
 30
0.0
 11
12.0
 21
411.63216099999988
 31
0.0
  0
CIRCLE
  5
493
  8
SIZE
  6
CONTINUOUS
 62
    30
 10
-2.0
 20
411.63216099999988
 30
0.0
 40
6.0
  0
LINE
  5
494
  8
SIZE
  6
CONTINUOUS
 62
    30
 10
-2.0
 20
411.63216099999988
 30
0.0
 11
-14.0
 21
411.63216099999988
 31
0.0
  0
LINE
  5
495
  8
SIZE
  6
CONTINUOUS
 62
    30
 10
295.5
 20
227.0
 30
0.0
 11
295.5
 21
520.94906100000003
 31
0.0
  0
LINE
  5
496
  8
SIZE
  6
CONTINUOUS
 62
    30
 10
268.5
 20
231.0
 30
0.0
 11
268.5
 21
520.94906100000003
 31
0.0
  0
LINE
  5
497
  8
SIZE
  6
CONTINUOUS
 62
    30
 10
307.5
 20
500.94906099999992
 30
0.0
 11
319.5
 21
500.94906099999992
 31
0.0
  0
LINE
  5
498
  8
SIZE
  6
CONTINUOUS
 62
    30
 10
256.49999999999989
 20
500.94906099999992
 30
0.0
 11
244.4999999999998
 21
500.94906099999992
 31
0.0
  0
TEXT
  5
499
  8
SIZE
  6
CONTINUOUS
 62
    30
 10
329.36003657142851
 20
524.11768099999995
 30
0.0
 40
64.0
  1
27
 41
0.9
 72
     1
 11
375.988608
 21
524.11768099999995
 31
0.0
  0
LINE
  5
49A
  8
SIZE
  6
CONTINUOUS
 62
    30
 10
295.5
 20
500.94906099999992
 30
0.0
 11
268.5
 21
500.94906099999992
 31
0.0
  0
LINE
  5
49B
  8
SIZE
  6
CONTINUOUS
 62
    30
 10
295.5
 20
500.94906099999992
 30
0.0
 11
268.5
 21
500.94906099999992
 31
0.0
  0
CIRCLE
  5
49C
  8
SIZE
  6
CONTINUOUS
 62
    30
 10
295.5
 20
500.94906099999992
 30
0.0
 40
6.0
  0
LINE
  5
49D
  8
SIZE
  6
CONTINUOUS
 62
    30
 10
295.5
 20
500.94906099999992
 30
0.0
 11
307.5
 21
500.94906099999992
 31
0.0
  0
CIRCLE
  5
49E
  8
SIZE
  6
CONTINUOUS
 62
    30
 10
268.5
 20
500.94906099999992
 30
0.0
 40
6.0
  0
LINE
  5
49F
  8
SIZE
  6
CONTINUOUS
 62
    30
 10
268.5
 20
500.94906099999992
 30
0.0
 11
256.49999999999989
 21
500.94906099999992
 31
0.0
  0
LINE
  5
4A0
  8
SIZE
  6
CONTINUOUS
 62
    30
 10
295.5
 20
227.0
 30
0.0
 11
295.5
 21
642.49972200000002
 31
0.0
  0
LINE
  5
4A1
  8
SIZE
  6
CONTINUOUS
 62
    30
 10
238.5
 20
235.0
 30
0.0
 11
238.5
 21
642.49972200000002
 31
0.0
  0
LINE
  5
4A2
  8
SIZE
  6
CONTINUOUS
 62
    30
 10
307.5
 20
622.49972200000002
 30
0.0
 11
319.5
 21
622.49972200000002
 31
0.0
  0
TEXT
  5
4A3
  8
SIZE
  6
CONTINUOUS
 62
    30
 10
328.37346157142838
 20
645.55389700000001
 30
0.0
 40
64.0
  1
57
 41
0.9
 72
     1
 11
375.00203299999993
 21
645.55389700000001
 31
0.0
  0
LINE
  5
4A4
  8
SIZE
  6
CONTINUOUS
 62
    30
 10
295.5
 20
622.49972200000002
 30
0.0
 11
238.5
 21
622.49972200000002
 31
0.0
  0
LINE
  5
4A5
  8
SIZE
  6
CONTINUOUS
 62
    30
 10
295.5
 20
622.49972200000002
 30
0.0
 11
238.5
 21
622.49972200000002
 31
0.0
  0
CIRCLE
  5
4A6
  8
SIZE
  6
CONTINUOUS
 62
    30
 10
295.5
 20
622.49972200000002
 30
0.0
 40
6.0
  0
LINE
  5
4A7
  8
SIZE
  6
CONTINUOUS
 62
    30
 10
295.5
 20
622.49972200000002
 30
0.0
 11
307.5
 21
622.49972200000002
 31
0.0
  0
CIRCLE
  5
4A8
  8
SIZE
  6
CONTINUOUS
 62
    30
 10
238.5
 20
622.49972200000002
 30
0.0
 40
6.0
  0
LINE
  5
4A9
  8
SIZE
  6
CONTINUOUS
 62
    30
 10
39.000002000000002
 20
253.3399999999998
 30
0.0
 11
39.000002000000002
 21
520.94906100000003
 31
0.0
  0
LINE
  5
4AA
  8
SIZE
  6
CONTINUOUS
 62
    30
 10
-43.000002000000002
 20
253.3399999999998
 30
0.0
 11
-43.000002000000002
 21
520.94906100000003
 31
0.0
  0
LINE
  5
4AB
  8
SIZE
  6
CONTINUOUS
 62
    30
 10
39.000002000000002
 20
500.94906099999992
 30
0.0
 11
-43.000002000000002
 21
500.94906099999992
 31
0.0
  0
CIRCLE
  5
4AC
  8
SIZE
  6
CONTINUOUS
 62
    30
 10
39.000002000000002
 20
500.94906099999992
 30
0.0
 40
6.0
  0
CIRCLE
  5
4AD
  8
SIZE
  6
CONTINUOUS
 62
    30
 10
-43.000002000000002
 20
500.94906099999992
 30
0.0
 40
6.0
  0
TEXT
  5
4AE
  8
SIZE
  6
CONTINUOUS
 62
    30
 10
-88.948571428571384
 20
525.94906100000003
 30
0.0
 40
64.0
  1
âË82
 41
0.9
 72
     1
 11
-2.0
 21
525.94906100000003
 31
0.0
  0
LINE
  5
4AF
  8
SIZE
  6
CONTINUOUS
 62
    30
 10
100.0
 20
248.0
 30
0.0
 11
100.0
 21
641.35301700000002
 31
0.0
  0
LINE
  5
4B0
  8
SIZE
  6
CONTINUOUS
 62
    30
 10
-100.0
 20
248.0
 30
0.0
 11
-100.0
 21
641.35301700000002
 31
0.0
  0
LINE
  5
4B1
  8
SIZE
  6
CONTINUOUS
 62
    30
 10
88.0
 20
621.35301700000002
 30
0.0
 11
-88.0
 21
621.35301700000002
 31
0.0
  0
CIRCLE
  5
4B2
  8
SIZE
  6
CONTINUOUS
 62
    30
 10
100.0
 20
621.35301700000002
 30
0.0
 40
6.0
  0
LINE
  5
4B3
  8
SIZE
  6
CONTINUOUS
 62
    30
 10
100.0
 20
621.35301700000002
 30
0.0
 11
88.0
 21
621.35301700000002
 31
0.0
  0
CIRCLE
  5
4B4
  8
SIZE
  6
CONTINUOUS
 62
    30
 10
-100.0
 20
621.35301700000002
 30
0.0
 40
6.0
  0
LINE
  5
4B5
  8
SIZE
  6
CONTINUOUS
 62
    30
 10
-100.0
 20
621.35301700000002
 30
0.0
 11
-88.0
 21
621.35301700000002
 31
0.0
  0
TEXT
  5
4B6
  8
SIZE
  6
CONTINUOUS
 62
    30
 10
-74.05714285714285
 20
646.35301700000002
 30
0.0
 40
64.0
  1
200
 41
0.9
 72
     1
 11
0.0
 21
646.35301700000002
 31
0.0
  0
LINE
  5
4B7
  8
SIZE
  6
CONTINUOUS
 62
    30
 10
153.5
 20
249.0
 30
0.0
 11
153.5
 21
768.28815699999984
 31
0.0
  0
LINE
  5
4B8
  8
SIZE
  6
CONTINUOUS
 62
    30
 10
295.5
 20
227.0
 30
0.0
 11
295.5
 21
768.28815699999984
 31
0.0
  0
LINE
  5
4B9
  8
SIZE
  6
CONTINUOUS
 62
    30
 10
141.5
 20
748.28815699999984
 30
0.0
 11
129.49999999999969
 21
748.28815699999984
 31
0.0
  0
LINE
  5
4BA
  8
SIZE
  6
CONTINUOUS
 62
    30
 10
153.5
 20
748.28815699999984
 30
0.0
 11
295.5
 21
748.28815699999984
 31
0.0
  0
CIRCLE
  5
4BB
  8
SIZE
  6
CONTINUOUS
 62
    30
 10
153.5
 20
748.28815699999984
 30
0.0
 40
6.0
  0
LINE
  5
4BC
  8
SIZE
  6
CONTINUOUS
 62
    30
 10
153.5
 20
748.28815699999984
 30
0.0
 11
141.5
 21
748.28815699999984
 31
0.0
  0
CIRCLE
  5
4BD
  8
SIZE
  6
CONTINUOUS
 62
    30
 10
295.5
 20
748.28815699999984
 30
0.0
 40
6.0
  0
TEXT
  5
4BE
  8
SIZE
  6
CONTINUOUS
 62
    30
 10
155.92857142857139
 20
773.28815699999984
 30
0.0
 40
64.0
  1
142
 41
0.9
 72
     1
 11
224.5
 21
773.28815699999984
 31
0.0
  0
LINE
  5
4BF
  8
SIZE
  6
CONTINUOUS
 62
    30
 10
153.5
 20
249.0
 30
0.0
 11
153.5
 21
768.28815699999984
 31
0.0
  0
LINE
  5
4C0
  8
SIZE
  6
CONTINUOUS
 62
    30
 10
-153.5
 20
220.0
 30
0.0
 11
-153.5
 21
768.28815699999984
 31
0.0
  0
LINE
  5
4C1
  8
SIZE
  6
CONTINUOUS
 62
    30
 10
141.5
 20
748.28815699999984
 30
0.0
 11
-141.5
 21
748.28815699999984
 31
0.0
  0
CIRCLE
  5
4C2
  8
SIZE
  6
CONTINUOUS
 62
    30
 10
153.5
 20
748.28815699999984
 30
0.0
 40
6.0
  0
LINE
  5
4C3
  8
SIZE
  6
CONTINUOUS
 62
    30
 10
153.5
 20
748.28815699999984
 30
0.0
 11
141.5
 21
748.28815699999984
 31
0.0
  0
CIRCLE
  5
4C4
  8
SIZE
  6
CONTINUOUS
 62
    30
 10
-153.5
 20
748.28815699999984
 30
0.0
 40
6.0
  0
LINE
  5
4C5
  8
SIZE
  6
CONTINUOUS
 62
    30
 10
-153.5
 20
748.28815699999984
 30
0.0
 11
-141.5
 21
748.28815699999984
 31
0.0
  0
TEXT
  5
4C6
  8
SIZE
  6
CONTINUOUS
 62
    30
 10
-110.5371428571428
 20
773.28815699999984
 30
0.0
 40
64.0
  1
üá307
 41
0.9
 72
     1
 11
0.0
 21
773.28815699999984
 31
0.0
  0
LINE
  5
4C7
  8
SIZE
  6
CONTINUOUS
 62
    30
 10
875.41237599999999
 20
215.0
 30
0.0
 11
875.41237599999999
 21
462.87571200000002
 31
0.0
  0
LINE
  5
4C8
  8
SIZE
  6
CONTINUOUS
 62
    30
 10
750.61692000000005
 20
211.0
 30
0.0
 11
750.61692000000005
 21
461.51754699999992
 31
0.0
  0
LINE
  5
4C9
  8
SIZE
  6
CONTINUOUS
 62
    30
 10
623.35026600000003
 20
207.0
 30
0.0
 11
623.35026600000003
 21
458.80121799999989
 31
0.0
  0
LINE
  5
4CA
  8
SIZE
  6
CONTINUOUS
 62
    30
 10
298.49999999999989
 20
500.94906099999992
 30
0.0
 11
439.15073899999999
 21
500.94906099999992
 31
0.0
  0
LINE
  5
4CB
  8
SIZE
  6
CONTINUOUS
 62
    30
 10
298.49999999999989
 20
622.49972200000002
 30
0.0
 11
436.34805399999999
 21
622.49972200000002
 31
0.0
  0
LINE
  5
4CC
  8
SIZE
  6
CONTINUOUS
 62
    30
 10
-4.0
 20
411.63216099999988
 30
0.0
 11
-255.91516200000001
 21
411.63216099999988
 31
0.0
  0
LINE
  5
4CD
  8
NOTE
  6
CONTINUOUS
 62
     4
 10
-100.0
 20
208.0
 30
0.0
 11
-363.09238900000003
 21
409.59560399999992
 31
0.0
  0
LINE
  5
4CE
  8
NOTE
  6
CONTINUOUS
 62
     4
 10
-136.77335099999991
 20
223.73914300000001
 30
0.0
 11
-100.0
 21
208.0
 31
0.0
  0
LINE
  5
4CF
  8
NOTE
  6
CONTINUOUS
 62
     4
 10
-100.0
 20
208.0
 30
0.0
 11
-123.9770849999999
 21
240.01717400000001
 31
0.0
  0
ARC
  5
4D0
  8
DETAIL
  6
CONTINUOUS
 62
     5
 10
-182.99999700000001
 20
-0.8571229999999998
 30
0.0
 40
7.0
 50
180.0
 51
258.07308499999999
  0
LINE
  5
4D1
  8
DETAIL
  6
CONTINUOUS
 62
     5
 10
-190.0
 20
-0.8571229999999998
 30
0.0
 11
-190.0
 21
0.0
 31
0.0
  0
LINE
  5
4D2
  8
DETAIL
  6
CONTINUOUS
 62
     5
 10
-148.094582
 20
-15.0
 30
0.0
 11
0.0
 21
-15.0
 31
0.0
  0
ARC
  5
4D3
  8
DETAIL
  6
CONTINUOUS
 62
     5
 10
-66.98603
 20
483.46498399999979
 30
0.0
 40
505.02072999999967
 50
256.55064800000002
 51
260.75801999999999
  0
LINE
  5
4D4
  8
DETAIL
  6
CONTINUOUS
 62
     5
 10
148.094582
 20
-15.0
 30
0.0
 11
0.0
 21
-15.0
 31
0.0
  0
ARC
  5
4D5
  8
DETAIL
  6
CONTINUOUS
 62
     5
 10
66.98603
 20
483.46498399999979
 30
0.0
 40
505.02072999999967
 50
279.24197999999973
 51
283.44935199999992
  0
ARC
  5
4D6
  8
DETAIL
  6
CONTINUOUS
 62
     5
 10
182.99999700000001
 20
-0.8571229999999998
 30
0.0
 40
7.0
 50
281.92691500000001
 51
0.0
  0
LINE
  5
4D7
  8
DETAIL
  6
CONTINUOUS
 62
     5
 10
190.0
 20
-0.8571229999999998
 30
0.0
 11
190.0
 21
0.0
 31
0.0
  0
LINE
  5
4D8
  8
DETAIL
  6
CONTINUOUS
 62
     5
 10
185.20729700000001
 20
-7.5
 30
0.0
 11
-185.20729700000001
 21
-7.5
 31
0.0
  0
LINE
  5
4D9
  8
DETAIL
  6
CONTINUOUS
 62
     5
 10
189.66393500000001
 20
-3.0
 30
0.0
 11
-189.66393500000001
 21
-3.0
 31
0.0
  0
LINE
  5
4DA
  8
DETAIL
  6
CONTINUOUS
 62
     5
 10
-190.0
 20
-0.8571229999999998
 30
0.0
 11
-190.0
 21
0.0
 31
0.0
  0
LINE
  5
4DB
  8
DETAIL
  6
CONTINUOUS
 62
     5
 10
190.0
 20
-0.8571229999999998
 30
0.0
 11
190.0
 21
0.0
 31
0.0
  0
LINE
  5
4DC
  8
SIZE
  6
CONTINUOUS
 62
    30
 10
-168.0945819999998
 20
-15.0
 30
0.0
 11
-620.343298
 21
-15.0
 31
0.0
  0
LINE
  5
4DD
  8
SIZE
  6
CONTINUOUS
 62
    30
 10
-210.0
 20
0.0
 30
0.0
 11
-620.343298
 21
0.0
 31
0.0
  0
LINE
  5
4DE
  8
SIZE
  6
CONTINUOUS
 62
    30
 10
-600.343298
 20
-27.0
 30
0.0
 11
-600.343298
 21
-39.0
 31
0.0
  0
LINE
  5
4DF
  8
SIZE
  6
CONTINUOUS
 62
    30
 10
-600.343298
 20
12.0
 30
0.0
 11
-600.343298
 21
24.0
 31
0.0
  0
TEXT
  5
4E0
  8
SIZE
  6
CONTINUOUS
 62
    30
 10
-624.09161900000004
 20
-118.3830391428571
 30
0.0
 40
64.0
  1
15
 50
90.0
 41
0.9
 72
     1
 11
-624.09161900000004
 21
-77.240181999999976
 31
0.0
  0
LINE
  5
4E1
  8
SIZE
  6
CONTINUOUS
 62
    30
 10
-600.343298
 20
-15.0
 30
0.0
 11
-600.343298
 21
0.0
 31
0.0
  0
LINE
  5
4E2
  8
SIZE
  6
CONTINUOUS
 62
    30
 10
-600.343298
 20
-15.0
 30
0.0
 11
-600.343298
 21
0.0
 31
0.0
  0
CIRCLE
  5
4E3
  8
SIZE
  6
CONTINUOUS
 62
    30
 10
-600.343298
 20
-15.0
 30
0.0
 40
6.0
  0
LINE
  5
4E4
  8
SIZE
  6
CONTINUOUS
 62
    30
 10
-600.343298
 20
-15.0
 30
0.0
 11
-600.343298
 21
-27.0
 31
0.0
  0
CIRCLE
  5
4E5
  8
SIZE
  6
CONTINUOUS
 62
    30
 10
-600.343298
 20
0.0
 30
0.0
 40
6.0
  0
LINE
  5
4E6
  8
SIZE
  6
CONTINUOUS
 62
    30
 10
-600.343298
 20
0.0
 30
0.0
 11
-600.343298
 21
12.0
 31
0.0
  0
LINE
  5
4E7
  8
SIZE
  6
CONTINUOUS
 62
    30
 10
-210.0
 20
0.0
 30
0.0
 11
-620.343298
 21
0.0
 31
0.0
  0
LINE
  5
4E8
  8
SIZE
  6
CONTINUOUS
 62
    30
 10
-26.852011999999991
 20
243.0
 30
0.0
 11
-620.343298
 21
243.0
 31
0.0
  0
LINE
  5
4E9
  8
SIZE
  6
CONTINUOUS
 62
    30
 10
-600.343298
 20
12.0
 30
0.0
 11
-600.343298
 21
231.0
 31
0.0
  0
TEXT
  5
4EA
  8
SIZE
  6
CONTINUOUS
 62
    30
 10
-624.09161900000004
 20
47.44285714285715
 30
0.0
 40
64.0
  1
243
 50
90.0
 41
0.9
 72
     1
 11
-624.09161900000004
 21
121.5
 31
0.0
  0
CIRCLE
  5
4EB
  8
SIZE
  6
CONTINUOUS
 62
    30
 10
-600.343298
 20
0.0
 30
0.0
 40
6.0
  0
LINE
  5
4EC
  8
SIZE
  6
CONTINUOUS
 62
    30
 10
-600.343298
 20
0.0
 30
0.0
 11
-600.343298
 21
12.0
 31
0.0
  0
CIRCLE
  5
4ED
  8
SIZE
  6
CONTINUOUS
 62
    30
 10
-600.343298
 20
243.0
 30
0.0
 40
6.0
  0
LINE
  5
4EE
  8
SIZE
  6
CONTINUOUS
 62
    30
 10
-600.343298
 20
243.0
 30
0.0
 11
-600.343298
 21
231.0
 31
0.0
  0
LINE
  5
4EF
  8
SIZE
  6
CONTINUOUS
 62
    30
 10
-210.0
 20
0.0
 30
0.0
 11
-485.18085599999989
 21
0.0
 31
0.0
  0
LINE
  5
4F0
  8
SIZE
  6
CONTINUOUS
 62
    30
 10
-173.5
 20
200.0
 30
0.0
 11
-485.18085599999989
 21
200.0
 31
0.0
  0
LINE
  5
4F1
  8
SIZE
  6
CONTINUOUS
 62
    30
 10
-465.18085599999989
 20
12.0
 30
0.0
 11
-465.18085599999989
 21
188.0
 31
0.0
  0
TEXT
  5
4F2
  8
SIZE
  6
CONTINUOUS
 62
    30
 10
-490.56358899999998
 20
25.94285714285715
 30
0.0
 40
64.0
  1
200
 50
90.0
 41
0.9
 72
     1
 11
-490.56358899999998
 21
100.0
 31
0.0
  0
CIRCLE
  5
4F3
  8
SIZE
  6
CONTINUOUS
 62
    30
 10
-465.18085599999989
 20
0.0
 30
0.0
 40
6.0
  0
LINE
  5
4F4
  8
SIZE
  6
CONTINUOUS
 62
    30
 10
-465.18085599999989
 20
0.0
 30
0.0
 11
-465.18085599999989
 21
12.0
 31
0.0
  0
CIRCLE
  5
4F5
  8
SIZE
  6
CONTINUOUS
 62
    30
 10
-465.18085599999989
 20
200.0
 30
0.0
 40
6.0
  0
LINE
  5
4F6
  8
SIZE
  6
CONTINUOUS
 62
    30
 10
-465.18085599999989
 20
200.0
 30
0.0
 11
-465.18085599999989
 21
188.0
 31
0.0
  0
LINE
  5
4F7
  8
SIZE
  6
CONTINUOUS
 62
    30
 10
-173.5
 20
200.0
 30
0.0
 11
-485.18085599999989
 21
200.0
 31
0.0
  0
LINE
  5
4F8
  8
SIZE
  6
CONTINUOUS
 62
    30
 10
-80.0
 20
208.0
 30
0.0
 11
-485.18085599999989
 21
208.0
 31
0.0
  0
LINE
  5
4F9
  8
SIZE
  6
CONTINUOUS
 62
    30
 10
-465.18085599999989
 20
188.0
 30
0.0
 11
-465.18085599999989
 21
176.0
 31
0.0
  0
LINE
  5
4FA
  8
SIZE
  6
CONTINUOUS
 62
    30
 10
-465.18085599999989
 20
220.0
 30
0.0
 11
-465.18085599999989
 21
232.0
 31
0.0
  0
LINE
  5
4FB
  8
SIZE
  6
CONTINUOUS
 62
    30
 10
-465.18085599999989
 20
333.92230699999999
 30
0.0
 11
-465.18085599999989
 21
208.0
 31
0.0
  0
TEXT
  5
4FC
  8
SIZE
  6
CONTINUOUS
 62
    30
 10
-490.18085599999989
 20
270.52230699999978
 30
0.0
 40
64.0
  1
8
 50
90.0
 41
0.9
 72
     1
 11
-490.18085599999989
 21
289.72230699999989
 31
0.0
  0
LINE
  5
4FD
  8
SIZE
  6
CONTINUOUS
 62
    30
 10
-465.18085599999989
 20
200.0
 30
0.0
 11
-465.18085599999989
 21
208.0
 31
0.0
  0
LINE
  5
4FE
  8
SIZE
  6
CONTINUOUS
 62
    30
 10
-465.18085599999989
 20
200.0
 30
0.0
 11
-465.18085599999989
 21
208.0
 31
0.0
  0
CIRCLE
  5
4FF
  8
SIZE
  6
CONTINUOUS
 62
    30
 10
-465.18085599999989
 20
200.0
 30
0.0
 40
6.0
  0
LINE
  5
500
  8
SIZE
  6
CONTINUOUS
 62
    30
 10
-465.18085599999989
 20
200.0
 30
0.0
 11
-465.18085599999989
 21
188.0
 31
0.0
  0
CIRCLE
  5
501
  8
SIZE
  6
CONTINUOUS
 62
    30
 10
-465.18085599999989
 20
208.0
 30
0.0
 40
6.0
  0
LINE
  5
502
  8
SIZE
  6
CONTINUOUS
 62
    30
 10
-465.18085599999989
 20
208.0
 30
0.0
 11
-465.18085599999989
 21
220.0
 31
0.0
  0
LINE
  5
503
  8
SIZE
  6
CONTINUOUS
 62
    30
 10
-600.343298
 20
-15.0
 30
0.0
 11
-600.343298
 21
-121.94368299999999
 31
0.0
  0
LINE
  5
504
  8
SIZE
  6
CONTINUOUS
 62
    30
 10
210.0
 20
0.0
 30
0.0
 11
1045.0419999999999
 21
0.0
 31
0.0
  0
LINE
  5
505
  8
SIZE
  6
CONTINUOUS
 62
    30
 10
178.75
 20
229.0
 30
0.0
 11
1045.0419999999999
 21
229.0
 31
0.0
  0
LINE
  5
506
  8
SIZE
  6
CONTINUOUS
 62
    30
 10
1025.0419999999999
 20
12.0
 30
0.0
 11
1025.0419999999999
 21
217.0
 31
0.0
  0
TEXT
  5
507
  8
SIZE
  6
CONTINUOUS
 62
    30
 10
999.24570400000005
 20
40.81428571428571
 30
0.0
 40
64.0
  1
229
 50
90.0
 41
0.9
 72
     1
 11
999.24570400000005
 21
113.5
 31
0.0
  0
CIRCLE
  5
508
  8
SIZE
  6
CONTINUOUS
 62
    30
 10
1025.0419999999999
 20
0.0
 30
0.0
 40
6.0
  0
LINE
  5
509
  8
SIZE
  6
CONTINUOUS
 62
    30
 10
1025.0419999999999
 20
0.0
 30
0.0
 11
1025.0419999999999
 21
12.0
 31
0.0
  0
CIRCLE
  5
50A
  8
SIZE
  6
CONTINUOUS
 62
    30
 10
1025.0419999999999
 20
229.0
 30
0.0
 40
6.0
  0
LINE
  5
50B
  8
SIZE
  6
CONTINUOUS
 62
    30
 10
1025.0419999999999
 20
229.0
 30
0.0
 11
1025.0419999999999
 21
217.0
 31
0.0
  0
LINE
  5
50C
  8
SIZE
  6
CONTINUOUS
 62
    30
 10
258.49999999999989
 20
55.0
 30
0.0
 11
895.41237599999988
 21
55.0
 31
0.0
  0
LINE
  5
50D
  8
SIZE
  6
CONTINUOUS
 62
    30
 10
258.49999999999989
 20
215.0
 30
0.0
 11
895.41237599999988
 21
215.0
 31
0.0
  0
LINE
  5
50E
  8
SIZE
  6
CONTINUOUS
 62
    30
 10
875.41237599999999
 20
67.0
 30
0.0
 11
875.41237599999999
 21
203.0
 31
0.0
  0
TEXT
  5
50F
  8
SIZE
  6
CONTINUOUS
 62
    30
 10
849.48203999999998
 20
240.12952142857119
 30
0.0
 40
64.0
  1
üá160
 50
90.0
 41
0.9
 72
     1
 11
849.48203999999998
 21
345.18094999999983
 31
0.0
  0
CIRCLE
  5
510
  8
SIZE
  6
CONTINUOUS
 62
    30
 10
875.41237599999999
 20
55.0
 30
0.0
 40
6.0
  0
LINE
  5
511
  8
SIZE
  6
CONTINUOUS
 62
    30
 10
875.41237599999999
 20
55.0
 30
0.0
 11
875.41237599999999
 21
67.0
 31
0.0
  0
CIRCLE
  5
512
  8
SIZE
  6
CONTINUOUS
 62
    30
 10
875.41237599999999
 20
215.0
 30
0.0
 40
6.0
  0
LINE
  5
513
  8
SIZE
  6
CONTINUOUS
 62
    30
 10
875.41237599999999
 20
215.0
 30
0.0
 11
875.41237599999999
 21
203.0
 31
0.0
  0
LINE
  5
514
  8
SIZE
  6
CONTINUOUS
 62
    30
 10
288.5
 20
59.0
 30
0.0
 11
770.61692000000005
 21
59.0
 31
0.0
  0
LINE
  5
515
  8
SIZE
  6
CONTINUOUS
 62
    30
 10
288.5
 20
211.0
 30
0.0
 11
770.61692000000005
 21
211.0
 31
0.0
  0
LINE
  5
516
  8
SIZE
  6
CONTINUOUS
 62
    30
 10
750.61692000000005
 20
71.0
 30
0.0
 11
750.61692000000005
 21
199.0
 31
0.0
  0
TEXT
  5
517
  8
SIZE
  6
CONTINUOUS
 62
    30
 10
725.76422300000002
 20
236.28952142857119
 30
0.0
 40
64.0
  1
âË152
 50
90.0
 41
0.9
 72
     1
 11
725.76422300000002
 21
345.18094999999983
 31
0.0
  0
CIRCLE
  5
518
  8
SIZE
  6
CONTINUOUS
 62
    30
 10
750.61692000000005
 20
59.0
 30
0.0
 40
6.0
  0
LINE
  5
519
  8
SIZE
  6
CONTINUOUS
 62
    30
 10
750.61692000000005
 20
59.0
 30
0.0
 11
750.61692000000005
 21
71.0
 31
0.0
  0
CIRCLE
  5
51A
  8
SIZE
  6
CONTINUOUS
 62
    30
 10
750.61692000000005
 20
211.0
 30
0.0
 40
6.0
  0
LINE
  5
51B
  8
SIZE
  6
CONTINUOUS
 62
    30
 10
750.61692000000005
 20
211.0
 30
0.0
 11
750.61692000000005
 21
199.0
 31
0.0
  0
LINE
  5
51C
  8
SIZE
  6
CONTINUOUS
 62
    30
 10
315.5
 20
207.0
 30
0.0
 11
643.35026600000003
 21
207.0
 31
0.0
  0
LINE
  5
51D
  8
SIZE
  6
CONTINUOUS
 62
    30
 10
315.5
 20
63.0
 30
0.0
 11
643.35026600000003
 21
63.0
 31
0.0
  0
LINE
  5
51E
  8
SIZE
  6
CONTINUOUS
 62
    30
 10
623.35026600000003
 20
195.0
 30
0.0
 11
623.35026600000003
 21
75.0
 31
0.0
  0
LINE
  5
51F
  8
SIZE
  6
CONTINUOUS
 62
    30
 10
623.35026600000003
 20
468.92380700000001
 30
0.0
 11
623.35026600000003
 21
207.0
 31
0.0
  0
TEXT
  5
520
  8
SIZE
  6
CONTINUOUS
 62
    30
 10
598.35026600000003
 20
234.91809285714271
 30
0.0
 40
64.0
  1
âË144
 50
90.0
 41
0.9
 72
     1
 11
598.35026600000003
 21
345.18094999999983
 31
0.0
  0
CIRCLE
  5
521
  8
SIZE
  6
CONTINUOUS
 62
    30
 10
623.35026600000003
 20
207.0
 30
0.0
 40
6.0
  0
LINE
  5
522
  8
SIZE
  6
CONTINUOUS
 62
    30
 10
623.35026600000003
 20
207.0
 30
0.0
 11
623.35026600000003
 21
195.0
 31
0.0
  0
CIRCLE
  5
523
  8
SIZE
  6
CONTINUOUS
 62
    30
 10
623.35026600000003
 20
63.0
 30
0.0
 40
6.0
  0
LINE
  5
524
  8
SIZE
  6
CONTINUOUS
 62
    30
 10
623.35026600000003
 20
63.0
 30
0.0
 11
623.35026600000003
 21
75.0
 31
0.0
  0
LINE
  5
525
  8
SIZE
  6
CONTINUOUS
 62
    30
 10
210.0
 20
0.0
 30
0.0
 11
590.49613699999975
 21
0.0
 31
0.0
  0
LINE
  5
526
  8
SIZE
  6
CONTINUOUS
 62
    30
 10
347.26425699999999
 20
135.0
 30
0.0
 11
590.49613699999975
 21
135.0
 31
0.0
  0
LINE
  5
527
  8
SIZE
  6
CONTINUOUS
 62
    30
 10
570.49613699999975
 20
12.0
 30
0.0
 11
570.49613699999975
 21
123.0
 31
0.0
  0
TEXT
  5
528
  8
SIZE
  6
CONTINUOUS
 62
    30
 10
545.07110399999976
 20
-157.9456155714285
 30
0.0
 40
64.0
  1
135
 50
90.0
 41
0.9
 72
     1
 11
545.07110399999976
 21
-89.374187000000006
 31
0.0
  0
CIRCLE
  5
529
  8
SIZE
  6
CONTINUOUS
 62
    30
 10
570.49613699999975
 20
0.0
 30
0.0
 40
6.0
  0
LINE
  5
52A
  8
SIZE
  6
CONTINUOUS
 62
    30
 10
570.49613699999975
 20
0.0
 30
0.0
 11
570.49613699999975
 21
12.0
 31
0.0
  0
CIRCLE
  5
52B
  8
SIZE
  6
CONTINUOUS
 62
    30
 10
570.49613699999975
 20
135.0
 30
0.0
 40
6.0
  0
LINE
  5
52C
  8
SIZE
  6
CONTINUOUS
 62
    30
 10
570.49613699999975
 20
135.0
 30
0.0
 11
570.49613699999975
 21
123.0
 31
0.0
  0
LINE
  5
52D
  8
SIZE
  6
CONTINUOUS
 62
    30
 10
570.49613699999975
 20
-2.0
 30
0.0
 11
570.49613699999975
 21
-161.2763919999999
 31
0.0
  0
LINE
  5
52E
  8
DETAIL
  6
CONTINUOUS
 62
     5
 10
295.5
 20
63.0
 30
0.0
 11
295.5
 21
207.0
 31
0.0
  0
TEXT
  5
52F
  8
ETC
  6
CONTINUOUS
 62
    61
 10
606.18630215795963
 20
841.53036017035572
 30
0.0
 40
64.0
  1
VD-20ZH7_5
 41
0.9
  0
TEXT
  5
530
  8
ETC
  6
CONTINUOUS
 62
    61
 10
740.50721287420515
 20
662.49634766934435
 30
0.0
 40
50.0
  1
VD-20ZH7
 41
0.9
  0
TEXT
  5
531
  8
ETC
  6
CONTINUOUS
 62
    61
 10
598.27059515795975
 20
743.46016117035583
 30
0.0
 40
64.0
  1
èÀïCÉ¯
 41
0.9
  0
LINE
  5
532
  8
DETAIL
  6
CONTINUOUS
 62
     5
 39
50.0
 10
-190.0
 20
0.0
 30
0.0
 11
190.0
 21
0.0
 31
0.0
  0
LINE
  5
533
  8
OUTLINE
  6
CONTINUOUS
 62
     3
 10
-153.5
 20
200.0
 30
0.0
 11
153.5
 21
200.0
 31
0.0
  0
LINE
  5
534
  8
OUTLINE
  6
CONTINUOUS
 62
     3
 39
50.0
 10
-190.0
 20
0.0
 30
0.0
 11
190.0
 21
0.0
 31
0.0
  0
LINE
  5
535
  8
OUTLINE
  6
CONTINUOUS
 62
     3
 10
-153.5
 20
0.0
 30
0.0
 11
-153.5
 21
200.0
 31
0.0
  0
LINE
  5
536
  8
OUTLINE
  6
CONTINUOUS
 62
     3
 10
153.5
 20
0.0
 30
0.0
 11
153.5
 21
200.0
 31
0.0
  0
POINT
  5
537
  8
ARRANGE
  6
CONTINUOUS
 62
     1
 10
0.0
 20
0.0
 30
0.0
  0
LINE
  5
55B
  8
BASIS
  6
DASHDOT
 62
     6
 10
-79.284600999999952
 20
18.0
 30
0.0
 11
-28.718518999999951
 21
18.0
 31
0.0
  0
LINE
  5
55C
  8
DETAIL
  6
CONTINUOUS
 62
     5
 10
-64.750779999999963
 20
11.0
 30
0.0
 11
-43.750779999999963
 21
11.0
 31
0.0
  0
LINE
  5
55D
  8
DETAIL
  6
CONTINUOUS
 62
     5
 10
-64.750779999999963
 20
25.0
 30
0.0
 11
-43.750779999999963
 21
25.0
 31
0.0
  0
LINE
  5
55E
  8
DETAIL
  6
CONTINUOUS
 62
     5
 10
-64.750779999999963
 20
8.0
 30
0.0
 11
-43.750779999999963
 21
8.0
 31
0.0
  0
LINE
  5
55F
  8
DETAIL
  6
CONTINUOUS
 62
     5
 10
-64.750779999999963
 20
28.0
 30
0.0
 11
-43.750779999999963
 21
28.0
 31
0.0
  0
ARC
  5
560
  8
DETAIL
  6
CONTINUOUS
 62
     5
 10
-64.750779999999963
 20
18.0
 30
0.0
 40
7.0
 50
180.0
 51
270.0
  0
ARC
  5
561
  8
DETAIL
  6
CONTINUOUS
 62
     5
 10
-64.750779999999963
 20
18.0
 30
0.0
 40
7.0
 50
90.0
 51
180.0
  0
ARC
  5
562
  8
DETAIL
  6
CONTINUOUS
 62
     5
 10
-64.750779999999963
 20
18.0
 30
0.0
 40
10.0
 50
180.0
 51
270.0
  0
ARC
  5
563
  8
DETAIL
  6
CONTINUOUS
 62
     5
 10
-64.750779999999963
 20
18.0
 30
0.0
 40
10.0
 50
90.0
 51
180.0
  0
LINE
  5
564
  8
DETAIL
  6
CONTINUOUS
 62
     5
 10
-74.750779999999963
 20
18.0
 30
0.0
 11
-74.750779999999963
 21
18.0
 31
0.0
  0
LINE
  5
565
  8
BASIS
  6
DASHDOT
 62
     6
 10
-54.250779999999963
 20
3.523890999999991
 30
0.0
 11
-54.250779999999963
 21
33.438380999999993
 31
0.0
  0
ARC
  5
566
  8
DETAIL
  6
CONTINUOUS
 62
     5
 10
-43.750779999999963
 20
18.0
 30
0.0
 40
7.0
 50
0.0
 51
90.0
  0
ARC
  5
567
  8
DETAIL
  6
CONTINUOUS
 62
     5
 10
-43.750779999999963
 20
18.0
 30
0.0
 40
7.0
 50
270.0
 51
0.0
  0
ARC
  5
568
  8
DETAIL
  6
CONTINUOUS
 62
     5
 10
-43.750779999999963
 20
18.0
 30
0.0
 40
10.0
 50
270.0
 51
0.0
  0
ARC
  5
569
  8
DETAIL
  6
CONTINUOUS
 62
     5
 10
-43.750779999999963
 20
18.0
 30
0.0
 40
10.0
 50
0.0
 51
90.0
  0
LINE
  5
56A
  8
BASIS
  6
DASHDOT
 62
     6
 10
79.783041000000026
 20
18.0
 30
0.0
 11
29.216959000000031
 21
18.0
 31
0.0
  0
LINE
  5
56B
  8
DETAIL
  6
CONTINUOUS
 62
     5
 10
65.249220000000037
 20
28.0
 30
0.0
 11
44.249220000000037
 21
28.0
 31
0.0
  0
LINE
  5
56C
  8
DETAIL
  6
CONTINUOUS
 62
     5
 10
65.249220000000037
 20
8.0
 30
0.0
 11
44.249220000000037
 21
8.0
 31
0.0
  0
LINE
  5
56D
  8
DETAIL
  6
CONTINUOUS
 62
     5
 10
65.249220000000037
 20
25.0
 30
0.0
 11
44.249220000000037
 21
25.0
 31
0.0
  0
LINE
  5
56E
  8
DETAIL
  6
CONTINUOUS
 62
     5
 10
65.249220000000037
 20
11.0
 30
0.0
 11
44.249220000000037
 21
11.0
 31
0.0
  0
LINE
  5
56F
  8
BASIS
  6
DASHDOT
 62
     6
 10
54.74922000000003
 20
3.523890999999991
 30
0.0
 11
54.74922000000003
 21
33.438380999999993
 31
0.0
  0
ARC
  5
570
  8
DETAIL
  6
CONTINUOUS
 62
     5
 10
44.249220000000037
 20
18.0
 30
0.0
 40
10.0
 50
90.0
 51
180.0
  0
ARC
  5
571
  8
DETAIL
  6
CONTINUOUS
 62
     5
 10
44.249220000000037
 20
18.0
 30
0.0
 40
10.0
 50
180.0
 51
270.0
  0
ARC
  5
572
  8
DETAIL
  6
CONTINUOUS
 62
     5
 10
44.249220000000037
 20
18.0
 30
0.0
 40
7.0
 50
180.0
 51
270.0
  0
ARC
  5
573
  8
DETAIL
  6
CONTINUOUS
 62
     5
 10
44.249220000000037
 20
18.0
 30
0.0
 40
7.0
 50
90.0
 51
180.0
  0
LINE
  5
574
  8
DETAIL
  6
CONTINUOUS
 62
     5
 10
75.249220000000037
 20
18.0
 30
0.0
 11
75.249220000000037
 21
18.0
 31
0.0
  0
ARC
  5
575
  8
DETAIL
  6
CONTINUOUS
 62
     5
 10
65.249220000000037
 20
18.0
 30
0.0
 40
10.0
 50
0.0
 51
90.0
  0
ARC
  5
576
  8
DETAIL
  6
CONTINUOUS
 62
     5
 10
65.249220000000037
 20
18.0
 30
0.0
 40
10.0
 50
270.0
 51
0.0
  0
ARC
  5
577
  8
DETAIL
  6
CONTINUOUS
 62
     5
 10
65.249220000000037
 20
18.0
 30
0.0
 40
7.0
 50
0.0
 51
90.0
  0
ARC
  5
578
  8
DETAIL
  6
CONTINUOUS
 62
     5
 10
65.249220000000037
 20
18.0
 30
0.0
 40
7.0
 50
270.0
 51
0.0
  0
ENDSEC
  0
EOF
