  0
SECTION
  2
HEADER
  9
$ACADVER
  1
AC1009
  9
$DWGCODEPAGE
  3
dos932
  9
$INSBASE
 10
0.0
 20
0.0
 30
0.0
  9
$EXTMIN
 10
-874.19584554643006
 20
-787.94859709212142
 30
-0.0000002793804338
  9
$EXTMAX
 10
1118.4631464402919
 20
804.61121432554319
 30
0.0000000116489898
  9
$LIMMIN
 10
-2970.0
 20
-2100.0
  9
$LIMMAX
 10
2970.0
 20
2100.0
  9
$ORTHOMODE
 70
     1
  9
$REGENMODE
 70
     1
  9
$FILLMODE
 70
     1
  9
$QTEXTMODE
 70
     0
  9
$MIRRTEXT
 70
     0
  9
$LTSCALE
 40
20.0
  9
$ATTMODE
 70
     1
  9
$TEXTSIZE
 40
64.0
  9
$TRACEWID
 40
0.05
  9
$TEXTSTYLE
  7
STANDARD
  9
$CLAYER
  8
OUTLINE
  9
$CELTYPE
  6
CONTINUOUS
  9
$CECOLOR
 62
     7
  9
$DIMSCALE
 40
1.0
  9
$DIMASZ
 40
12.0
  9
$DIMEXO
 40
20.0
  9
$DIMDLI
 40
200.0
  9
$DIMRND
 40
0.0
  9
$DIMDLE
 40
0.0
  9
$DIMEXE
 40
20.0
  9
$DIMTP
 40
0.0
  9
$DIMTM
 40
0.0
  9
$DIMTXT
 40
64.0
  9
$DIMCEN
 40
0.09
  9
$DIMTSZ
 40
0.0
  9
$DIMTOL
 70
     0
  9
$DIMLIM
 70
     0
  9
$DIMTIH
 70
     0
  9
$DIMTOH
 70
     0
  9
$DIMSE1
 70
     0
  9
$DIMSE2
 70
     0
  9
$DIMTAD
 70
     1
  9
$DIMZIN
 70
     8
  9
$DIMBLK
  1

  9
$DIMASO
 70
     1
  9
$DIMSHO
 70
     0
  9
$DIMPOST
  1

  9
$DIMAPOST
  1

  9
$DIMALT
 70
     0
  9
$DIMALTD
 70
     2
  9
$DIMALTF
 40
25.399999999999999
  9
$DIMLFAC
 40
1.0
  9
$DIMTOFL
 70
     1
  9
$DIMTVP
 40
0.0
  9
$DIMTIX
 70
     1
  9
$DIMSOXD
 70
     0
  9
$DIMSAH
 70
     0
  9
$DIMBLK1
  1

  9
$DIMBLK2
  1

  9
$DIMSTYLE
  2
STANDARD
  9
$DIMCLRD
 70
     7
  9
$DIMCLRE
 70
     7
  9
$DIMCLRT
 70
     7
  9
$DIMTFAC
 40
1.0
  9
$DIMGAP
 40
25.0
  9
$LUNITS
 70
     2
  9
$LUPREC
 70
     4
  9
$SKETCHINC
 40
0.1
  9
$FILLETRAD
 40
3.0
  9
$AUNITS
 70
     1
  9
$AUPREC
 70
     3
  9
$MENU
  1
ACAD
  9
$ELEVATION
 40
0.0
  9
$PELEVATION
 40
0.0
  9
$THICKNESS
 40
50.0
  9
$LIMCHECK
 70
     0
  9
$CHAMFERA
 40
0.0
  9
$CHAMFERB
 40
0.0
  9
$SKPOLY
 70
     0
  9
$TDCREATE
 40
2453019.62301037
  9
$TDUPDATE
 40
2458899.512544225
  9
$TDINDWG
 40
2.0167926042
  9
$TDUSRTIMER
 40
2.0167926042
  9
$USRTIMER
 70
     1
  9
$ANGBASE
 50
0.0
  9
$ANGDIR
 70
     0
  9
$PDMODE
 70
     3
  9
$PDSIZE
 40
-2.0
  9
$PLINEWID
 40
0.0
  9
$SPLFRAME
 70
     0
  9
$SPLINETYPE
 70
     6
  9
$SPLINESEGS
 70
     8
  9
$SURFTAB1
 70
     6
  9
$SURFTAB2
 70
     6
  9
$SURFTYPE
 70
     6
  9
$SURFU
 70
     6
  9
$SURFV
 70
     6
  9
$UCSNAME
  2

  9
$UCSORG
 10
0.0
 20
0.0
 30
0.0
  9
$UCSXDIR
 10
1.0
 20
0.0
 30
0.0
  9
$UCSYDIR
 10
0.0
 20
1.0
 30
0.0
  9
$PUCSNAME
  2

  9
$PUCSORG
 10
0.0
 20
0.0
 30
0.0
  9
$PUCSXDIR
 10
1.0
 20
0.0
 30
0.0
  9
$PUCSYDIR
 10
0.0
 20
1.0
 30
0.0
  9
$USERI1
 70
     0
  9
$USERI2
 70
     0
  9
$USERI3
 70
     0
  9
$USERI4
 70
     0
  9
$USERI5
 70
     0
  9
$USERR1
 40
20.0
  9
$USERR2
 40
0.0
  9
$USERR3
 40
0.0
  9
$USERR4
 40
0.0
  9
$USERR5
 40
0.0
  9
$WORLDVIEW
 70
     1
  9
$SHADEDGE
 70
     3
  9
$SHADEDIF
 70
    70
  9
$TILEMODE
 70
     1
  9
$MAXACTVP
 70
    48
  9
$PINSBASE
 10
0.0
 20
0.0
 30
0.0
  9
$PLIMCHECK
 70
     0
  9
$PEXTMIN
 10
-100000000000000000000.0
 20
-100000000000000000000.0
 30
-100000000000000000000.0
  9
$PEXTMAX
 10
100000000000000000000.0
 20
100000000000000000000.0
 30
100000000000000000000.0
  9
$PLIMMIN
 10
0.0
 20
0.0
  9
$PLIMMAX
 10
12.0
 20
9.0
  9
$UNITMODE
 70
     0
  9
$VISRETAIN
 70
     0
  9
$PLINEGEN
 70
     0
  9
$PSLTSCALE
 70
     0
  9
$TREEDEPTH
 70
  3020
  9
$ATTDIA
 70
     0
  9
$ATTREQ
 70
     1
  9
$BLIPMODE
 70
     1
  9
$COORDS
 70
     1
  9
$DRAGMODE
 70
     2
  9
$OSMODE
 70
     0
  9
$HANDLING
 70
     0
  9
$HANDSEED
  5
52D51
  0
ENDSEC
  0
SECTION
  2
TABLES
  0
TABLE
  2
LTYPE
 70
     2
  0
LTYPE
  2
CONTINUOUS
 70
     0
  3
実線
 72
    65
 73
     0
 40
0.0
  0
LTYPE
  2
DASHDOT
 70
     0
  3
____ _ ____ _ ____ _ ____ _ ____ _ ____ _ ____
 72
    65
 73
     4
 40
5.5
 49
4.0
 49
-0.6
 49
0.3
 49
-0.6
  0
ENDTAB
  0
TABLE
  2
LAYER
 70
    12
  0
LAYER
  2
0
 70
     0
 62
     7
  6
CONTINUOUS
  0
LAYER
  2
BASIS
 70
     0
 62
     6
  6
DASHDOT
  0
LAYER
  2
OUTLINE
 70
     0
 62
     3
  6
CONTINUOUS
  0
LAYER
  2
DETAIL
 70
     0
 62
     5
  6
CONTINUOUS
  0
LAYER
  2
SIZE
 70
     0
 62
    30
  6
CONTINUOUS
  0
LAYER
  2
ARRANGE
 70
     0
 62
     1
  6
CONTINUOUS
  0
LAYER
  2
DEFPOINTS
 70
     0
 62
     7
  6
CONTINUOUS
  0
LAYER
  2
ETC
 70
     0
 62
    61
  6
CONTINUOUS
  0
LAYER
  2
FIX
 70
     0
 62
    11
  6
CONTINUOUS
  0
LAYER
  2
NOTE
 70
     0
 62
     4
  6
CONTINUOUS
  0
LAYER
  2
SERVICESPACE
 70
    64
 62
     2
  6
DASHDOT
  0
LAYER
  2
SYMBOLLINE
 70
    64
 62
    15
  6
CONTINUOUS
  0
ENDTAB
  0
TABLE
  2
STYLE
 70
     1
  0
STYLE
  2
STANDARD
 70
     0
 40
64.0
 41
0.9
 50
0.0
 71
     0
 42
64.0
  3
SIMPLEX.shx
  4
BIGFONT.shx
  0
ENDTAB
  0
TABLE
  2
APPID
 70
    17
  0
APPID
  2
ACAD
 70
     0
  0
APPID
  2
AUTOCAD_POSTSCRIPT_FIGURE
 70
     0
  0
APPID
  2
ACAD_EXEMPT_FROM_CAD_STANDARDS
 70
     0
  0
APPID
  2
ACAD_PSEXT
 70
     0
  0
APPID
  2
ACAUTHENVIRON
 70
     0
  0
APPID
  2
GENIUS_GENOENT_13
 70
     0
  0
APPID
  2
GENIUS_GENCFG_13
 70
     0
  0
APPID
  2
GENIUS_GENCFG0_13
 70
     0
  0
APPID
  2
GENIUS_GENCFG1_13
 70
     0
  0
APPID
  2
GENIUS_GENCFG2_13
 70
     0
  0
APPID
  2
GENIUS_GENCFG3_13
 70
     0
  0
APPID
  2
GENIUS_GENCFG4_13
 70
     0
  0
APPID
  2
GENIUS_GEVCFG0_13
 70
     0
  0
APPID
  2
CONTENTBLOCKICON
 70
     0
  0
APPID
  2
CONTENTBLOCKDESCRIPTION
 70
     0
  0
APPID
  2
ACAD_NAV_VCDISPLAY
 70
     0
  0
APPID
  2
ACAD_MLEADERVER
 70
     0
  0
ENDTAB
  0
TABLE
  2
DIMSTYLE
 70
     1
  0
DIMSTYLE
  2
STANDARD
 70
     0
  3

  4

  5
_ORIGIN
  6

  7

 40
1.0
 41
12.0
 42
20.0
 43
200.0
 44
20.0
 45
0.0
 46
0.0
 47
0.0
 48
0.0
140
64.0
141
0.09
142
0.0
143
25.399999999999999
144
1.0
145
0.0
146
1.0
147
25.0
 71
     0
 72
     0
 73
     0
 74
     0
 75
     0
 76
     0
 77
     1
 78
     8
170
     0
171
     2
172
     1
173
     0
174
     1
175
     0
176
     7
177
     7
178
     7
  0
ENDTAB
  0
TABLE
  2
VIEW
 70
     1
  0
VIEW
  2
ALL
 70
     0
 40
4282.6198079999986
 10
0.0
 20
41.309904000000003
 41
5940.0
 11
0.0
 21
0.0
 31
1.0
 12
0.0
 22
0.0
 32
0.0
 42
50.0
 43
0.0
 44
0.0
 50
0.0
 71
     0
  0
ENDTAB
  0
TABLE
  2
UCS
 70
     0
  0
ENDTAB
  0
TABLE
  2
VPORT
 70
     1
  0
VPORT
  2
*ACTIVE
 70
     0
 10
0.0
 20
0.0
 11
1.0
 21
1.0
 12
122.1336504469309
 22
8.331308616710885
 13
0.0
 23
0.0
 14
1.0
 24
1.0
 15
0.0
 25
0.0
 16
0.0
 26
0.0
 36
1.0
 17
0.0
 27
0.0
 37
0.0
 40
1602.431049918187
 41
1.6339193381592549
 42
50.0
 43
0.0
 44
0.0
 50
0.0
 51
0.0
 71
     0
 72
  1000
 73
     1
 74
     3
 75
     0
 76
     0
 77
     0
 78
     0
  0
ENDTAB
  0
ENDSEC
  0
SECTION
  2
BLOCKS
  0
BLOCK
  8
0
  2
_ORIGIN
 70
     0
 10
0.0
 20
0.0
 30
0.0
  3
_ORIGIN
  1
_ORIGIN
  0
CIRCLE
  8
0
  6
CONTINUOUS
 62
     7
 10
0.0
 20
0.0
 30
0.0
 40
0.5
  0
LINE
  8
0
  6
CONTINUOUS
 62
     7
 10
0.0
 20
0.0
 30
0.0
 11
-1.0
 21
0.0
 31
0.0
  0
ENDBLK
  8
0
  0
ENDSEC
  0
SECTION
  2
ENTITIES
  0
TEXT
  8
ETC
  6
CONTINUOUS
 62
    61
 10
251.4871223125065
 20
729.53965046182452
 30
0.0
 40
64.0
  1
VD-20ZLXP13-IN_4
 41
0.9
  0
TEXT
  8
ETC
  6
CONTINUOUS
 62
    61
 10
247.30112831250611
 20
611.58434044699334
 30
0.0
 40
64.0
  1
換気扇
 41
0.9
  0
TEXT
  8
ETC
  6
CONTINUOUS
 62
    61
 10
298.00252656106198
 20
503.43556756076799
 30
0.0
 40
40.0
  1
VD-20ZLXP13-IN
 41
0.9
  0
POINT
  8
ARRANGE
  6
CONTINUOUS
 62
     1
 10
0.0
 20
0.0
 30
0.0
  0
LINE
  8
OUTLINE
  6
CONTINUOUS
 62
     3
 10
174.58097590366199
 20
0.0
 30
0.0
 11
-174.58097590366199
 21
0.0
 31
0.0
  0
LINE
  8
OUTLINE
  6
CONTINUOUS
 62
     3
 10
153.5
 20
200.0
 30
0.0
 11
-153.5
 21
200.0
 31
0.0
  0
CIRCLE
  8
ARRANGE
  6
CONTINUOUS
 62
     1
 10
0.0
 20
0.0
 30
0.0
 40
40.0
  0
LINE
  8
DETAIL
  6
CONTINUOUS
 62
     5
 10
0.0
 20
0.0
 30
0.0
 11
174.5273909999996
 21
0.0
 31
0.0
  0
TEXT
  8
SIZE
  6
CONTINUOUS
 62
    30
 10
-110.5371428571429
 20
740.34238700000014
 30
0.0
 40
64.0
  1
□307
 41
0.9
 72
     1
 11
0.0
 21
740.34238700000014
 31
0.0
  0
LINE
  8
SIZE
  6
CONTINUOUS
 62
    30
 10
-141.5
 20
715.34238700000014
 30
0.0
 11
141.5
 21
715.34238700000014
 31
0.0
  0
TEXT
  8
SIZE
  6
CONTINUOUS
 62
    30
 10
-74.05714285714285
 20
613.40724699999964
 30
0.0
 40
64.0
  1
200
 41
0.9
 72
     1
 11
0.0
 21
613.40724699999964
 31
0.0
  0
LINE
  8
SIZE
  6
CONTINUOUS
 62
    30
 10
-88.0
 20
588.40724699999964
 30
0.0
 11
88.0
 21
588.40724699999964
 31
0.0
  0
LINE
  8
DETAIL
  6
CONTINUOUS
 62
     5
 10
75.0
 20
200.0
 30
0.0
 11
-75.0
 21
200.0
 31
0.0
  0
LINE
  8
DETAIL
  6
CONTINUOUS
 62
     5
 10
75.0
 20
192.0
 30
0.0
 11
-75.0
 21
192.0
 31
0.0
  0
TEXT
  8
SIZE
  6
CONTINUOUS
 62
    30
 10
-74.05714285714285
 20
-609.02237688612468
 30
0.0
 40
64.0
  1
332
 41
0.9
 72
     1
 11
0.0
 21
-609.02237688612468
 31
0.0
  0
LINE
  8
SIZE
  6
CONTINUOUS
 62
    30
 10
154.0
 20
-634.02237688612468
 30
0.0
 11
-154.0
 21
-634.02237688612468
 31
0.0
  0
TEXT
  8
SIZE
  6
CONTINUOUS
 62
    30
 10
-74.05714285714285
 20
-484.35879788612459
 30
0.0
 40
64.0
  1
200
 41
0.9
 72
     1
 11
0.0
 21
-484.35879788612459
 31
0.0
  0
LINE
  8
SIZE
  6
CONTINUOUS
 62
    30
 10
88.0
 20
-509.35879788612459
 30
0.0
 11
-88.0
 21
-509.35879788612459
 31
0.0
  0
LINE
  8
DETAIL
  6
CONTINUOUS
 62
     5
 10
51.0
 20
213.0
 30
0.0
 11
-47.0
 21
213.0
 31
0.0
  0
LINE
  8
DETAIL
  6
CONTINUOUS
 62
     5
 10
-20.079999999998108
 20
247.9999709999997
 30
0.0
 11
2.000000000001819
 21
247.9999709999997
 31
0.0
  0
LINE
  8
DETAIL
  6
CONTINUOUS
 62
     5
 10
-41.939999999998243
 20
247.9999709999997
 30
0.0
 11
2.000000000001819
 21
247.9999709999997
 31
0.0
  0
LINE
  8
DETAIL
  6
CONTINUOUS
 62
     5
 10
60.0
 20
208.0
 30
0.0
 11
-56.0
 21
208.0
 31
0.0
  0
LINE
  8
SIZE
  6
CONTINUOUS
 62
    30
 10
-527.6529059999998
 20
0.0
 30
0.0
 11
-527.6529059999998
 21
12.0
 31
0.0
  0
CIRCLE
  8
SIZE
  6
CONTINUOUS
 62
    30
 10
-527.6529059999998
 20
0.0
 30
0.0
 40
6.0
  0
LINE
  8
DETAIL
  6
CONTINUOUS
 62
     5
 10
-153.5
 20
0.0
 30
0.0
 11
-153.5
 21
200.0
 31
0.0
  0
LINE
  8
DETAIL
  6
CONTINUOUS
 62
     5
 10
-158.75
 20
54.0
 30
0.0
 11
-158.75
 21
0.0
 31
0.0
  0
LINE
  8
DETAIL
  6
CONTINUOUS
 62
     5
 10
-155.25
 20
229.0
 30
0.0
 11
-155.25
 21
0.0
 31
0.0
  0
LINE
  8
DETAIL
  6
CONTINUOUS
 62
     5
 10
-153.5
 20
0.0
 30
0.0
 11
-153.5
 21
229.0
 31
0.0
  0
LINE
  8
DETAIL
  6
CONTINUOUS
 62
     5
 10
-153.5
 20
0.0
 30
0.0
 11
-153.5
 21
208.0
 31
0.0
  0
CIRCLE
  8
FIX
  6
CONTINUOUS
 62
    11
 10
-166.0
 20
0.0
 30
0.0
 40
2.5
  0
LINE
  8
NOTE
  6
CONTINUOUS
 62
     4
 10
-166.0
 20
-20.0
 30
0.0
 11
-166.0
 21
20.0
 31
0.0
  0
CIRCLE
  8
FIX
  6
CONTINUOUS
 62
    11
 10
-100.0
 20
0.0
 30
0.0
 40
2.5
  0
LINE
  8
NOTE
  6
CONTINUOUS
 62
     4
 10
-100.0
 20
-20.0
 30
0.0
 11
-100.0
 21
20.0
 31
0.0
  0
LINE
  8
DETAIL
  6
CONTINUOUS
 62
     5
 10
-153.5
 20
0.0
 30
0.0
 11
-153.5
 21
43.0
 31
0.0
  0
LINE
  8
BASIS
  6
DASHDOT
 62
     6
 10
0.0
 20
-97.817524000000049
 30
0.0
 11
0.0
 21
293.87911200000008
 31
0.0
  0
LINE
  8
SIZE
  6
CONTINUOUS
 62
    30
 10
-210.0
 20
0.0
 30
0.0
 11
-547.6529059999998
 21
0.0
 31
0.0
  0
TEXT
  8
SIZE
  6
CONTINUOUS
 62
    30
 10
-552.6529059999998
 20
-174.14285757142849
 30
0.0
 40
64.0
  1
135
 50
90.0
 41
0.9
 72
     1
 11
-552.6529059999998
 21
-105.57142899999999
 31
0.0
  0
LINE
  8
SIZE
  6
CONTINUOUS
 62
    30
 10
-527.6529059999998
 20
0.0
 30
0.0
 11
-527.6529059999998
 21
-199.14285699999999
 31
0.0
  0
LINE
  8
SIZE
  6
CONTINUOUS
 62
    30
 10
-166.0
 20
-40.0
 30
0.0
 11
-166.0
 21
-654.02237688612468
 31
0.0
  0
LINE
  8
SIZE
  6
CONTINUOUS
 62
    30
 10
-166.0
 20
-634.02237688612468
 30
0.0
 11
-154.0
 21
-634.02237688612468
 31
0.0
  0
CIRCLE
  8
SIZE
  6
CONTINUOUS
 62
    30
 10
-166.0
 20
-634.02237688612468
 30
0.0
 40
6.0
  0
LINE
  8
SIZE
  6
CONTINUOUS
 62
    30
 10
-100.0
 20
-40.0
 30
0.0
 11
-100.0
 21
-529.35879788612476
 31
0.0
  0
LINE
  8
SIZE
  6
CONTINUOUS
 62
    30
 10
-100.0
 20
-509.35879788612459
 30
0.0
 11
-88.0
 21
-509.35879788612459
 31
0.0
  0
CIRCLE
  8
SIZE
  6
CONTINUOUS
 62
    30
 10
-100.0
 20
-509.35879788612459
 30
0.0
 40
6.0
  0
LINE
  8
DETAIL
  6
CONTINUOUS
 62
     5
 10
0.0
 20
0.0
 30
0.0
 11
-174.47260899999989
 21
0.0
 31
0.0
  0
LINE
  8
NOTE
  6
CONTINUOUS
 62
     4
 10
-80.0
 20
0.0
 30
0.0
 11
-120.0
 21
0.0
 31
0.0
  0
LINE
  8
NOTE
  6
CONTINUOUS
 62
     4
 10
-146.0
 20
0.0
 30
0.0
 11
-186.0
 21
0.0
 31
0.0
  0
LINE
  8
DETAIL
  6
CONTINUOUS
 62
     5
 10
-174.47260899999989
 20
0.0
 30
0.0
 11
-174.47260899999989
 21
-1.0
 31
0.0
  0
LINE
  8
SIZE
  6
CONTINUOUS
 62
    30
 10
-153.5
 20
247.0
 30
0.0
 11
-153.5
 21
735.34238700000014
 31
0.0
  0
LINE
  8
SIZE
  6
CONTINUOUS
 62
    30
 10
-295.5
 20
227.0
 30
0.0
 11
-295.5
 21
735.34238700000014
 31
0.0
  0
LINE
  8
SIZE
  6
CONTINUOUS
 62
    30
 10
-153.5
 20
247.0
 30
0.0
 11
-153.5
 21
735.34238700000014
 31
0.0
  0
TEXT
  8
SIZE
  6
CONTINUOUS
 62
    30
 10
-466.53626721984142
 20
612.64318800000001
 30
0.0
 40
64.0
  1
57
 41
0.9
 72
     1
 11
-419.90769579126999
 21
612.64318800000001
 31
0.0
  0
LINE
  8
SIZE
  6
CONTINUOUS
 62
    30
 10
-307.5
 20
587.64318800000001
 30
0.0
 11
-491.53626779126978
 21
587.64318800000001
 31
0.0
  0
LINE
  8
SIZE
  6
CONTINUOUS
 62
    30
 10
-307.5
 20
466.09252599999991
 30
0.0
 11
-491.53626779126978
 21
466.09252599999991
 31
0.0
  0
LINE
  8
SIZE
  6
CONTINUOUS
 62
    30
 10
-366.66354432254582
 20
135.0
 30
0.0
 11
-547.6529059999998
 21
135.0
 31
0.0
  0
LINE
  8
SIZE
  6
CONTINUOUS
 62
    30
 10
-315.5
 20
207.0
 30
0.0
 11
-677.81205599999976
 21
207.0
 31
0.0
  0
LINE
  8
SIZE
  6
CONTINUOUS
 62
    30
 10
-318.5
 20
63.0
 30
0.0
 11
-677.81205599999976
 21
63.0
 31
0.0
  0
LINE
  8
SIZE
  6
CONTINUOUS
 62
    30
 10
-288.5
 20
59.0
 30
0.0
 11
-805.078709
 21
59.0
 31
0.0
  0
LINE
  8
SIZE
  6
CONTINUOUS
 62
    30
 10
-288.5
 20
211.0
 30
0.0
 11
-805.078709
 21
211.0
 31
0.0
  0
TEXT
  8
SIZE
  6
CONTINUOUS
 62
    30
 10
-682.81205599999998
 20
-160.85714271428591
 30
0.0
 40
64.0
  1
φ144
 50
90.0
 41
0.9
 72
     1
 11
-682.81205599999998
 21
-60.742857000000193
 31
0.0
  0
LINE
  8
SIZE
  6
CONTINUOUS
 62
    30
 10
-657.81205599999998
 20
-200.61656099999999
 30
0.0
 11
-657.81205599999998
 21
63.0
 31
0.0
  0
TEXT
  8
SIZE
  6
CONTINUOUS
 62
    30
 10
-810.078709
 20
40.77392230474392
 30
0.0
 40
64.0
  1
φ152
 50
90.0
 41
0.9
 72
     1
 11
-810.078709
 21
139.51677944760101
 31
0.0
  0
LINE
  8
SIZE
  6
CONTINUOUS
 62
    30
 10
-785.078709
 20
71.0
 30
0.0
 11
-785.078709
 21
199.0
 31
0.0
  0
LINE
  8
SIZE
  6
CONTINUOUS
 62
    30
 10
-785.078709
 20
59.0
 30
0.0
 11
-785.078709
 21
71.0
 31
0.0
  0
CIRCLE
  8
SIZE
  6
CONTINUOUS
 62
    30
 10
-785.078709
 20
59.0
 30
0.0
 40
6.0
  0
LINE
  8
SIZE
  6
CONTINUOUS
 62
    30
 10
-785.078709
 20
211.0
 30
0.0
 11
-785.078709
 21
199.0
 31
0.0
  0
CIRCLE
  8
SIZE
  6
CONTINUOUS
 62
    30
 10
-785.078709
 20
211.0
 30
0.0
 40
6.0
  0
LINE
  8
SIZE
  6
CONTINUOUS
 62
    30
 10
-657.81205599999998
 20
75.0
 30
0.0
 11
-657.81205599999998
 21
195.0
 31
0.0
  0
LINE
  8
SIZE
  6
CONTINUOUS
 62
    30
 10
-657.81205599999998
 20
63.0
 30
0.0
 11
-657.81205599999998
 21
75.0
 31
0.0
  0
CIRCLE
  8
SIZE
  6
CONTINUOUS
 62
    30
 10
-657.81205599999998
 20
63.0
 30
0.0
 40
6.0
  0
LINE
  8
SIZE
  6
CONTINUOUS
 62
    30
 10
-527.6529059999998
 20
123.0
 30
0.0
 11
-527.6529059999998
 21
12.0
 31
0.0
  0
CIRCLE
  8
SIZE
  6
CONTINUOUS
 62
    30
 10
-527.6529059999998
 20
135.0
 30
0.0
 40
6.0
  0
LINE
  8
SIZE
  6
CONTINUOUS
 62
    30
 10
-527.6529059999998
 20
135.0
 30
0.0
 11
-527.6529059999998
 21
123.0
 31
0.0
  0
LINE
  8
SIZE
  6
CONTINUOUS
 62
    30
 10
-657.81205599999998
 20
207.0
 30
0.0
 11
-657.81205599999998
 21
195.0
 31
0.0
  0
CIRCLE
  8
SIZE
  6
CONTINUOUS
 62
    30
 10
-657.81205599999998
 20
207.0
 30
0.0
 40
6.0
  0
LINE
  8
SIZE
  6
CONTINUOUS
 62
    30
 10
-100.0
 20
248.0
 30
0.0
 11
-100.0
 21
608.40724699999964
 31
0.0
  0
LINE
  8
SIZE
  6
CONTINUOUS
 62
    30
 10
-238.5
 20
235.0
 30
0.0
 11
-238.5
 21
607.64318800000001
 31
0.0
  0
LINE
  8
SIZE
  6
CONTINUOUS
 62
    30
 10
-295.5
 20
227.0
 30
0.0
 11
-295.5
 21
607.64318800000001
 31
0.0
  0
LINE
  8
SIZE
  6
CONTINUOUS
 62
    30
 10
-268.5
 20
231.0
 30
0.0
 11
-268.5
 21
486.09252599999991
 31
0.0
  0
LINE
  8
SIZE
  6
CONTINUOUS
 62
    30
 10
-295.5
 20
227.0
 30
0.0
 11
-295.5
 21
486.09252599999991
 31
0.0
  0
LINE
  8
BASIS
  6
DASHDOT
 62
     6
 10
-347.26425699999999
 20
135.0
 30
0.0
 11
-130.21645200000009
 21
135.0
 31
0.0
  0
LINE
  8
DETAIL
  6
CONTINUOUS
 62
     5
 10
-238.5
 20
216.0
 30
0.0
 11
-155.25
 21
216.0
 31
0.0
  0
LINE
  8
DETAIL
  6
CONTINUOUS
 62
     5
 10
-238.5
 20
54.0
 30
0.0
 11
-153.5
 21
54.0
 31
0.0
  0
LINE
  8
DETAIL
  6
CONTINUOUS
 62
     5
 10
-295.5
 20
63.0
 30
0.0
 11
-295.5
 21
207.0
 31
0.0
  0
LINE
  8
DETAIL
  6
CONTINUOUS
 62
     5
 10
-268.5
 20
59.0
 30
0.0
 11
-268.5
 21
211.0
 31
0.0
  0
LINE
  8
DETAIL
  6
CONTINUOUS
 62
     5
 10
-238.5
 20
54.0
 30
0.0
 11
-238.5
 21
216.0
 31
0.0
  0
TEXT
  8
NOTE
  6
CONTINUOUS
 62
     4
 10
-457.60746899999998
 20
83.469680000000039
 30
0.0
 40
64.0
  1
EA
 41
0.9
  0
LINE
  8
DETAIL
  6
CONTINUOUS
 62
     5
 10
-295.5
 20
63.0
 30
0.0
 11
-268.5
 21
63.0
 31
0.0
  0
LINE
  8
DETAIL
  6
CONTINUOUS
 62
     5
 10
-268.5
 20
59.0
 30
0.0
 11
-238.5
 21
59.0
 31
0.0
  0
LINE
  8
DETAIL
  6
CONTINUOUS
 62
     5
 10
-295.5
 20
207.0
 30
0.0
 11
-268.5
 21
207.0
 31
0.0
  0
LINE
  8
DETAIL
  6
CONTINUOUS
 62
     5
 10
-268.5
 20
211.0
 30
0.0
 11
-238.5
 21
211.0
 31
0.0
  0
LINE
  8
DETAIL
  6
CONTINUOUS
 62
     5
 10
-75.0
 20
7.0
 30
0.0
 11
-75.0
 21
207.0
 31
0.0
  0
LINE
  8
DETAIL
  6
CONTINUOUS
 62
     5
 10
-125.0
 20
7.0
 30
0.0
 11
-125.0
 21
207.0
 31
0.0
  0
LINE
  8
DETAIL
  6
CONTINUOUS
 62
     5
 10
-125.0
 20
7.0
 30
0.0
 11
-75.0
 21
7.0
 31
0.0
  0
LINE
  8
DETAIL
  6
CONTINUOUS
 62
     5
 10
-64.75077999999985
 20
28.0
 30
0.0
 11
-43.75077999999985
 21
28.0
 31
0.0
  0
LINE
  8
DETAIL
  6
CONTINUOUS
 62
     5
 10
-64.75077999999985
 20
8.0
 30
0.0
 11
-43.75077999999985
 21
8.0
 31
0.0
  0
LINE
  8
DETAIL
  6
CONTINUOUS
 62
     5
 10
-64.75077999999985
 20
25.0
 30
0.0
 11
-43.75077999999985
 21
25.0
 31
0.0
  0
LINE
  8
DETAIL
  6
CONTINUOUS
 62
     5
 10
-64.75077999999985
 20
11.0
 30
0.0
 11
-43.75077999999985
 21
11.0
 31
0.0
  0
LINE
  8
BASIS
  6
DASHDOT
 62
     6
 10
-79.284600999999839
 20
18.0
 30
0.0
 11
-28.718519000000011
 21
18.0
 31
0.0
  0
LINE
  8
DETAIL
  6
CONTINUOUS
 62
     5
 10
-74.750780000000304
 20
18.0
 30
0.0
 11
-74.750780000000304
 21
18.0
 31
0.0
  0
ARC
  8
DETAIL
  6
CONTINUOUS
 62
     5
 10
-64.75077999999985
 20
18.0
 30
0.0
 40
10.0
 50
90.0
 51
180.0
  0
ARC
  8
DETAIL
  6
CONTINUOUS
 62
     5
 10
-64.75077999999985
 20
18.0
 30
0.0
 40
10.0
 50
180.0
 51
270.0
  0
ARC
  8
DETAIL
  6
CONTINUOUS
 62
     5
 10
-64.75077999999985
 20
18.0
 30
0.0
 40
7.0
 50
90.0
 51
180.0
  0
ARC
  8
DETAIL
  6
CONTINUOUS
 62
     5
 10
-64.75077999999985
 20
18.0
 30
0.0
 40
7.0
 50
180.0
 51
270.0
  0
ARC
  8
DETAIL
  6
CONTINUOUS
 62
     5
 10
-43.75077999999985
 20
18.0
 30
0.0
 40
10.0
 50
0.0
 51
90.0
  0
ARC
  8
DETAIL
  6
CONTINUOUS
 62
     5
 10
-43.75077999999985
 20
18.0
 30
0.0
 40
10.0
 50
270.0
 51
0.0
  0
ARC
  8
DETAIL
  6
CONTINUOUS
 62
     5
 10
-43.75077999999985
 20
18.0
 30
0.0
 40
7.0
 50
270.0
 51
0.0
  0
ARC
  8
DETAIL
  6
CONTINUOUS
 62
     5
 10
-43.75077999999985
 20
18.0
 30
0.0
 40
7.0
 50
0.0
 51
90.0
  0
LINE
  8
BASIS
  6
DASHDOT
 62
     6
 10
-54.25077999999985
 20
3.523890999999935
 30
0.0
 11
-54.25077999999985
 21
33.438380999999943
 31
0.0
  0
LINE
  8
NOTE
  6
CONTINUOUS
 62
     4
 10
-80.0
 20
207.0
 30
0.0
 11
-120.0
 21
207.0
 31
0.0
  0
LINE
  8
DETAIL
  6
CONTINUOUS
 62
     5
 10
-125.0
 20
207.0
 30
0.0
 11
-75.0
 21
207.0
 31
0.0
  0
LINE
  8
DETAIL
  6
CONTINUOUS
 62
     5
 10
-125.0
 20
207.0
 30
0.0
 11
-75.0
 21
207.0
 31
0.0
  0
LINE
  8
DETAIL
  6
CONTINUOUS
 62
     5
 10
-125.0
 20
203.5
 30
0.0
 11
-75.0
 21
203.5
 31
0.0
  0
LINE
  8
DETAIL
  6
CONTINUOUS
 62
     5
 10
-125.0
 20
192.0
 30
0.0
 11
-153.5
 21
192.0
 31
0.0
  0
LINE
  8
DETAIL
  6
CONTINUOUS
 62
     5
 10
-125.0
 20
200.0
 30
0.0
 11
-153.5
 21
200.0
 31
0.0
  0
LINE
  8
DETAIL
  6
CONTINUOUS
 62
     5
 10
-158.75
 20
229.0
 30
0.0
 11
-158.75
 21
216.0
 31
0.0
  0
LINE
  8
DETAIL
  6
CONTINUOUS
 62
     5
 10
-158.75
 20
229.0
 30
0.0
 11
-153.5
 21
229.0
 31
0.0
  0
LINE
  8
DETAIL
  6
CONTINUOUS
 62
     5
 10
-56.0
 20
208.0
 30
0.0
 11
-62.394960000000083
 21
200.0
 31
0.0
  0
CIRCLE
  8
FIX
  6
CONTINUOUS
 62
    11
 10
-100.0
 20
207.0
 30
0.0
 40
7.5
  0
LINE
  8
NOTE
  6
CONTINUOUS
 62
     4
 10
-100.0
 20
188.0
 30
0.0
 11
-100.0
 21
228.0
 31
0.0
  0
LINE
  8
DETAIL
  6
CONTINUOUS
 62
     5
 10
-47.0
 20
208.0
 30
0.0
 11
-46.999999999998181
 21
242.9441989999998
 31
0.0
  0
ARC
  8
DETAIL
  6
CONTINUOUS
 62
     5
 10
-41.939999999998243
 20
242.93998500000001
 30
0.0
 40
5.060001999999999
 50
90.0
 51
179.99999899999861
  0
TEXT
  8
SIZE
  6
CONTINUOUS
 62
    30
 10
-466.53626721984142
 20
491.09252599999991
 30
0.0
 40
64.0
  1
27
 41
0.9
 72
     1
 11
-419.90769579126999
 21
491.09252599999991
 31
0.0
  0
CIRCLE
  8
SIZE
  6
CONTINUOUS
 62
    30
 10
-295.5
 20
466.09252599999991
 30
0.0
 40
6.0
  0
LINE
  8
SIZE
  6
CONTINUOUS
 62
    30
 10
-268.5
 20
466.09252599999991
 30
0.0
 11
-295.5
 21
466.09252599999991
 31
0.0
  0
LINE
  8
SIZE
  6
CONTINUOUS
 62
    30
 10
-295.5
 20
466.09252599999991
 30
0.0
 11
-307.5
 21
466.09252599999991
 31
0.0
  0
LINE
  8
SIZE
  6
CONTINUOUS
 62
    30
 10
-268.5
 20
466.09252599999991
 30
0.0
 11
-256.5
 21
466.09252599999991
 31
0.0
  0
CIRCLE
  8
SIZE
  6
CONTINUOUS
 62
    30
 10
-268.5
 20
466.09252599999991
 30
0.0
 40
6.0
  0
LINE
  8
SIZE
  6
CONTINUOUS
 62
    30
 10
-256.5
 20
466.09252599999991
 30
0.0
 11
-244.4999999999998
 21
466.09252599999991
 31
0.0
  0
CIRCLE
  8
SIZE
  6
CONTINUOUS
 62
    30
 10
-295.5
 20
587.64318800000001
 30
0.0
 40
6.0
  0
LINE
  8
SIZE
  6
CONTINUOUS
 62
    30
 10
-238.5
 20
587.64318800000001
 30
0.0
 11
-295.5
 21
587.64318800000001
 31
0.0
  0
LINE
  8
SIZE
  6
CONTINUOUS
 62
    30
 10
-295.5
 20
587.64318800000001
 30
0.0
 11
-307.5
 21
587.64318800000001
 31
0.0
  0
CIRCLE
  8
SIZE
  6
CONTINUOUS
 62
    30
 10
-238.5
 20
587.64318800000001
 30
0.0
 40
6.0
  0
LINE
  8
SIZE
  6
CONTINUOUS
 62
    30
 10
-100.0
 20
588.40724699999964
 30
0.0
 11
-88.0
 21
588.40724699999964
 31
0.0
  0
CIRCLE
  8
SIZE
  6
CONTINUOUS
 62
    30
 10
-100.0
 20
588.40724699999964
 30
0.0
 40
6.0
  0
TEXT
  8
SIZE
  6
CONTINUOUS
 62
    30
 10
-293.07142857142861
 20
740.34238700000014
 30
0.0
 40
64.0
  1
142
 41
0.9
 72
     1
 11
-224.5
 21
740.34238700000014
 31
0.0
  0
LINE
  8
SIZE
  6
CONTINUOUS
 62
    30
 10
-153.5
 20
715.34238700000014
 30
0.0
 11
-295.5
 21
715.34238700000014
 31
0.0
  0
CIRCLE
  8
SIZE
  6
CONTINUOUS
 62
    30
 10
-295.5
 20
715.34238700000014
 30
0.0
 40
6.0
  0
LINE
  8
SIZE
  6
CONTINUOUS
 62
    30
 10
-153.5
 20
715.34238700000014
 30
0.0
 11
-141.5
 21
715.34238700000014
 31
0.0
  0
CIRCLE
  8
SIZE
  6
CONTINUOUS
 62
    30
 10
-153.5
 20
715.34238700000014
 30
0.0
 40
6.0
  0
LINE
  8
SIZE
  6
CONTINUOUS
 62
    30
 10
-153.5
 20
715.34238700000014
 30
0.0
 11
-141.5
 21
715.34238700000014
 31
0.0
  0
CIRCLE
  8
SIZE
  6
CONTINUOUS
 62
    30
 10
-153.5
 20
715.34238700000014
 30
0.0
 40
6.0
  0
LINE
  8
SIZE
  6
CONTINUOUS
 62
    30
 10
-141.5
 20
715.34238700000014
 30
0.0
 11
-129.49999999999949
 21
715.34238700000014
 31
0.0
  0
LINE
  8
OUTLINE
  6
CONTINUOUS
 62
     3
 10
153.5
 20
0.0
 30
0.0
 11
153.5
 21
200.0
 31
0.0
  0
LINE
  8
NOTE
  6
CONTINUOUS
 62
     4
 10
166.00336299999981
 20
0.0010899999999765
 30
0.0
 11
195.12044999999989
 21
-27.425088999999961
 31
0.0
  0
LINE
  8
NOTE
  6
CONTINUOUS
 62
     4
 10
177.50640999999999
 20
-38.30922099999998
 30
0.0
 11
166.00336299999981
 21
0.0010899999999765
 31
0.0
  0
LINE
  8
NOTE
  6
CONTINUOUS
 62
     4
 10
166.0
 20
-20.0
 30
0.0
 11
166.0
 21
20.0
 31
0.0
  0
CIRCLE
  8
FIX
  6
CONTINUOUS
 62
    11
 10
166.0
 20
0.0
 30
0.0
 40
2.5
  0
LINE
  8
NOTE
  6
CONTINUOUS
 62
     4
 10
100.0
 20
-20.0
 30
0.0
 11
100.0
 21
20.0
 31
0.0
  0
CIRCLE
  8
FIX
  6
CONTINUOUS
 62
    11
 10
100.0
 20
0.0
 30
0.0
 40
2.5
  0
LINE
  8
DETAIL
  6
CONTINUOUS
 62
     5
 10
153.5
 20
0.0
 30
0.0
 11
153.5
 21
200.0
 31
0.0
  0
LINE
  8
NOTE
  6
CONTINUOUS
 62
     4
 10
277.2510299999999
 20
-185.72582700000001
 30
0.0
 11
668.04225599999972
 21
-185.72582700000001
 31
0.0
  0
TEXT
  8
NOTE
  6
CONTINUOUS
 62
     4
 10
280.88134200000007
 20
-152.76155600000001
 30
0.0
 40
64.0
  1
8-φ5×8
 41
0.9
  0
LINE
  8
SIZE
  6
CONTINUOUS
 62
    30
 10
166.0
 20
-40.0
 30
0.0
 11
166.0
 21
-654.02237688612468
 31
0.0
  0
LINE
  8
SIZE
  6
CONTINUOUS
 62
    30
 10
166.0
 20
-634.02237688612468
 30
0.0
 11
154.0
 21
-634.02237688612468
 31
0.0
  0
CIRCLE
  8
SIZE
  6
CONTINUOUS
 62
    30
 10
166.0
 20
-634.02237688612468
 30
0.0
 40
6.0
  0
LINE
  8
NOTE
  6
CONTINUOUS
 62
     4
 10
166.01228899999981
 20
-0.0526009999999815
 30
0.0
 11
277.2510299999999
 21
-185.72582700000001
 31
0.0
  0
LINE
  8
SIZE
  6
CONTINUOUS
 62
    30
 10
100.0
 20
-40.0
 30
0.0
 11
100.0
 21
-529.35879788612476
 31
0.0
  0
LINE
  8
SIZE
  6
CONTINUOUS
 62
    30
 10
100.0
 20
-509.35879788612459
 30
0.0
 11
88.0
 21
-509.35879788612459
 31
0.0
  0
CIRCLE
  8
SIZE
  6
CONTINUOUS
 62
    30
 10
100.0
 20
-509.35879788612459
 30
0.0
 40
6.0
  0
LINE
  8
NOTE
  6
CONTINUOUS
 62
     4
 10
80.0
 20
0.0
 30
0.0
 11
120.0
 21
0.0
 31
0.0
  0
LINE
  8
NOTE
  6
CONTINUOUS
 62
     4
 10
146.0
 20
0.0
 30
0.0
 11
186.0
 21
0.0
 31
0.0
  0
LINE
  8
DETAIL
  6
CONTINUOUS
 62
     5
 10
174.5273909999996
 20
0.0
 30
0.0
 11
174.5273909999996
 21
-1.0
 31
0.0
  0
TEXT
  8
NOTE
  6
CONTINUOUS
 62
     4
 10
216.29219535987701
 20
336.2094997034028
 30
0.0
 40
64.0
  1
AH 4
 41
0.9
  0
LINE
  8
NOTE
  6
CONTINUOUS
 62
     4
 10
212.67933935987679
 20
291.59961470340272
 30
0.0
 11
438.58971907193148
 21
291.59961470340272
 31
0.0
  0
LINE
  8
SIZE
  6
CONTINUOUS
 62
    30
 10
153.5
 20
220.0
 30
0.0
 11
153.5
 21
735.34238700000014
 31
0.0
  0
LINE
  8
NOTE
  6
CONTINUOUS
 62
     4
 10
100.0
 20
207.0
 30
0.0
 11
212.67933935987679
 21
291.59961470340272
 31
0.0
  0
LINE
  8
SIZE
  6
CONTINUOUS
 62
    30
 10
100.0
 20
248.0
 30
0.0
 11
100.0
 21
608.40724699999964
 31
0.0
  0
LINE
  8
DETAIL
  6
CONTINUOUS
 62
     5
 10
125.0
 20
7.0
 30
0.0
 11
125.0
 21
207.0
 31
0.0
  0
LINE
  8
DETAIL
  6
CONTINUOUS
 62
     5
 10
75.0
 20
7.0
 30
0.0
 11
75.0
 21
207.0
 31
0.0
  0
LINE
  8
DETAIL
  6
CONTINUOUS
 62
     5
 10
125.0
 20
7.0
 30
0.0
 11
75.0
 21
7.0
 31
0.0
  0
LINE
  8
DETAIL
  6
CONTINUOUS
 62
     5
 10
65.24922000000015
 20
11.0
 30
0.0
 11
44.24922000000015
 21
11.0
 31
0.0
  0
LINE
  8
DETAIL
  6
CONTINUOUS
 62
     5
 10
65.24922000000015
 20
25.0
 30
0.0
 11
44.24922000000015
 21
25.0
 31
0.0
  0
LINE
  8
DETAIL
  6
CONTINUOUS
 62
     5
 10
65.24922000000015
 20
8.0
 30
0.0
 11
44.24922000000015
 21
8.0
 31
0.0
  0
LINE
  8
DETAIL
  6
CONTINUOUS
 62
     5
 10
65.24922000000015
 20
28.0
 30
0.0
 11
44.24922000000015
 21
28.0
 31
0.0
  0
LINE
  8
BASIS
  6
DASHDOT
 62
     6
 10
79.783041000000139
 20
18.0
 30
0.0
 11
29.216959000000319
 21
18.0
 31
0.0
  0
ARC
  8
DETAIL
  6
CONTINUOUS
 62
     5
 10
44.24922000000015
 20
18.0
 30
0.0
 40
7.0
 50
90.0
 51
180.0
  0
ARC
  8
DETAIL
  6
CONTINUOUS
 62
     5
 10
44.24922000000015
 20
18.0
 30
0.0
 40
7.0
 50
180.0
 51
270.0
  0
ARC
  8
DETAIL
  6
CONTINUOUS
 62
     5
 10
44.24922000000015
 20
18.0
 30
0.0
 40
10.0
 50
180.0
 51
270.0
  0
ARC
  8
DETAIL
  6
CONTINUOUS
 62
     5
 10
44.24922000000015
 20
18.0
 30
0.0
 40
10.0
 50
90.0
 51
180.0
  0
LINE
  8
BASIS
  6
DASHDOT
 62
     6
 10
54.749219999999703
 20
3.523890999999935
 30
0.0
 11
54.749219999999703
 21
33.438380999999943
 31
0.0
  0
ARC
  8
DETAIL
  6
CONTINUOUS
 62
     5
 10
65.24922000000015
 20
18.0
 30
0.0
 40
7.0
 50
270.0
 51
0.0
  0
ARC
  8
DETAIL
  6
CONTINUOUS
 62
     5
 10
65.24922000000015
 20
18.0
 30
0.0
 40
7.0
 50
0.0
 51
90.0
  0
ARC
  8
DETAIL
  6
CONTINUOUS
 62
     5
 10
65.24922000000015
 20
18.0
 30
0.0
 40
10.0
 50
270.0
 51
0.0
  0
ARC
  8
DETAIL
  6
CONTINUOUS
 62
     5
 10
65.24922000000015
 20
18.0
 30
0.0
 40
10.0
 50
0.0
 51
90.0
  0
LINE
  8
DETAIL
  6
CONTINUOUS
 62
     5
 10
75.249219999999696
 20
18.0
 30
0.0
 11
75.249219999999696
 21
18.0
 31
0.0
  0
LINE
  8
NOTE
  6
CONTINUOUS
 62
     4
 10
100.0
 20
207.0
 30
0.0
 11
123.977085
 21
240.0171740000001
 31
0.0
  0
LINE
  8
NOTE
  6
CONTINUOUS
 62
     4
 10
136.77335099999979
 20
223.73914300000001
 30
0.0
 11
100.0
 21
207.0
 31
0.0
  0
LINE
  8
NOTE
  6
CONTINUOUS
 62
     4
 10
80.0
 20
207.0
 30
0.0
 11
120.0
 21
207.0
 31
0.0
  0
LINE
  8
DETAIL
  6
CONTINUOUS
 62
     5
 10
125.0
 20
203.5
 30
0.0
 11
75.0
 21
203.5
 31
0.0
  0
LINE
  8
DETAIL
  6
CONTINUOUS
 62
     5
 10
125.0
 20
207.0
 30
0.0
 11
75.0
 21
207.0
 31
0.0
  0
LINE
  8
DETAIL
  6
CONTINUOUS
 62
     5
 10
125.0
 20
207.0
 30
0.0
 11
75.0
 21
207.0
 31
0.0
  0
LINE
  8
DETAIL
  6
CONTINUOUS
 62
     5
 10
45.940000000001866
 20
247.9999709999997
 30
0.0
 11
2.000000000001819
 21
247.9999709999997
 31
0.0
  0
LINE
  8
DETAIL
  6
CONTINUOUS
 62
     5
 10
51.0
 20
208.0
 30
0.0
 11
51.000000000001819
 21
242.93998500000001
 31
0.0
  0
ARC
  8
DETAIL
  6
CONTINUOUS
 62
     5
 10
45.940000000001866
 20
242.93998500000001
 30
0.0
 40
5.060001999999999
 50
0.0000010000014034
 51
90.0
  0
CIRCLE
  8
FIX
  6
CONTINUOUS
 62
    11
 10
100.0
 20
207.0
 30
0.0
 40
7.5
  0
LINE
  8
NOTE
  6
CONTINUOUS
 62
     4
 10
100.0
 20
188.0
 30
0.0
 11
100.0
 21
228.0
 31
0.0
  0
LINE
  8
DETAIL
  6
CONTINUOUS
 62
     5
 10
60.0
 20
208.0
 30
0.0
 11
66.394960000000083
 21
200.0
 31
0.0
  0
LINE
  8
DETAIL
  6
CONTINUOUS
 62
     5
 10
153.5
 20
192.0
 30
0.0
 11
125.0
 21
192.0
 31
0.0
  0
LINE
  8
DETAIL
  6
CONTINUOUS
 62
     5
 10
153.5
 20
200.0
 30
0.0
 11
125.0
 21
200.0
 31
0.0
  0
LINE
  8
SIZE
  6
CONTINUOUS
 62
    30
 10
100.0
 20
588.40724699999964
 30
0.0
 11
88.0
 21
588.40724699999964
 31
0.0
  0
CIRCLE
  8
SIZE
  6
CONTINUOUS
 62
    30
 10
100.0
 20
588.40724699999964
 30
0.0
 40
6.0
  0
LINE
  8
SIZE
  6
CONTINUOUS
 62
    30
 10
153.5
 20
715.34238700000014
 30
0.0
 11
141.5
 21
715.34238700000014
 31
0.0
  0
CIRCLE
  8
SIZE
  6
CONTINUOUS
 62
    30
 10
153.5
 20
715.34238700000014
 30
0.0
 40
6.0
  0
LINE
  8
SIZE
  6
CONTINUOUS
 62
    30
 10
145.0
 20
207.0
 30
0.0
 11
742.37258619416184
 21
206.9999999999998
 31
0.0
  0
LINE
  8
SIZE
  6
CONTINUOUS
 62
    30
 10
194.58097590366199
 20
0.0
 30
0.0
 11
742.37258619416184
 21
-0.0000000000001137
 31
0.0
  0
LINE
  8
SIZE
  6
CONTINUOUS
 62
    30
 10
722.37258619416184
 20
194.9999999999998
 30
0.0
 11
722.37258619416184
 21
11.99999999999989
 31
0.0
  0
CIRCLE
  8
SIZE
  6
CONTINUOUS
 62
    30
 10
722.37258619416184
 20
206.9999999999998
 30
0.0
 40
6.0
  0
LINE
  8
SIZE
  6
CONTINUOUS
 62
    30
 10
722.37258619416184
 20
206.9999999999998
 30
0.0
 11
722.37258619416184
 21
194.9999999999998
 31
0.0
  0
CIRCLE
  8
SIZE
  6
CONTINUOUS
 62
    30
 10
722.37258619416184
 20
-0.0000000000001137
 30
0.0
 40
6.0
  0
LINE
  8
SIZE
  6
CONTINUOUS
 62
    30
 10
722.37258619416184
 20
-0.0000000000001137
 30
0.0
 11
722.37258619416184
 21
11.99999999999989
 31
0.0
  0
TEXT
  8
SIZE
  6
CONTINUOUS
 62
    30
 10
697.37258619416207
 20
29.44285714285715
 30
0.0
 40
64.0
  1
207
 50
90.0
 41
0.9
 72
     1
 11
697.37258619416207
 21
103.5
 31
0.0
  0
POINT
  8
DEFPOINTS
  6
CONTINUOUS
 62
    30
 10
125.0
 20
207.0
 30
0.0
  0
POINT
  8
DEFPOINTS
  6
CONTINUOUS
 62
    30
 10
174.58097590366199
 20
0.0
 30
0.0
  0
POINT
  8
DEFPOINTS
  6
CONTINUOUS
 62
    30
 10
722.37258619416184
 20
-0.0000000000001137
 30
0.0
  0
LINE
  8
SIZE
  6
CONTINUOUS
 62
    30
 10
-258.5
 20
54.0
 30
0.0
 11
-423.68351186672038
 21
54.000000000000107
 31
0.0
  0
LINE
  8
SIZE
  6
CONTINUOUS
 62
    30
 10
-194.47260899999989
 20
0.0
 30
0.0
 11
-423.68351186672038
 21
0.0000000000001137
 31
0.0
  0
LINE
  8
SIZE
  6
CONTINUOUS
 62
    30
 10
-403.68351186672038
 20
66.0
 30
0.0
 11
-403.68351186672038
 21
78.0
 31
0.0
  0
LINE
  8
SIZE
  6
CONTINUOUS
 62
    30
 10
-403.68351186672038
 20
-11.99999999999989
 30
0.0
 11
-403.68351186672049
 21
-169.99999999999989
 31
0.0
  0
LINE
  8
SIZE
  6
CONTINUOUS
 62
    30
 10
-403.68351186672038
 20
54.0
 30
0.0
 11
-403.68351186672038
 21
0.0000000000001137
 31
0.0
  0
CIRCLE
  8
SIZE
  6
CONTINUOUS
 62
    30
 10
-403.68351186672038
 20
54.0
 30
0.0
 40
6.0
  0
LINE
  8
SIZE
  6
CONTINUOUS
 62
    30
 10
-403.68351186672038
 20
54.0
 30
0.0
 11
-403.68351186672038
 21
66.000000000000114
 31
0.0
  0
CIRCLE
  8
SIZE
  6
CONTINUOUS
 62
    30
 10
-403.68351186672038
 20
0.0000000000001137
 30
0.0
 40
6.0
  0
LINE
  8
SIZE
  6
CONTINUOUS
 62
    30
 10
-403.68351186672038
 20
0.0000000000001137
 30
0.0
 11
-403.68351186672038
 21
-11.99999999999989
 31
0.0
  0
TEXT
  8
SIZE
  6
CONTINUOUS
 62
    30
 10
-428.68351186672038
 20
-145.0
 30
0.0
 40
64.0
  1
54
 50
90.0
 41
0.9
 72
     1
 11
-428.68351186672038
 21
-97.0
 31
0.0
  0
POINT
  8
DEFPOINTS
  6
CONTINUOUS
 62
    30
 10
-238.5
 20
54.0
 30
0.0
  0
POINT
  8
DEFPOINTS
  6
CONTINUOUS
 62
    30
 10
-174.47260899999989
 20
0.0
 30
0.0
  0
POINT
  8
DEFPOINTS
  6
CONTINUOUS
 62
    30
 10
-403.68351186672038
 20
0.0000000000001137
 30
0.0
  0
LINE
  8
SIZE
  6
CONTINUOUS
 62
    30
 10
-74.75077999999985
 20
-2.0
 30
0.0
 11
-74.75077999999985
 21
-251.10112439107431
 31
0.0
  0
LINE
  8
SIZE
  6
CONTINUOUS
 62
    30
 10
-33.75077999999985
 20
-2.0
 30
0.0
 11
-33.75077999999985
 21
-251.10112439107431
 31
0.0
  0
LINE
  8
SIZE
  6
CONTINUOUS
 62
    30
 10
-21.75077999999985
 20
-231.10112439107431
 30
0.0
 11
-9.7507799999998497
 21
-231.10112439107431
 31
0.0
  0
LINE
  8
SIZE
  6
CONTINUOUS
 62
    30
 10
-86.75077999999985
 20
-231.10112439107431
 30
0.0
 11
-326.73033899940827
 21
-231.10112439107431
 31
0.0
  0
LINE
  8
SIZE
  6
CONTINUOUS
 62
    30
 10
-33.75077999999985
 20
-231.10112439107431
 30
0.0
 11
-74.75077999999985
 21
-231.10112439107431
 31
0.0
  0
CIRCLE
  8
SIZE
  6
CONTINUOUS
 62
    30
 10
-33.75077999999985
 20
-231.10112439107431
 30
0.0
 40
6.0
  0
LINE
  8
SIZE
  6
CONTINUOUS
 62
    30
 10
-33.75077999999985
 20
-231.10112439107431
 30
0.0
 11
-21.75077999999985
 21
-231.10112439107431
 31
0.0
  0
CIRCLE
  8
SIZE
  6
CONTINUOUS
 62
    30
 10
-74.75077999999985
 20
-231.10112439107431
 30
0.0
 40
6.0
  0
LINE
  8
SIZE
  6
CONTINUOUS
 62
    30
 10
-74.75077999999985
 20
-231.10112439107431
 30
0.0
 11
-86.75077999999985
 21
-231.10112439107431
 31
0.0
  0
TEXT
  8
SIZE
  6
CONTINUOUS
 62
    30
 10
-301.73033899940822
 20
-206.10112439107431
 30
0.0
 40
64.0
  1
41
 41
0.9
 72
     1
 11
-267.44462471369388
 21
-206.10112439107431
 31
0.0
  0
POINT
  8
DEFPOINTS
  6
CONTINUOUS
 62
    30
 10
-74.75077999999985
 20
18.0
 30
0.0
  0
POINT
  8
DEFPOINTS
  6
CONTINUOUS
 62
    30
 10
-33.75077999999985
 20
18.0
 30
0.0
  0
POINT
  8
DEFPOINTS
  6
CONTINUOUS
 62
    30
 10
-33.75077999999985
 20
-231.10112439107431
 30
0.0
  0
LINE
  8
SIZE
  6
CONTINUOUS
 62
    30
 10
-54.25077999999985
 20
-16.476109000000061
 30
0.0
 11
-54.25077999999985
 21
-392.82763068149728
 31
0.0
  0
LINE
  8
SIZE
  6
CONTINUOUS
 62
    30
 10
54.749219999999703
 20
-16.476109000000061
 30
0.0
 11
54.749219999999703
 21
-392.82763068149728
 31
0.0
  0
LINE
  8
SIZE
  6
CONTINUOUS
 62
    30
 10
42.749219999999703
 20
-372.82763068149728
 30
0.0
 11
-42.25077999999985
 21
-372.82763068149728
 31
0.0
  0
LINE
  8
SIZE
  6
CONTINUOUS
 62
    30
 10
-54.25077999999985
 20
-372.82763068149728
 30
0.0
 11
-376.32694125761668
 21
-372.82763068149728
 31
0.0
  0
CIRCLE
  8
SIZE
  6
CONTINUOUS
 62
    30
 10
54.749219999999703
 20
-372.82763068149728
 30
0.0
 40
6.0
  0
LINE
  8
SIZE
  6
CONTINUOUS
 62
    30
 10
54.749219999999703
 20
-372.82763068149728
 30
0.0
 11
42.749219999999703
 21
-372.82763068149728
 31
0.0
  0
CIRCLE
  8
SIZE
  6
CONTINUOUS
 62
    30
 10
-54.25077999999985
 20
-372.82763068149728
 30
0.0
 40
6.0
  0
LINE
  8
SIZE
  6
CONTINUOUS
 62
    30
 10
-54.25077999999985
 20
-372.82763068149728
 30
0.0
 11
-42.25077999999985
 21
-372.82763068149728
 31
0.0
  0
TEXT
  8
SIZE
  6
CONTINUOUS
 62
    30
 10
-351.32694125761662
 20
-347.82763068149728
 30
0.0
 40
64.0
  1
109
 41
0.9
 72
     1
 11
-284.12694125761658
 21
-347.82763068149728
 31
0.0
  0
POINT
  8
DEFPOINTS
  6
CONTINUOUS
 62
    30
 10
-54.25077999999985
 20
3.523890999999935
 30
0.0
  0
POINT
  8
DEFPOINTS
  6
CONTINUOUS
 62
    30
 10
54.749219999999703
 20
3.523890999999935
 30
0.0
  0
POINT
  8
DEFPOINTS
  6
CONTINUOUS
 62
    30
 10
54.749219999999703
 20
-372.82763068149728
 30
0.0
  0
LINE
  8
SIZE
  6
CONTINUOUS
 62
    30
 10
194.5273909999996
 20
0.0
 30
0.0
 11
494.9182834671974
 21
-0.0000000000001137
 31
0.0
  0
LINE
  8
SIZE
  6
CONTINUOUS
 62
    30
 10
99.783041000000139
 20
18.0
 30
0.0
 11
494.9182834671974
 21
17.99999999999989
 31
0.0
  0
LINE
  8
SIZE
  6
CONTINUOUS
 62
    30
 10
474.9182834671974
 20
-12.00000000000011
 30
0.0
 11
474.9182834671974
 21
-24.00000000000011
 31
0.0
  0
LINE
  8
SIZE
  6
CONTINUOUS
 62
    30
 10
474.9182834671974
 20
29.99999999999989
 30
0.0
 11
474.9182834671974
 21
174.2857142857147
 31
0.0
  0
LINE
  8
SIZE
  6
CONTINUOUS
 62
    30
 10
474.9182834671974
 20
-0.0000000000001137
 30
0.0
 11
474.9182834671974
 21
17.99999999999989
 31
0.0
  0
CIRCLE
  8
SIZE
  6
CONTINUOUS
 62
    30
 10
474.9182834671974
 20
-0.0000000000001137
 30
0.0
 40
6.0
  0
LINE
  8
SIZE
  6
CONTINUOUS
 62
    30
 10
474.9182834671974
 20
-0.0000000000001137
 30
0.0
 11
474.9182834671974
 21
-12.00000000000011
 31
0.0
  0
CIRCLE
  8
SIZE
  6
CONTINUOUS
 62
    30
 10
474.9182834671974
 20
17.99999999999989
 30
0.0
 40
6.0
  0
LINE
  8
SIZE
  6
CONTINUOUS
 62
    30
 10
474.9182834671974
 20
17.99999999999989
 30
0.0
 11
474.9182834671974
 21
29.99999999999989
 31
0.0
  0
TEXT
  8
SIZE
  6
CONTINUOUS
 62
    30
 10
449.9182834671974
 20
67.000000000000426
 30
0.0
 40
64.0
  1
18
 50
90.0
 41
0.9
 72
     1
 11
449.9182834671974
 21
108.14285714285759
 31
0.0
  0
POINT
  8
DEFPOINTS
  6
CONTINUOUS
 62
    30
 10
174.5273909999996
 20
0.0
 30
0.0
  0
POINT
  8
DEFPOINTS
  6
CONTINUOUS
 62
    30
 10
79.783041000000139
 20
18.0
 30
0.0
  0
POINT
  8
DEFPOINTS
  6
CONTINUOUS
 62
    30
 10
474.9182834671974
 20
17.99999999999989
 30
0.0
  0
LINE
  8
SIZE
  6
CONTINUOUS
 62
    30
 10
74.74922000000015
 20
28.0
 30
0.0
 11
620.03562841547227
 21
27.99999999999989
 31
0.0
  0
LINE
  8
SIZE
  6
CONTINUOUS
 62
    30
 10
74.74922000000015
 20
8.0
 30
0.0
 11
620.03562841547227
 21
7.9999999999998863
 31
0.0
  0
LINE
  8
SIZE
  6
CONTINUOUS
 62
    30
 10
600.03562841547227
 20
-4.0000000000001137
 30
0.0
 11
600.03562841547227
 21
-16.00000000000011
 31
0.0
  0
LINE
  8
SIZE
  6
CONTINUOUS
 62
    30
 10
600.03562841547227
 20
39.999999999999893
 30
0.0
 11
600.03562841547227
 21
195.25714285714301
 31
0.0
  0
LINE
  8
SIZE
  6
CONTINUOUS
 62
    30
 10
600.03562841547227
 20
7.9999999999998863
 30
0.0
 11
600.03562841547227
 21
27.99999999999989
 31
0.0
  0
CIRCLE
  8
SIZE
  6
CONTINUOUS
 62
    30
 10
600.03562841547227
 20
7.9999999999998863
 30
0.0
 40
6.0
  0
LINE
  8
SIZE
  6
CONTINUOUS
 62
    30
 10
600.03562841547227
 20
7.9999999999998863
 30
0.0
 11
600.03562841547227
 21
-4.0000000000001137
 31
0.0
  0
CIRCLE
  8
SIZE
  6
CONTINUOUS
 62
    30
 10
600.03562841547227
 20
27.99999999999989
 30
0.0
 40
6.0
  0
LINE
  8
SIZE
  6
CONTINUOUS
 62
    30
 10
600.03562841547227
 20
27.99999999999989
 30
0.0
 11
600.03562841547227
 21
39.999999999999893
 31
0.0
  0
TEXT
  8
SIZE
  6
CONTINUOUS
 62
    30
 10
575.03562841547227
 20
77.000000000000298
 30
0.0
 40
64.0
  1
20
 50
90.0
 41
0.9
 72
     1
 11
575.03562841547227
 21
123.6285714285717
 31
0.0
  0
POINT
  8
DEFPOINTS
  6
CONTINUOUS
 62
    30
 10
54.74922000000015
 20
28.0
 30
0.0
  0
POINT
  8
DEFPOINTS
  6
CONTINUOUS
 62
    30
 10
54.74922000000015
 20
8.0
 30
0.0
  0
POINT
  8
DEFPOINTS
  6
CONTINUOUS
 62
    30
 10
600.03562841547227
 20
7.9999999999998863
 30
0.0
  0
LINE
  8
DETAIL
  6
CONTINUOUS
 62
     5
 10
-317.43508432278333
 20
194.99149616013119
 30
0.0
 11
-317.57242015383741
 21
194.8780432286045
 31
0.0
  0
LINE
  8
DETAIL
  6
CONTINUOUS
 62
     5
 10
-317.57242015383741
 20
194.8780432286045
 30
0.0
 11
-317.7094819392571
 21
194.76426710074179
 31
0.0
  0
LINE
  8
DETAIL
  6
CONTINUOUS
 62
     5
 10
-317.7094819392571
 20
194.76426710074179
 30
0.0
 11
-317.84628553529518
 21
194.65015271450449
 31
0.0
  0
LINE
  8
DETAIL
  6
CONTINUOUS
 62
     5
 10
-317.84628553529518
 20
194.65015271450449
 30
0.0
 11
-317.98284679820432
 21
194.53568500785451
 31
0.0
  0
LINE
  8
DETAIL
  6
CONTINUOUS
 62
     5
 10
-317.98284679820432
 20
194.53568500785451
 30
0.0
 11
-318.11918158423708
 21
194.42084891875291
 31
0.0
  0
LINE
  8
DETAIL
  6
CONTINUOUS
 62
     5
 10
-318.11918158423708
 20
194.42084891875291
 30
0.0
 11
-318.25530574964608
 21
194.30562938516121
 31
0.0
  0
LINE
  8
DETAIL
  6
CONTINUOUS
 62
     5
 10
-318.25530574964608
 20
194.30562938516121
 30
0.0
 11
-318.39123515068422
 21
194.19001134504131
 31
0.0
  0
LINE
  8
DETAIL
  6
CONTINUOUS
 62
     5
 10
-318.39027084881508
 20
102.7878808330986
 30
0.0
 11
-318.25432424448218
 21
102.6874389332924
 31
0.0
  0
LINE
  8
DETAIL
  6
CONTINUOUS
 62
     5
 10
-318.25432424448218
 20
102.6874389332924
 30
0.0
 11
-318.1182203210243
 21
102.5874446063507
 31
0.0
  0
LINE
  8
DETAIL
  6
CONTINUOUS
 62
     5
 10
-318.1182203210243
 20
102.5874446063507
 30
0.0
 11
-317.98190816745489
 21
102.4878622351775
 31
0.0
  0
LINE
  8
DETAIL
  6
CONTINUOUS
 62
     5
 10
-317.98190816745489
 20
102.4878622351775
 30
0.0
 11
-317.84533687278758
 21
102.3886562026769
 31
0.0
  0
LINE
  8
DETAIL
  6
CONTINUOUS
 62
     5
 10
-317.84533687278758
 20
102.3886562026769
 30
0.0
 11
-317.70845552603652
 21
102.2897908917523
 31
0.0
  0
LINE
  8
DETAIL
  6
CONTINUOUS
 62
     5
 10
-317.70845552603652
 20
102.2897908917523
 30
0.0
 11
-317.5712132162148
 21
102.191230685308
 31
0.0
  0
LINE
  8
DETAIL
  6
CONTINUOUS
 62
     5
 10
-317.5712132162148
 20
102.191230685308
 30
0.0
 11
-317.43355903233652
 21
102.0929399662477
 31
0.0
  0
LINE
  8
DETAIL
  6
CONTINUOUS
 62
     5
 10
-295.33934185768572
 20
96.517509000000018
 30
0.0
 11
-306.60065185768548
 21
95.887917000000016
 31
0.0
  0
LINE
  8
DETAIL
  6
CONTINUOUS
 62
     5
 10
-310.66686385768571
 20
97.87496699999997
 30
0.0
 11
-306.60065185768548
 21
95.887917000000016
 31
0.0
  0
LINE
  8
DETAIL
  6
CONTINUOUS
 62
     5
 10
-310.66686385768571
 20
97.87496699999997
 30
0.0
 11
-310.61200585768569
 21
97.845236999999884
 31
0.0
  0
LINE
  8
DETAIL
  6
CONTINUOUS
 62
     5
 10
-311.44294534051028
 20
98.302600915832386
 30
0.0
 11
-311.33226894777079
 21
98.240965774042593
 31
0.0
  0
LINE
  8
DETAIL
  6
CONTINUOUS
 62
     5
 10
-311.33226894777079
 20
98.240965774042593
 30
0.0
 11
-311.22150376492101
 21
98.17958202459954
 31
0.0
  0
LINE
  8
DETAIL
  6
CONTINUOUS
 62
     5
 10
-311.22150376492101
 20
98.17958202459954
 30
0.0
 11
-311.11066459031281
 21
98.118407768778638
 31
0.0
  0
LINE
  8
DETAIL
  6
CONTINUOUS
 62
     5
 10
-311.11066459031281
 20
98.118407768778638
 30
0.0
 11
-310.99976622229769
 21
98.05740110785564
 31
0.0
  0
LINE
  8
DETAIL
  6
CONTINUOUS
 62
     5
 10
-310.99976622229769
 20
98.05740110785564
 30
0.0
 11
-310.88882345922752
 21
97.996520143106068
 31
0.0
  0
LINE
  8
DETAIL
  6
CONTINUOUS
 62
     5
 10
-310.88882345922752
 20
97.996520143106068
 30
0.0
 11
-310.77785109945393
 21
97.935722975805334
 31
0.0
  0
LINE
  8
DETAIL
  6
CONTINUOUS
 62
     5
 10
-310.77785109945393
 20
97.935722975805334
 30
0.0
 11
-310.66686394132847
 21
97.874967707229075
 31
0.0
  0
LINE
  8
DETAIL
  6
CONTINUOUS
 62
     5
 10
-312.2133541073797
 20
98.740511792774214
 30
0.0
 11
-312.1039345709944
 21
98.677459444228816
 31
0.0
  0
LINE
  8
DETAIL
  6
CONTINUOUS
 62
     5
 10
-312.1039345709944
 20
98.677459444228816
 30
0.0
 11
-311.9942600183798
 21
98.614522130735963
 31
0.0
  0
LINE
  8
DETAIL
  6
CONTINUOUS
 62
     5
 10
-311.9942600183798
 20
98.614522130735963
 30
0.0
 11
-311.88435568749719
 21
98.55172956163176
 31
0.0
  0
LINE
  8
DETAIL
  6
CONTINUOUS
 62
     5
 10
-311.88435568749719
 20
98.55172956163176
 30
0.0
 11
-311.7742468163076
 21
98.489111446252764
 31
0.0
  0
LINE
  8
DETAIL
  6
CONTINUOUS
 62
     5
 10
-311.7742468163076
 20
98.489111446252764
 30
0.0
 11
-311.66395864277251
 21
98.426697493935649
 31
0.0
  0
LINE
  8
DETAIL
  6
CONTINUOUS
 62
     5
 10
-311.66395864277251
 20
98.426697493935649
 30
0.0
 11
-311.55351640485293
 21
98.364517414016746
 31
0.0
  0
LINE
  8
DETAIL
  6
CONTINUOUS
 62
     5
 10
-311.55351640485293
 20
98.364517414016746
 30
0.0
 11
-311.44294534051028
 21
98.302600915832386
 31
0.0
  0
LINE
  8
DETAIL
  6
CONTINUOUS
 62
     5
 10
-312.97789399850438
 20
99.188671469432393
 30
0.0
 11
-312.86805465085968
 21
99.123399044130565
 31
0.0
  0
LINE
  8
DETAIL
  6
CONTINUOUS
 62
     5
 10
-312.86805465085968
 20
99.123399044130565
 30
0.0
 11
-312.75860895322597
 21
99.058670546330632
 31
0.0
  0
LINE
  8
DETAIL
  6
CONTINUOUS
 62
     5
 10
-312.75860895322597
 20
99.058670546330632
 30
0.0
 11
-312.64944458823652
 21
98.994409542401741
 31
0.0
  0
LINE
  8
DETAIL
  6
CONTINUOUS
 62
     5
 10
-312.64944458823652
 20
98.994409542401741
 30
0.0
 11
-312.54044923852388
 21
98.930539598712585
 31
0.0
  0
LINE
  8
DETAIL
  6
CONTINUOUS
 62
     5
 10
-312.54044923852388
 20
98.930539598712585
 30
0.0
 11
-312.43151058672152
 21
98.866984281632313
 31
0.0
  0
LINE
  8
DETAIL
  6
CONTINUOUS
 62
     5
 10
-312.43151058672152
 20
98.866984281632313
 30
0.0
 11
-312.32251631546251
 21
98.803667157529844
 31
0.0
  0
LINE
  8
DETAIL
  6
CONTINUOUS
 62
     5
 10
-312.32251631546251
 20
98.803667157529844
 30
0.0
 11
-312.2133541073797
 21
98.740511792774214
 31
0.0
  0
LINE
  8
DETAIL
  6
CONTINUOUS
 62
     5
 10
-313.73636877045118
 20
99.647051077184528
 30
0.0
 11
-313.63205436583797
 21
99.583302084993079
 31
0.0
  0
LINE
  8
DETAIL
  6
CONTINUOUS
 62
     5
 10
-313.63205436583797
 20
99.583302084993079
 30
0.0
 11
-313.52568114258571
 21
99.518514272866241
 31
0.0
  0
LINE
  8
DETAIL
  6
CONTINUOUS
 62
     5
 10
-313.52568114258571
 20
99.518514272866241
 30
0.0
 11
-313.41767656503072
 21
99.452964170982
 31
0.0
  0
LINE
  8
DETAIL
  6
CONTINUOUS
 62
     5
 10
-313.41767656503072
 20
99.452964170982
 30
0.0
 11
-313.30846809750869
 21
99.386928309518453
 31
0.0
  0
LINE
  8
DETAIL
  6
CONTINUOUS
 62
     5
 10
-313.30846809750869
 20
99.386928309518453
 30
0.0
 11
-313.19848320435631
 21
99.320683218653585
 31
0.0
  0
LINE
  8
DETAIL
  6
CONTINUOUS
 62
     5
 10
-313.19848320435631
 20
99.320683218653585
 30
0.0
 11
-313.0881493499096
 21
99.254505428565608
 31
0.0
  0
LINE
  8
DETAIL
  6
CONTINUOUS
 62
     5
 10
-313.0881493499096
 20
99.254505428565608
 30
0.0
 11
-312.97789399850438
 21
99.188671469432393
 31
0.0
  0
LINE
  8
DETAIL
  6
CONTINUOUS
 62
     5
 10
-314.48858217978818
 20
100.1156217474086
 30
0.0
 11
-314.36785857731462
 21
100.0392497633942
 31
0.0
  0
LINE
  8
DETAIL
  6
CONTINUOUS
 62
     5
 10
-314.36785857731462
 20
100.0392497633942
 30
0.0
 11
-314.25421333475288
 21
99.967737521811046
 31
0.0
  0
LINE
  8
DETAIL
  6
CONTINUOUS
 62
     5
 10
-314.25421333475288
 20
99.967737521811046
 30
0.0
 11
-314.14605234495571
 21
99.900055840568143
 31
0.0
  0
LINE
  8
DETAIL
  6
CONTINUOUS
 62
     5
 10
-314.14605234495571
 20
99.900055840568143
 30
0.0
 11
-314.04178150077468
 21
99.835175537574855
 31
0.0
  0
LINE
  8
DETAIL
  6
CONTINUOUS
 62
     5
 10
-314.04178150077468
 20
99.835175537574855
 30
0.0
 11
-313.9398066950622
 21
99.772067430740208
 31
0.0
  0
LINE
  8
DETAIL
  6
CONTINUOUS
 62
     5
 10
-313.9398066950622
 20
99.772067430740208
 30
0.0
 11
-313.83853382067042
 21
99.709702337973795
 31
0.0
  0
LINE
  8
DETAIL
  6
CONTINUOUS
 62
     5
 10
-313.83853382067042
 20
99.709702337973795
 30
0.0
 11
-313.73636877045118
 21
99.647051077184528
 31
0.0
  0
LINE
  8
DETAIL
  6
CONTINUOUS
 62
     5
 10
-315.48229729087763
 20
100.75673358027279
 30
0.0
 11
-315.33531450238218
 21
100.66048271365609
 31
0.0
  0
LINE
  8
DETAIL
  6
CONTINUOUS
 62
     5
 10
-315.33531450238218
 20
100.66048271365609
 30
0.0
 11
-315.1873146820534
 21
100.5641192431103
 31
0.0
  0
LINE
  8
DETAIL
  6
CONTINUOUS
 62
     5
 10
-315.1873146820534
 20
100.5641192431103
 30
0.0
 11
-315.0399127463736
 21
100.4686434233771
 31
0.0
  0
LINE
  8
DETAIL
  6
CONTINUOUS
 62
     5
 10
-315.0399127463736
 20
100.4686434233771
 30
0.0
 11
-314.89472361182499
 21
100.3750555091987
 31
0.0
  0
LINE
  8
DETAIL
  6
CONTINUOUS
 62
     5
 10
-314.89472361182499
 20
100.3750555091987
 30
0.0
 11
-314.75336219488992
 21
100.2843557553165
 31
0.0
  0
LINE
  8
DETAIL
  6
CONTINUOUS
 62
     5
 10
-314.75336219488992
 20
100.2843557553165
 30
0.0
 11
-314.61744341205019
 21
100.1975444164725
 31
0.0
  0
LINE
  8
DETAIL
  6
CONTINUOUS
 62
     5
 10
-314.61744341205019
 20
100.1975444164725
 30
0.0
 11
-314.48858217978818
 21
100.1156217474086
 31
0.0
  0
LINE
  8
DETAIL
  6
CONTINUOUS
 62
     5
 10
-316.46409537737532
 20
101.41586526759561
 30
0.0
 11
-316.32611083693467
 21
101.3215472509753
 31
0.0
  0
LINE
  8
DETAIL
  6
CONTINUOUS
 62
     5
 10
-316.32611083693467
 20
101.3215472509753
 30
0.0
 11
-316.18808981704967
 21
101.22772941707591
 31
0.0
  0
LINE
  8
DETAIL
  6
CONTINUOUS
 62
     5
 10
-316.18808981704967
 20
101.22772941707591
 30
0.0
 11
-316.04959973957511
 21
101.1341429256654
 31
0.0
  0
LINE
  8
DETAIL
  6
CONTINUOUS
 62
     5
 10
-316.04959973957511
 20
101.1341429256654
 30
0.0
 11
-315.91020802636581
 21
101.0405189365118
 31
0.0
  0
LINE
  8
DETAIL
  6
CONTINUOUS
 62
     5
 10
-315.91020802636581
 20
101.0405189365118
 30
0.0
 11
-315.7694820992765
 21
100.9465886093831
 31
0.0
  0
LINE
  8
DETAIL
  6
CONTINUOUS
 62
     5
 10
-315.7694820992765
 20
100.9465886093831
 30
0.0
 11
-315.62698938016229
 21
100.8520831040474
 31
0.0
  0
LINE
  8
DETAIL
  6
CONTINUOUS
 62
     5
 10
-315.62698938016229
 20
100.8520831040474
 30
0.0
 11
-315.48229729087763
 21
100.75673358027279
 31
0.0
  0
LINE
  8
DETAIL
  6
CONTINUOUS
 62
     5
 10
-317.43355903233652
 20
102.0929399662477
 30
0.0
 11
-317.29547099819251
 21
101.9949017953882
 31
0.0
  0
LINE
  8
DETAIL
  6
CONTINUOUS
 62
     5
 10
-317.29547099819251
 20
101.9949017953882
 30
0.0
 11
-317.15704287668308
 21
101.8971739451972
 31
0.0
  0
LINE
  8
DETAIL
  6
CONTINUOUS
 62
     5
 10
-317.15704287668308
 20
101.8971739451972
 30
0.0
 11
-317.01839736548612
 21
101.7998328660556
 31
0.0
  0
LINE
  8
DETAIL
  6
CONTINUOUS
 62
     5
 10
-317.01839736548612
 20
101.7998328660556
 30
0.0
 11
-316.87965716227927
 21
101.70295500834381
 31
0.0
  0
LINE
  8
DETAIL
  6
CONTINUOUS
 62
     5
 10
-316.87965716227927
 20
101.70295500834381
 30
0.0
 11
-316.74094496473992
 21
101.6066168224428
 31
0.0
  0
LINE
  8
DETAIL
  6
CONTINUOUS
 62
     5
 10
-316.74094496473992
 20
101.6066168224428
 30
0.0
 11
-316.6023834705461
 21
101.5108947587331
 31
0.0
  0
LINE
  8
DETAIL
  6
CONTINUOUS
 62
     5
 10
-316.6023834705461
 20
101.5108947587331
 30
0.0
 11
-316.46409537737532
 21
101.41586526759561
 31
0.0
  0
LINE
  8
DETAIL
  6
CONTINUOUS
 62
     5
 10
-295.33934185768572
 20
203.03863499999991
 30
0.0
 11
-303.85302385768551
 21
202.56265499999989
 31
0.0
  0
LINE
  8
DETAIL
  6
CONTINUOUS
 62
     5
 10
-308.02946910335532
 20
201.52730646418311
 30
0.0
 11
-308.06662704953197
 21
201.5101528922298
 31
0.0
  0
LINE
  8
DETAIL
  6
CONTINUOUS
 62
     5
 10
-308.06662704953197
 20
201.5101528922298
 30
0.0
 11
-308.10365648488209
 21
201.49289575388619
 31
0.0
  0
LINE
  8
DETAIL
  6
CONTINUOUS
 62
     5
 10
-308.10365648488209
 20
201.49289575388619
 30
0.0
 11
-308.14057177425758
 21
201.47552875637939
 31
0.0
  0
LINE
  8
DETAIL
  6
CONTINUOUS
 62
     5
 10
-308.14057177425758
 20
201.47552875637939
 30
0.0
 11
-308.17738728251078
 21
201.45804560693679
 31
0.0
  0
LINE
  8
DETAIL
  6
CONTINUOUS
 62
     5
 10
-308.17738728251078
 20
201.45804560693679
 30
0.0
 11
-308.21411737449381
 21
201.4404400127853
 31
0.0
  0
LINE
  8
DETAIL
  6
CONTINUOUS
 62
     5
 10
-308.21411737449381
 20
201.4404400127853
 30
0.0
 11
-308.25077641505879
 21
201.42270568115239
 31
0.0
  0
LINE
  8
DETAIL
  6
CONTINUOUS
 62
     5
 10
-308.25077641505879
 20
201.42270568115239
 30
0.0
 11
-308.28737876905802
 21
201.40483631926509
 31
0.0
  0
LINE
  8
DETAIL
  6
CONTINUOUS
 62
     5
 10
-307.76624979912191
 20
201.64424526446169
 30
0.0
 11
-307.80408332337078
 21
201.62792368714531
 31
0.0
  0
LINE
  8
DETAIL
  6
CONTINUOUS
 62
     5
 10
-307.80408332337078
 20
201.62792368714531
 30
0.0
 11
-307.84186529218817
 21
201.61146230787551
 31
0.0
  0
LINE
  8
DETAIL
  6
CONTINUOUS
 62
     5
 10
-307.84186529218817
 20
201.61146230787551
 30
0.0
 11
-307.87958048553241
 21
201.5948682147081
 31
0.0
  0
LINE
  8
DETAIL
  6
CONTINUOUS
 62
     5
 10
-307.87958048553241
 20
201.5948682147081
 30
0.0
 11
-307.91721368336238
 21
201.57814849569911
 31
0.0
  0
LINE
  8
DETAIL
  6
CONTINUOUS
 62
     5
 10
-307.91721368336238
 20
201.57814849569911
 30
0.0
 11
-307.95474966563711
 21
201.56131023890461
 31
0.0
  0
LINE
  8
DETAIL
  6
CONTINUOUS
 62
     5
 10
-307.95474966563711
 20
201.56131023890461
 30
0.0
 11
-307.99217321231521
 21
201.54436053238069
 31
0.0
  0
LINE
  8
DETAIL
  6
CONTINUOUS
 62
     5
 10
-307.99217321231521
 20
201.54436053238069
 30
0.0
 11
-308.02946910335532
 21
201.52730646418311
 31
0.0
  0
LINE
  8
DETAIL
  6
CONTINUOUS
 62
     5
 10
-307.50019000702667
 20
201.75449101580671
 30
0.0
 11
-307.53835075617008
 21
201.73915969757331
 31
0.0
  0
LINE
  8
DETAIL
  6
CONTINUOUS
 62
     5
 10
-307.53835075617008
 20
201.73915969757331
 30
0.0
 11
-307.57645523088718
 21
201.72369191789011
 31
0.0
  0
LINE
  8
DETAIL
  6
CONTINUOUS
 62
     5
 10
-307.57645523088718
 20
201.72369191789011
 30
0.0
 11
-307.61450675435088
 21
201.70808593866369
 31
0.0
  0
LINE
  8
DETAIL
  6
CONTINUOUS
 62
     5
 10
-307.61450675435088
 20
201.70808593866369
 30
0.0
 11
-307.65250864973359
 21
201.6923400218009
 31
0.0
  0
LINE
  8
DETAIL
  6
CONTINUOUS
 62
     5
 10
-307.65250864973359
 20
201.6923400218009
 30
0.0
 11
-307.69046424020792
 21
201.67645242920841
 31
0.0
  0
LINE
  8
DETAIL
  6
CONTINUOUS
 62
     5
 10
-307.69046424020792
 20
201.67645242920841
 30
0.0
 11
-307.7283768489466
 21
201.66042142279321
 31
0.0
  0
LINE
  8
DETAIL
  6
CONTINUOUS
 62
     5
 10
-307.7283768489466
 20
201.66042142279321
 30
0.0
 11
-307.76624979912191
 21
201.64424526446169
 31
0.0
  0
LINE
  8
DETAIL
  6
CONTINUOUS
 62
     5
 10
-307.23146242478668
 20
201.85800956893581
 30
0.0
 11
-307.27001665538268
 21
201.84363137612149
 31
0.0
  0
LINE
  8
DETAIL
  6
CONTINUOUS
 62
     5
 10
-307.27001665538268
 20
201.84363137612149
 30
0.0
 11
-307.30851784998282
 21
201.82911568986651
 31
0.0
  0
LINE
  8
DETAIL
  6
CONTINUOUS
 62
     5
 10
-307.30851784998282
 20
201.82911568986651
 30
0.0
 11
-307.3469649149863
 21
201.81446297185181
 31
0.0
  0
LINE
  8
DETAIL
  6
CONTINUOUS
 62
     5
 10
-307.3469649149863
 20
201.81446297185181
 30
0.0
 11
-307.38535675679282
 21
201.79967368375759
 31
0.0
  0
LINE
  8
DETAIL
  6
CONTINUOUS
 62
     5
 10
-307.38535675679282
 20
201.79967368375759
 30
0.0
 11
-307.423692281802
 21
201.78474828726479
 31
0.0
  0
LINE
  8
DETAIL
  6
CONTINUOUS
 62
     5
 10
-307.423692281802
 20
201.78474828726479
 30
0.0
 11
-307.46197039641362
 21
201.7696872440545
 31
0.0
  0
LINE
  8
DETAIL
  6
CONTINUOUS
 62
     5
 10
-307.46197039641362
 20
201.7696872440545
 30
0.0
 11
-307.50019000702667
 21
201.75449101580671
 31
0.0
  0
LINE
  8
DETAIL
  6
CONTINUOUS
 62
     5
 10
-306.96023975011713
 20
201.95476677456739
 30
0.0
 11
-306.99911606729779
 21
201.94136453552741
 31
0.0
  0
LINE
  8
DETAIL
  6
CONTINUOUS
 62
     5
 10
-306.99911606729779
 20
201.94136453552741
 30
0.0
 11
-307.03795226041581
 21
201.92782140896159
 31
0.0
  0
LINE
  8
DETAIL
  6
CONTINUOUS
 62
     5
 10
-307.03795226041581
 20
201.92782140896159
 30
0.0
 11
-307.07674635974843
 21
201.91413788360359
 31
0.0
  0
LINE
  8
DETAIL
  6
CONTINUOUS
 62
     5
 10
-307.07674635974843
 20
201.91413788360359
 30
0.0
 11
-307.11549639557393
 21
201.90031444818811
 31
0.0
  0
LINE
  8
DETAIL
  6
CONTINUOUS
 62
     5
 10
-307.11549639557393
 20
201.90031444818811
 30
0.0
 11
-307.15420039817019
 21
201.88635159144869
 31
0.0
  0
LINE
  8
DETAIL
  6
CONTINUOUS
 62
     5
 10
-307.15420039817019
 20
201.88635159144869
 30
0.0
 11
-307.19285639781509
 21
201.87224980212
 31
0.0
  0
LINE
  8
DETAIL
  6
CONTINUOUS
 62
     5
 10
-307.19285639781509
 20
201.87224980212
 30
0.0
 11
-307.23146242478668
 21
201.85800956893581
 31
0.0
  0
LINE
  8
DETAIL
  6
CONTINUOUS
 62
     5
 10
-306.68669468073432
 20
202.0447284834186
 30
0.0
 11
-306.72596438079972
 21
202.03227728920839
 31
0.0
  0
LINE
  8
DETAIL
  6
CONTINUOUS
 62
     5
 10
-306.72596438079972
 20
202.03227728920839
 30
0.0
 11
-306.7651602172989
 21
202.01969563425999
 31
0.0
  0
LINE
  8
DETAIL
  6
CONTINUOUS
 62
     5
 10
-306.7651602172989
 20
202.01969563425999
 30
0.0
 11
-306.80428814176952
 21
202.00698169931979
 31
0.0
  0
LINE
  8
DETAIL
  6
CONTINUOUS
 62
     5
 10
-306.80428814176952
 20
202.00698169931979
 30
0.0
 11
-306.84335410574909
 21
201.99413366513409
 31
0.0
  0
LINE
  8
DETAIL
  6
CONTINUOUS
 62
     5
 10
-306.84335410574909
 20
201.99413366513409
 30
0.0
 11
-306.8823640607751
 21
201.9811497124492
 31
0.0
  0
LINE
  8
DETAIL
  6
CONTINUOUS
 62
     5
 10
-306.8823640607751
 20
201.9811497124492
 30
0.0
 11
-306.9213239583853
 21
201.96802802201159
 31
0.0
  0
LINE
  8
DETAIL
  6
CONTINUOUS
 62
     5
 10
-306.9213239583853
 20
201.96802802201159
 30
0.0
 11
-306.96023975011713
 21
201.95476677456739
 31
0.0
  0
LINE
  8
DETAIL
  6
CONTINUOUS
 62
     5
 10
-306.40997631375672
 20
202.12815414603941
 30
0.0
 11
-306.44965658056589
 21
202.11665136592109
 31
0.0
  0
LINE
  8
DETAIL
  6
CONTINUOUS
 62
     5
 10
-306.44965658056589
 20
202.11665136592109
 30
0.0
 11
-306.48929874324881
 21
202.1050064455961
 31
0.0
  0
LINE
  8
DETAIL
  6
CONTINUOUS
 62
     5
 10
-306.48929874324881
 20
202.1050064455961
 30
0.0
 11
-306.52889584997592
 21
202.09322163485169
 31
0.0
  0
LINE
  8
DETAIL
  6
CONTINUOUS
 62
     5
 10
-306.52889584997592
 20
202.09322163485169
 30
0.0
 11
-306.56844094891773
 21
202.0812991834747
 31
0.0
  0
LINE
  8
DETAIL
  6
CONTINUOUS
 62
     5
 10
-306.56844094891773
 20
202.0812991834747
 30
0.0
 11
-306.6079270882442
 21
202.06924134125211
 31
0.0
  0
LINE
  8
DETAIL
  6
CONTINUOUS
 62
     5
 10
-306.6079270882442
 20
202.06924134125211
 30
0.0
 11
-306.64734731612629
 21
202.05705035797109
 31
0.0
  0
LINE
  8
DETAIL
  6
CONTINUOUS
 62
     5
 10
-306.64734731612629
 20
202.05705035797109
 30
0.0
 11
-306.68669468073432
 21
202.0447284834186
 31
0.0
  0
LINE
  8
DETAIL
  6
CONTINUOUS
 62
     5
 10
-306.13125980556401
 20
202.20465996868811
 30
0.0
 11
-306.17118679490318
 21
202.19415767351649
 31
0.0
  0
LINE
  8
DETAIL
  6
CONTINUOUS
 62
     5
 10
-306.17118679490318
 20
202.19415767351649
 30
0.0
 11
-306.21107483728969
 21
202.1835137861591
 31
0.0
  0
LINE
  8
DETAIL
  6
CONTINUOUS
 62
     5
 10
-306.21107483728969
 20
202.1835137861591
 30
0.0
 11
-306.25092523183253
 21
202.17272784031471
 31
0.0
  0
LINE
  8
DETAIL
  6
CONTINUOUS
 62
     5
 10
-306.25092523183253
 20
202.17272784031471
 30
0.0
 11
-306.29073927764142
 21
202.16179936968169
 31
0.0
  0
LINE
  8
DETAIL
  6
CONTINUOUS
 62
     5
 10
-306.29073927764142
 20
202.16179936968169
 30
0.0
 11
-306.33051827382542
 21
202.15072790795901
 31
0.0
  0
LINE
  8
DETAIL
  6
CONTINUOUS
 62
     5
 10
-306.33051827382542
 20
202.15072790795901
 30
0.0
 11
-306.37026351949407
 21
202.13951298884541
 31
0.0
  0
LINE
  8
DETAIL
  6
CONTINUOUS
 62
     5
 10
-306.37026351949407
 20
202.13951298884541
 30
0.0
 11
-306.40997631375672
 21
202.12815414603941
 31
0.0
  0
LINE
  8
DETAIL
  6
CONTINUOUS
 62
     5
 10
-305.85071262668572
 20
202.2742063190444
 30
0.0
 11
-305.89089626970423
 21
202.2646985168243
 31
0.0
  0
LINE
  8
DETAIL
  6
CONTINUOUS
 62
     5
 10
-305.89089626970423
 20
202.2646985168243
 30
0.0
 11
-305.9310467113894
 21
202.2550477365501
 31
0.0
  0
LINE
  8
DETAIL
  6
CONTINUOUS
 62
     5
 10
-305.9310467113894
 20
202.2550477365501
 30
0.0
 11
-305.97116277761978
 21
202.24525428691641
 31
0.0
  0
LINE
  8
DETAIL
  6
CONTINUOUS
 62
     5
 10
-305.97116277761978
 20
202.24525428691641
 30
0.0
 11
-306.01124329427398
 21
202.2353184766184
 31
0.0
  0
LINE
  8
DETAIL
  6
CONTINUOUS
 62
     5
 10
-306.01124329427398
 20
202.2353184766184
 30
0.0
 11
-306.05128708723032
 21
202.22524061435121
 31
0.0
  0
LINE
  8
DETAIL
  6
CONTINUOUS
 62
     5
 10
-306.05128708723032
 20
202.22524061435121
 30
0.0
 11
-306.09129298236758
 21
202.21502100880929
 31
0.0
  0
LINE
  8
DETAIL
  6
CONTINUOUS
 62
     5
 10
-306.09129298236758
 20
202.21502100880929
 30
0.0
 11
-306.13125980556401
 21
202.20465996868811
 31
0.0
  0
LINE
  8
DETAIL
  6
CONTINUOUS
 62
     5
 10
-305.56850224765208
 20
202.33675356478611
 30
0.0
 11
-305.60892017993962
 21
202.3282471265903
 31
0.0
  0
LINE
  8
DETAIL
  6
CONTINUOUS
 62
     5
 10
-305.60892017993962
 20
202.3282471265903
 30
0.0
 11
-305.64930327783742
 21
202.31959785285599
 31
0.0
  0
LINE
  8
DETAIL
  6
CONTINUOUS
 62
     5
 10
-305.64930327783742
 20
202.31959785285599
 30
0.0
 11
-305.68965200920837
 21
202.31080566838119
 31
0.0
  0
LINE
  8
DETAIL
  6
CONTINUOUS
 62
     5
 10
-305.68965200920837
 20
202.31080566838119
 30
0.0
 11
-305.72996684191583
 21
202.30187049796459
 31
0.0
  0
LINE
  8
DETAIL
  6
CONTINUOUS
 62
     5
 10
-305.72996684191583
 20
202.30187049796459
 30
0.0
 11
-305.77024824382249
 21
202.29279226640401
 31
0.0
  0
LINE
  8
DETAIL
  6
CONTINUOUS
 62
     5
 10
-305.77024824382249
 20
202.29279226640401
 30
0.0
 11
-305.81049668279161
 21
202.28357089849811
 31
0.0
  0
LINE
  8
DETAIL
  6
CONTINUOUS
 62
     5
 10
-305.81049668279161
 20
202.28357089849811
 30
0.0
 11
-305.85071262668572
 21
202.2742063190444
 31
0.0
  0
LINE
  8
DETAIL
  6
CONTINUOUS
 62
     5
 10
-305.28479613899248
 20
202.39226207359269
 30
0.0
 11
-305.32538434087218
 21
202.3847694776866
 31
0.0
  0
LINE
  8
DETAIL
  6
CONTINUOUS
 62
     5
 10
-305.32538434087218
 20
202.3847694776866
 30
0.0
 11
-305.3659590015634
 21
202.3771300091104
 31
0.0
  0
LINE
  8
DETAIL
  6
CONTINUOUS
 62
     5
 10
-305.3659590015634
 20
202.3771300091104
 30
0.0
 11
-305.40651649422222
 21
202.3693443532527
 31
0.0
  0
LINE
  8
DETAIL
  6
CONTINUOUS
 62
     5
 10
-305.40651649422222
 20
202.3693443532527
 30
0.0
 11
-305.44705319200438
 21
202.36141319550251
 31
0.0
  0
LINE
  8
DETAIL
  6
CONTINUOUS
 62
     5
 10
-305.44705319200438
 20
202.36141319550251
 30
0.0
 11
-305.48756546806612
 21
202.35333722124869
 31
0.0
  0
LINE
  8
DETAIL
  6
CONTINUOUS
 62
     5
 10
-305.48756546806612
 20
202.35333722124869
 30
0.0
 11
-305.52804969556342
 21
202.34511711588041
 31
0.0
  0
LINE
  8
DETAIL
  6
CONTINUOUS
 62
     5
 10
-305.52804969556342
 20
202.34511711588041
 30
0.0
 11
-305.56850224765208
 21
202.33675356478611
 31
0.0
  0
LINE
  8
DETAIL
  6
CONTINUOUS
 62
     5
 10
-305.00025480550738
 20
202.4406154940198
 30
0.0
 11
-305.04096562187999
 21
202.43414233303531
 31
0.0
  0
LINE
  8
DETAIL
  6
CONTINUOUS
 62
     5
 10
-305.04096562187999
 20
202.43414233303531
 30
0.0
 11
-305.08165161094843
 21
202.4275254003021
 31
0.0
  0
LINE
  8
DETAIL
  6
CONTINUOUS
 62
     5
 10
-305.08165161094843
 20
202.4275254003021
 30
0.0
 11
-305.12231525820579
 21
202.42076406476829
 31
0.0
  0
LINE
  8
DETAIL
  6
CONTINUOUS
 62
     5
 10
-305.12231525820579
 20
202.42076406476829
 30
0.0
 11
-305.16295904914568
 21
202.41385769538209
 31
0.0
  0
LINE
  8
DETAIL
  6
CONTINUOUS
 62
     5
 10
-305.16295904914568
 20
202.41385769538209
 30
0.0
 11
-305.20358546926121
 21
202.40680566109199
 31
0.0
  0
LINE
  8
DETAIL
  6
CONTINUOUS
 62
     5
 10
-305.20358546926121
 20
202.40680566109199
 30
0.0
 11
-305.24419700404559
 21
202.39960733084621
 31
0.0
  0
LINE
  8
DETAIL
  6
CONTINUOUS
 62
     5
 10
-305.24419700404559
 20
202.39960733084621
 30
0.0
 11
-305.28479613899248
 21
202.39226207359269
 31
0.0
  0
LINE
  8
DETAIL
  6
CONTINUOUS
 62
     5
 10
-304.71459832124128
 20
202.4818731050041
 30
0.0
 11
-304.7554698887659
 21
202.4764190069624
 31
0.0
  0
LINE
  8
DETAIL
  6
CONTINUOUS
 62
     5
 10
-304.7554698887659
 20
202.4764190069624
 30
0.0
 11
-304.79632265428478
 21
202.47081695701129
 31
0.0
  0
LINE
  8
DETAIL
  6
CONTINUOUS
 62
     5
 10
-304.79632265428478
 20
202.47081695701129
 30
0.0
 11
-304.83715519933281
 21
202.4650677570196
 31
0.0
  0
LINE
  8
DETAIL
  6
CONTINUOUS
 62
     5
 10
-304.83715519933281
 20
202.4650677570196
 30
0.0
 11
-304.87796610544427
 21
202.45917220885579
 31
0.0
  0
LINE
  8
DETAIL
  6
CONTINUOUS
 62
     5
 10
-304.87796610544427
 20
202.45917220885579
 30
0.0
 11
-304.918753954154
 21
202.45313111438861
 31
0.0
  0
LINE
  8
DETAIL
  6
CONTINUOUS
 62
     5
 10
-304.918753954154
 20
202.45313111438861
 30
0.0
 11
-304.95951732699689
 21
202.44694527548711
 31
0.0
  0
LINE
  8
DETAIL
  6
CONTINUOUS
 62
     5
 10
-304.95951732699689
 20
202.44694527548711
 30
0.0
 11
-305.00025480550738
 21
202.4406154940198
 31
0.0
  0
LINE
  8
DETAIL
  6
CONTINUOUS
 62
     5
 10
-304.42803527811179
 20
202.51599339821379
 30
0.0
 11
-304.46901902020949
 21
202.51154127765761
 31
0.0
  0
LINE
  8
DETAIL
  6
CONTINUOUS
 62
     5
 10
-304.46901902020949
 20
202.51154127765761
 30
0.0
 11
-304.50998814158828
 21
202.50695150530279
 31
0.0
  0
LINE
  8
DETAIL
  6
CONTINUOUS
 62
     5
 10
-304.50998814158828
 20
202.50695150530279
 30
0.0
 11
-304.55094218177823
 21
202.5022222308198
 31
0.0
  0
LINE
  8
DETAIL
  6
CONTINUOUS
 62
     5
 10
-304.55094218177823
 20
202.5022222308198
 30
0.0
 11
-304.59188068030858
 21
202.4973516038784
 31
0.0
  0
LINE
  8
DETAIL
  6
CONTINUOUS
 62
     5
 10
-304.59188068030858
 20
202.4973516038784
 30
0.0
 11
-304.63280317670939
 21
202.49233777414861
 31
0.0
  0
LINE
  8
DETAIL
  6
CONTINUOUS
 62
     5
 10
-304.63280317670939
 20
202.49233777414861
 30
0.0
 11
-304.67370921051042
 21
202.48717889130049
 31
0.0
  0
LINE
  8
DETAIL
  6
CONTINUOUS
 62
     5
 10
-304.67370921051042
 20
202.48717889130049
 30
0.0
 11
-304.71459832124128
 21
202.4818731050041
 31
0.0
  0
LINE
  8
DETAIL
  6
CONTINUOUS
 62
     5
 10
-304.14077426803601
 20
202.54293486531861
 30
0.0
 11
-304.18184898554227
 21
202.53958872078559
 31
0.0
  0
LINE
  8
DETAIL
  6
CONTINUOUS
 62
     5
 10
-304.18184898554227
 20
202.53958872078559
 30
0.0
 11
-304.22291187375049
 21
202.53606282151799
 31
0.0
  0
LINE
  8
DETAIL
  6
CONTINUOUS
 62
     5
 10
-304.22291187375049
 20
202.53606282151799
 30
0.0
 11
-304.2639625441692
 21
202.53236449306019
 31
0.0
  0
LINE
  8
DETAIL
  6
CONTINUOUS
 62
     5
 10
-304.2639625441692
 20
202.53236449306019
 30
0.0
 11
-304.30500060830639
 21
202.52850106095659
 31
0.0
  0
LINE
  8
DETAIL
  6
CONTINUOUS
 62
     5
 10
-304.30500060830639
 20
202.52850106095659
 30
0.0
 11
-304.34602567767041
 21
202.52447985075139
 31
0.0
  0
LINE
  8
DETAIL
  6
CONTINUOUS
 62
     5
 10
-304.34602567767041
 20
202.52447985075139
 30
0.0
 11
-304.38703736376942
 21
202.520308187989
 31
0.0
  0
LINE
  8
DETAIL
  6
CONTINUOUS
 62
     5
 10
-304.38703736376942
 20
202.520308187989
 30
0.0
 11
-304.42803527811179
 21
202.51599339821379
 31
0.0
  0
LINE
  8
DETAIL
  6
CONTINUOUS
 62
     5
 10
-303.85302388293138
 20
202.56265599798709
 30
0.0
 11
-303.89414415601038
 21
202.56005249935311
 31
0.0
  0
LINE
  8
DETAIL
  6
CONTINUOUS
 62
     5
 10
-303.89414415601038
 20
202.56005249935311
 30
0.0
 11
-303.93526279468858
 21
202.55742227496501
 31
0.0
  0
LINE
  8
DETAIL
  6
CONTINUOUS
 62
     5
 10
-303.93526279468858
 20
202.55742227496501
 30
0.0
 11
-303.97637816456518
 21
202.55473859906871
 31
0.0
  0
LINE
  8
DETAIL
  6
CONTINUOUS
 62
     5
 10
-303.97637816456518
 20
202.55473859906871
 30
0.0
 11
-304.01748863123879
 21
202.55197474591
 31
0.0
  0
LINE
  8
DETAIL
  6
CONTINUOUS
 62
     5
 10
-304.01748863123879
 20
202.55197474591
 30
0.0
 11
-304.05859256030931
 21
202.54910398973479
 31
0.0
  0
LINE
  8
DETAIL
  6
CONTINUOUS
 62
     5
 10
-304.05859256030931
 20
202.54910398973479
 30
0.0
 11
-304.09968831737518
 21
202.54609960478911
 31
0.0
  0
LINE
  8
DETAIL
  6
CONTINUOUS
 62
     5
 10
-304.09968831737518
 20
202.54609960478911
 30
0.0
 11
-304.14077426803601
 21
202.54293486531861
 31
0.0
  0
LINE
  8
DETAIL
  6
CONTINUOUS
 62
     5
 10
-316.46569950550622
 20
195.7769505184269
 30
0.0
 11
-316.60503803109901
 21
195.66568326288959
 31
0.0
  0
LINE
  8
DETAIL
  6
CONTINUOUS
 62
     5
 10
-316.60503803109901
 20
195.66568326288959
 30
0.0
 11
-316.74409345114009
 21
195.55410043903609
 31
0.0
  0
LINE
  8
DETAIL
  6
CONTINUOUS
 62
     5
 10
-316.74409345114009
 20
195.55410043903609
 30
0.0
 11
-316.88286463290717
 21
195.44220328586911
 31
0.0
  0
LINE
  8
DETAIL
  6
CONTINUOUS
 62
     5
 10
-316.88286463290717
 20
195.44220328586911
 30
0.0
 11
-317.02135044367742
 21
195.32999304239209
 31
0.0
  0
LINE
  8
DETAIL
  6
CONTINUOUS
 62
     5
 10
-317.02135044367742
 20
195.32999304239209
 30
0.0
 11
-317.15954975072867
 21
195.21747094760781
 31
0.0
  0
LINE
  8
DETAIL
  6
CONTINUOUS
 62
     5
 10
-317.15954975072867
 20
195.21747094760781
 30
0.0
 11
-317.29746142133808
 21
195.1046382405199
 31
0.0
  0
LINE
  8
DETAIL
  6
CONTINUOUS
 62
     5
 10
-317.29746142133808
 20
195.1046382405199
 30
0.0
 11
-317.43508432278333
 21
194.99149616013119
 31
0.0
  0
LINE
  8
DETAIL
  6
CONTINUOUS
 62
     5
 10
-315.48341926851458
 20
196.5462713658942
 30
0.0
 11
-315.62436671291431
 21
196.43747362300809
 31
0.0
  0
LINE
  8
DETAIL
  6
CONTINUOUS
 62
     5
 10
-315.62436671291431
 20
196.43747362300809
 30
0.0
 11
-315.76513567166751
 21
196.32828762048041
 31
0.0
  0
LINE
  8
DETAIL
  6
CONTINUOUS
 62
     5
 10
-315.76513567166751
 20
196.32828762048041
 30
0.0
 11
-315.90570889691071
 21
196.21872526703109
 31
0.0
  0
LINE
  8
DETAIL
  6
CONTINUOUS
 62
     5
 10
-315.90570889691071
 20
196.21872526703109
 30
0.0
 11
-316.04606914077982
 21
196.10879847138091
 31
0.0
  0
LINE
  8
DETAIL
  6
CONTINUOUS
 62
     5
 10
-316.04606914077982
 20
196.10879847138091
 30
0.0
 11
-316.18619915541132
 21
195.99851914224971
 31
0.0
  0
LINE
  8
DETAIL
  6
CONTINUOUS
 62
     5
 10
-316.18619915541132
 20
195.99851914224971
 30
0.0
 11
-316.32608169294139
 21
195.88789918835829
 31
0.0
  0
LINE
  8
DETAIL
  6
CONTINUOUS
 62
     5
 10
-316.32608169294139
 20
195.88789918835829
 30
0.0
 11
-316.46569950550622
 21
195.7769505184269
 31
0.0
  0
LINE
  8
DETAIL
  6
CONTINUOUS
 62
     5
 10
-314.48858218147137
 20
197.29935564849779
 30
0.0
 11
-314.63202010047343
 21
197.19236075916999
 31
0.0
  0
LINE
  8
DETAIL
  6
CONTINUOUS
 62
     5
 10
-314.63202010047343
 20
197.19236075916999
 30
0.0
 11
-314.77491157163541
 21
197.08524812862041
 31
0.0
  0
LINE
  8
DETAIL
  6
CONTINUOUS
 62
     5
 10
-314.77491157163541
 20
197.08524812862041
 30
0.0
 11
-314.9173207966337
 21
196.97797068565899
 31
0.0
  0
LINE
  8
DETAIL
  6
CONTINUOUS
 62
     5
 10
-314.9173207966337
 20
196.97797068565899
 30
0.0
 11
-315.0593119771446
 21
196.87048135909569
 31
0.0
  0
LINE
  8
DETAIL
  6
CONTINUOUS
 62
     5
 10
-315.0593119771446
 20
196.87048135909569
 30
0.0
 11
-315.20094931484442
 21
196.76273307774059
 31
0.0
  0
LINE
  8
DETAIL
  6
CONTINUOUS
 62
     5
 10
-315.20094931484442
 20
196.76273307774059
 30
0.0
 11
-315.34229701140879
 21
196.65467877040339
 31
0.0
  0
LINE
  8
DETAIL
  6
CONTINUOUS
 62
     5
 10
-315.34229701140879
 20
196.65467877040339
 30
0.0
 11
-315.48341926851458
 21
196.5462713658942
 31
0.0
  0
LINE
  8
DETAIL
  6
CONTINUOUS
 62
     5
 10
-313.47125560159452
 20
198.0434876084737
 30
0.0
 11
-313.61756438885641
 21
197.93803146646539
 31
0.0
  0
LINE
  8
DETAIL
  6
CONTINUOUS
 62
     5
 10
-313.61756438885641
 20
197.93803146646539
 30
0.0
 11
-313.76365738652839
 21
197.83221092506821
 31
0.0
  0
LINE
  8
DETAIL
  6
CONTINUOUS
 62
     5
 10
-313.76365738652839
 20
197.83221092506821
 30
0.0
 11
-313.90946878462307
 21
197.72607493917491
 31
0.0
  0
LINE
  8
DETAIL
  6
CONTINUOUS
 62
     5
 10
-313.90946878462307
 20
197.72607493917491
 30
0.0
 11
-314.05493277315219
 21
197.61967246367831
 31
0.0
  0
LINE
  8
DETAIL
  6
CONTINUOUS
 62
     5
 10
-314.05493277315219
 20
197.61967246367831
 30
0.0
 11
-314.19998354212862
 21
197.5130524534712
 31
0.0
  0
LINE
  8
DETAIL
  6
CONTINUOUS
 62
     5
 10
-314.19998354212862
 20
197.5130524534712
 30
0.0
 11
-314.34455528156423
 21
197.40626386344681
 31
0.0
  0
LINE
  8
DETAIL
  6
CONTINUOUS
 62
     5
 10
-314.34455528156423
 20
197.40626386344681
 30
0.0
 11
-314.48858218147137
 21
197.29935564849779
 31
0.0
  0
LINE
  8
DETAIL
  6
CONTINUOUS
 62
     5
 10
-312.44185296197929
 20
198.7708219735018
 30
0.0
 11
-312.58957984896711
 21
198.66800745419479
 31
0.0
  0
LINE
  8
DETAIL
  6
CONTINUOUS
 62
     5
 10
-312.58957984896711
 20
198.66800745419479
 30
0.0
 11
-312.73705548178208
 21
198.56484866038889
 31
0.0
  0
LINE
  8
DETAIL
  6
CONTINUOUS
 62
     5
 10
-312.73705548178208
 20
198.56484866038889
 30
0.0
 11
-312.88429673951958
 21
198.4613340787869
 31
0.0
  0
LINE
  8
DETAIL
  6
CONTINUOUS
 62
     5
 10
-312.88429673951958
 20
198.4613340787869
 30
0.0
 11
-313.03132050127442
 21
198.35745219609149
 31
0.0
  0
LINE
  8
DETAIL
  6
CONTINUOUS
 62
     5
 10
-313.03132050127442
 20
198.35745219609149
 30
0.0
 11
-313.17814364614168
 21
198.25319149900551
 31
0.0
  0
LINE
  8
DETAIL
  6
CONTINUOUS
 62
     5
 10
-313.17814364614168
 20
198.25319149900551
 30
0.0
 11
-313.32478305321678
 21
198.14854047423199
 31
0.0
  0
LINE
  8
DETAIL
  6
CONTINUOUS
 62
     5
 10
-313.32478305321678
 20
198.14854047423199
 30
0.0
 11
-313.47125560159452
 21
198.0434876084737
 31
0.0
  0
LINE
  8
DETAIL
  6
CONTINUOUS
 62
     5
 10
-311.40076565606842
 20
199.48123398860051
 30
0.0
 11
-311.55018562583109
 21
199.38073548925891
 31
0.0
  0
LINE
  8
DETAIL
  6
CONTINUOUS
 62
     5
 10
-311.55018562583109
 20
199.38073548925891
 30
0.0
 11
-311.69938877987738
 21
199.27990854512399
 31
0.0
  0
LINE
  8
DETAIL
  6
CONTINUOUS
 62
     5
 10
-311.69938877987738
 20
199.27990854512399
 30
0.0
 11
-311.84836656528199
 21
199.17875243679461
 31
0.0
  0
LINE
  8
DETAIL
  6
CONTINUOUS
 62
     5
 10
-311.84836656528199
 20
199.17875243679461
 30
0.0
 11
-311.99711042911969
 21
199.07726644486911
 31
0.0
  0
LINE
  8
DETAIL
  6
CONTINUOUS
 62
     5
 10
-311.99711042911969
 20
199.07726644486911
 30
0.0
 11
-312.14561181846528
 21
198.9754498499461
 31
0.0
  0
LINE
  8
DETAIL
  6
CONTINUOUS
 62
     5
 10
-312.14561181846528
 20
198.9754498499461
 30
0.0
 11
-312.29386218039372
 21
198.87330193262409
 31
0.0
  0
LINE
  8
DETAIL
  6
CONTINUOUS
 62
     5
 10
-312.29386218039372
 20
198.87330193262409
 30
0.0
 11
-312.44185296197929
 21
198.7708219735018
 31
0.0
  0
LINE
  8
DETAIL
  6
CONTINUOUS
 62
     5
 10
-310.34838507730427
 20
200.1745988987891
 30
0.0
 11
-310.49948626731191
 21
200.07674539661289
 31
0.0
  0
LINE
  8
DETAIL
  6
CONTINUOUS
 62
     5
 10
-310.49948626731191
 20
200.07674539661289
 30
0.0
 11
-310.65031627808821
 21
199.9784647298101
 31
0.0
  0
LINE
  8
DETAIL
  6
CONTINUOUS
 62
     5
 10
-310.65031627808821
 20
199.9784647298101
 30
0.0
 11
-310.80088559570669
 21
199.8797734715865
 31
0.0
  0
LINE
  8
DETAIL
  6
CONTINUOUS
 62
     5
 10
-310.80088559570669
 20
199.8797734715865
 30
0.0
 11
-310.95120470624062
 21
199.78068819514789
 31
0.0
  0
LINE
  8
DETAIL
  6
CONTINUOUS
 62
     5
 10
-310.95120470624062
 20
199.78068819514789
 30
0.0
 11
-311.10128409576328
 21
199.68122547370021
 31
0.0
  0
LINE
  8
DETAIL
  6
CONTINUOUS
 62
     5
 10
-311.10128409576328
 20
199.68122547370021
 30
0.0
 11
-311.25113425034829
 21
199.58140188044919
 31
0.0
  0
LINE
  8
DETAIL
  6
CONTINUOUS
 62
     5
 10
-311.25113425034829
 20
199.58140188044919
 30
0.0
 11
-311.40076565606842
 21
199.48123398860051
 31
0.0
  0
LINE
  8
DETAIL
  6
CONTINUOUS
 62
     5
 10
-309.28510261912947
 20
200.85079194908801
 30
0.0
 11
-309.43732201635959
 21
200.75470007085369
 31
0.0
  0
LINE
  8
DETAIL
  6
CONTINUOUS
 62
     5
 10
-309.43732201635959
 20
200.75470007085369
 30
0.0
 11
-309.58950117568912
 21
200.6585448015006
 31
0.0
  0
LINE
  8
DETAIL
  6
CONTINUOUS
 62
     5
 10
-309.58950117568912
 20
200.6585448015006
 30
0.0
 11
-309.74159985921727
 21
200.56226274990971
 31
0.0
  0
LINE
  8
DETAIL
  6
CONTINUOUS
 62
     5
 10
-309.74159985921727
 20
200.56226274990971
 30
0.0
 11
-309.89357782904369
 21
200.4657905249619
 31
0.0
  0
LINE
  8
DETAIL
  6
CONTINUOUS
 62
     5
 10
-309.89357782904369
 20
200.4657905249619
 30
0.0
 11
-310.0453948472674
 21
200.36906473553859
 31
0.0
  0
LINE
  8
DETAIL
  6
CONTINUOUS
 62
     5
 10
-310.0453948472674
 20
200.36906473553859
 30
0.0
 11
-310.19701067598783
 21
200.27202199052061
 31
0.0
  0
LINE
  8
DETAIL
  6
CONTINUOUS
 62
     5
 10
-310.19701067598783
 20
200.27202199052061
 30
0.0
 11
-310.34838507730427
 21
200.1745988987891
 31
0.0
  0
LINE
  8
DETAIL
  6
CONTINUOUS
 62
     5
 10
-309.04119025830869
 20
200.99880240120851
 30
0.0
 11
-309.07622151636451
 21
200.9779594225266
 31
0.0
  0
LINE
  8
DETAIL
  6
CONTINUOUS
 62
     5
 10
-309.07622151636451
 20
200.9779594225266
 30
0.0
 11
-309.1111666351519
 21
200.95697734925051
 31
0.0
  0
LINE
  8
DETAIL
  6
CONTINUOUS
 62
     5
 10
-309.1111666351519
 20
200.95697734925051
 30
0.0
 11
-309.14603997121571
 21
200.93587936381229
 31
0.0
  0
LINE
  8
DETAIL
  6
CONTINUOUS
 62
     5
 10
-309.14603997121571
 20
200.93587936381229
 30
0.0
 11
-309.18085588110063
 21
200.9146886486445
 31
0.0
  0
LINE
  8
DETAIL
  6
CONTINUOUS
 62
     5
 10
-309.18085588110063
 20
200.9146886486445
 30
0.0
 11
-309.21562872135132
 21
200.89342838617969
 31
0.0
  0
LINE
  8
DETAIL
  6
CONTINUOUS
 62
     5
 10
-309.21562872135132
 20
200.89342838617969
 30
0.0
 11
-309.25037284851282
 21
200.87212175885011
 31
0.0
  0
LINE
  8
DETAIL
  6
CONTINUOUS
 62
     5
 10
-309.25037284851282
 20
200.87212175885011
 30
0.0
 11
-309.28510261912947
 21
200.85079194908801
 31
0.0
  0
LINE
  8
DETAIL
  6
CONTINUOUS
 62
     5
 10
-308.79345503642782
 20
201.14052168327819
 30
0.0
 11
-308.82908343310947
 21
201.12068668961331
 31
0.0
  0
LINE
  8
DETAIL
  6
CONTINUOUS
 62
     5
 10
-308.82908343310947
 20
201.12068668961331
 30
0.0
 11
-308.86464079708912
 21
201.1007245941621
 31
0.0
  0
LINE
  8
DETAIL
  6
CONTINUOUS
 62
     5
 10
-308.86464079708912
 20
201.1007245941621
 30
0.0
 11
-308.90012221784821
 21
201.0806295343846
 31
0.0
  0
LINE
  8
DETAIL
  6
CONTINUOUS
 62
     5
 10
-308.90012221784821
 20
201.0806295343846
 30
0.0
 11
-308.93552278486823
 21
201.06039564774051
 31
0.0
  0
LINE
  8
DETAIL
  6
CONTINUOUS
 62
     5
 10
-308.93552278486823
 20
201.06039564774051
 30
0.0
 11
-308.97083758763051
 21
201.04001707168979
 31
0.0
  0
LINE
  8
DETAIL
  6
CONTINUOUS
 62
     5
 10
-308.97083758763051
 20
201.04001707168979
 30
0.0
 11
-309.00606171561702
 21
201.0194879436925
 31
0.0
  0
LINE
  8
DETAIL
  6
CONTINUOUS
 62
     5
 10
-309.00606171561702
 20
201.0194879436925
 30
0.0
 11
-309.04119025830869
 21
200.99880240120851
 31
0.0
  0
LINE
  8
DETAIL
  6
CONTINUOUS
 62
     5
 10
-308.54211264337982
 20
201.27588719079719
 30
0.0
 11
-308.57823672894688
 21
201.25693069594459
 31
0.0
  0
LINE
  8
DETAIL
  6
CONTINUOUS
 62
     5
 10
-308.57823672894688
 20
201.25693069594459
 30
0.0
 11
-308.61428561716139
 21
201.23784478474369
 31
0.0
  0
LINE
  8
DETAIL
  6
CONTINUOUS
 62
     5
 10
-308.61428561716139
 20
201.23784478474369
 30
0.0
 11
-308.65026082055118
 21
201.21863082004509
 31
0.0
  0
LINE
  8
DETAIL
  6
CONTINUOUS
 62
     5
 10
-308.65026082055118
 20
201.21863082004509
 30
0.0
 11
-308.68616385164438
 21
201.19929016469879
 31
0.0
  0
LINE
  8
DETAIL
  6
CONTINUOUS
 62
     5
 10
-308.68616385164438
 20
201.19929016469879
 30
0.0
 11
-308.72199622296938
 21
201.1798241815554
 31
0.0
  0
LINE
  8
DETAIL
  6
CONTINUOUS
 62
     5
 10
-308.72199622296938
 20
201.1798241815554
 30
0.0
 11
-308.75775944705458
 21
201.16023423346519
 31
0.0
  0
LINE
  8
DETAIL
  6
CONTINUOUS
 62
     5
 10
-308.75775944705458
 20
201.16023423346519
 30
0.0
 11
-308.79345503642782
 21
201.14052168327819
 31
0.0
  0
LINE
  8
DETAIL
  6
CONTINUOUS
 62
     5
 10
-308.28737876905802
 20
201.40483631926509
 30
0.0
 11
-308.32393558843597
 21
201.3868269341898
 31
0.0
  0
LINE
  8
DETAIL
  6
CONTINUOUS
 62
     5
 10
-308.32393558843597
 20
201.3868269341898
 30
0.0
 11
-308.36044517350518
 21
201.3686777323486
 31
0.0
  0
LINE
  8
DETAIL
  6
CONTINUOUS
 62
     5
 10
-308.36044517350518
 20
201.3686777323486
 30
0.0
 11
-308.39690261166987
 21
201.35039022000291
 31
0.0
  0
LINE
  8
DETAIL
  6
CONTINUOUS
 62
     5
 10
-308.39690261166987
 20
201.35039022000291
 30
0.0
 11
-308.43330299033528
 21
201.33196590341339
 31
0.0
  0
LINE
  8
DETAIL
  6
CONTINUOUS
 62
     5
 10
-308.43330299033528
 20
201.33196590341339
 30
0.0
 11
-308.46964139690539
 21
201.31340628884189
 31
0.0
  0
LINE
  8
DETAIL
  6
CONTINUOUS
 62
     5
 10
-308.46964139690539
 20
201.31340628884189
 30
0.0
 11
-308.5059129187855
 21
201.29471288254931
 31
0.0
  0
LINE
  8
DETAIL
  6
CONTINUOUS
 62
     5
 10
-308.5059129187855
 20
201.29471288254931
 30
0.0
 11
-308.54211264337982
 21
201.27588719079719
 31
0.0
  0
LINE
  8
DETAIL
  6
CONTINUOUS
 62
     5
 10
-341.50292361093972
 20
147.19719078036471
 30
0.0
 11
-341.50269219767142
 21
147.0376049944085
 31
0.0
  0
LINE
  8
DETAIL
  6
CONTINUOUS
 62
     5
 10
-341.50269219767142
 20
147.0376049944085
 30
0.0
 11
-341.50198787381521
 21
146.87820687060031
 31
0.0
  0
LINE
  8
DETAIL
  6
CONTINUOUS
 62
     5
 10
-341.50198787381521
 20
146.87820687060031
 30
0.0
 11
-341.50081102803318
 21
146.7189566740706
 31
0.0
  0
LINE
  8
DETAIL
  6
CONTINUOUS
 62
     5
 10
-341.50081102803318
 20
146.7189566740706
 30
0.0
 11
-341.4991620489867
 21
146.55981466995021
 31
0.0
  0
LINE
  8
DETAIL
  6
CONTINUOUS
 62
     5
 10
-341.4991620489867
 20
146.55981466995021
 30
0.0
 11
-341.49704132533742
 21
146.4007411233697
 31
0.0
  0
LINE
  8
DETAIL
  6
CONTINUOUS
 62
     5
 10
-341.49704132533742
 20
146.4007411233697
 30
0.0
 11
-341.49444924574681
 21
146.2416962994597
 31
0.0
  0
LINE
  8
DETAIL
  6
CONTINUOUS
 62
     5
 10
-341.49444924574681
 20
146.2416962994597
 30
0.0
 11
-341.4913861988764
 21
146.0826404633508
 31
0.0
  0
LINE
  8
DETAIL
  6
CONTINUOUS
 62
     5
 10
-333.23105667047071
 20
118.6643970085137
 30
0.0
 11
-333.14502524856613
 21
118.5281858575233
 31
0.0
  0
LINE
  8
DETAIL
  6
CONTINUOUS
 62
     5
 10
-333.14502524856613
 20
118.5281858575233
 30
0.0
 11
-333.05859076569942
 21
118.3922116860133
 31
0.0
  0
LINE
  8
DETAIL
  6
CONTINUOUS
 62
     5
 10
-333.05859076569942
 20
118.3922116860133
 30
0.0
 11
-332.97175317582838
 21
118.2564748086929
 31
0.0
  0
LINE
  8
DETAIL
  6
CONTINUOUS
 62
     5
 10
-332.97175317582838
 20
118.2564748086929
 30
0.0
 11
-332.88451243291121
 21
118.1209755402713
 31
0.0
  0
LINE
  8
DETAIL
  6
CONTINUOUS
 62
     5
 10
-332.88451243291121
 20
118.1209755402713
 30
0.0
 11
-332.79686849090581
 21
117.9857141954579
 31
0.0
  0
LINE
  8
DETAIL
  6
CONTINUOUS
 62
     5
 10
-332.79686849090581
 20
117.9857141954579
 30
0.0
 11
-332.70882130376981
 21
117.85069108896199
 31
0.0
  0
LINE
  8
DETAIL
  6
CONTINUOUS
 62
     5
 10
-332.70882130376981
 20
117.85069108896199
 30
0.0
 11
-332.62037082546141
 21
117.71590653549291
 31
0.0
  0
LINE
  8
DETAIL
  6
CONTINUOUS
 62
     5
 10
-320.25153296284662
 20
104.2212495496382
 30
0.0
 11
-320.12155309155719
 21
104.1174734027114
 31
0.0
  0
LINE
  8
DETAIL
  6
CONTINUOUS
 62
     5
 10
-320.12155309155719
 20
104.1174734027114
 30
0.0
 11
-319.99133346580169
 21
104.0140748284573
 31
0.0
  0
LINE
  8
DETAIL
  6
CONTINUOUS
 62
     5
 10
-319.99133346580169
 20
104.0140748284573
 30
0.0
 11
-319.86079335414712
 21
103.91099284052559
 31
0.0
  0
LINE
  8
DETAIL
  6
CONTINUOUS
 62
     5
 10
-319.86079335414712
 20
103.91099284052559
 30
0.0
 11
-319.72985202515952
 21
103.8081664525662
 31
0.0
  0
LINE
  8
DETAIL
  6
CONTINUOUS
 62
     5
 10
-319.72985202515952
 20
103.8081664525662
 30
0.0
 11
-319.59842874740571
 21
103.7055346782288
 31
0.0
  0
LINE
  8
DETAIL
  6
CONTINUOUS
 62
     5
 10
-319.59842874740571
 20
103.7055346782288
 30
0.0
 11
-319.46644278945229
 21
103.6030365311632
 31
0.0
  0
LINE
  8
DETAIL
  6
CONTINUOUS
 62
     5
 10
-319.46644278945229
 20
103.6030365311632
 30
0.0
 11
-319.33381341986592
 21
103.5006110250191
 31
0.0
  0
LINE
  8
DETAIL
  6
CONTINUOUS
 62
     5
 10
-319.33381341986592
 20
103.5006110250191
 30
0.0
 11
-319.20048807042639
 21
103.3982185648713
 31
0.0
  0
LINE
  8
DETAIL
  6
CONTINUOUS
 62
     5
 10
-319.20048807042639
 20
103.3982185648713
 30
0.0
 11
-319.06652682576708
 21
103.2959051214934
 31
0.0
  0
LINE
  8
DETAIL
  6
CONTINUOUS
 62
     5
 10
-319.06652682576708
 20
103.2959051214934
 30
0.0
 11
-318.93201793373521
 21
103.19373805708381
 31
0.0
  0
LINE
  8
DETAIL
  6
CONTINUOUS
 62
     5
 10
-318.93201793373521
 20
103.19373805708381
 30
0.0
 11
-318.79704964217723
 21
103.091784733841
 31
0.0
  0
LINE
  8
DETAIL
  6
CONTINUOUS
 62
     5
 10
-318.79704964217723
 20
103.091784733841
 30
0.0
 11
-318.66171019893977
 21
102.9901125139636
 31
0.0
  0
LINE
  8
DETAIL
  6
CONTINUOUS
 62
     5
 10
-318.66171019893977
 20
102.9901125139636
 30
0.0
 11
-318.52608785187039
 21
102.88878875965
 31
0.0
  0
LINE
  8
DETAIL
  6
CONTINUOUS
 62
     5
 10
-318.52608785187039
 20
102.88878875965
 30
0.0
 11
-318.39027084881508
 21
102.7878808330986
 31
0.0
  0
LINE
  8
DETAIL
  6
CONTINUOUS
 62
     5
 10
-327.79500258656782
 20
111.4034195582519
 30
0.0
 11
-327.68649371390927
 21
111.2805966272888
 31
0.0
  0
LINE
  8
DETAIL
  6
CONTINUOUS
 62
     5
 10
-327.68649371390927
 20
111.2805966272888
 30
0.0
 11
-327.57738903384211
 21
111.1577960304609
 31
0.0
  0
LINE
  8
DETAIL
  6
CONTINUOUS
 62
     5
 10
-327.57738903384211
 20
111.1577960304609
 30
0.0
 11
-327.46774413079129
 21
111.0350815648724
 31
0.0
  0
LINE
  8
DETAIL
  6
CONTINUOUS
 62
     5
 10
-327.46774413079129
 20
111.0350815648724
 30
0.0
 11
-327.35761458918159
 21
110.9125170276275
 31
0.0
  0
LINE
  8
DETAIL
  6
CONTINUOUS
 62
     5
 10
-327.35761458918159
 20
110.9125170276275
 30
0.0
 11
-327.24705599343849
 21
110.7901662158301
 31
0.0
  0
LINE
  8
DETAIL
  6
CONTINUOUS
 62
     5
 10
-327.24705599343849
 20
110.7901662158301
 30
0.0
 11
-327.13612392798649
 21
110.66809292658471
 31
0.0
  0
LINE
  8
DETAIL
  6
CONTINUOUS
 62
     5
 10
-327.13612392798649
 20
110.66809292658471
 30
0.0
 11
-327.02487397725082
 21
110.5463609569952
 31
0.0
  0
LINE
  8
DETAIL
  6
CONTINUOUS
 62
     5
 10
-321.15558515455058
 20
104.9589931167784
 30
0.0
 11
-321.02719845838249
 21
104.8524897031014
 31
0.0
  0
LINE
  8
DETAIL
  6
CONTINUOUS
 62
     5
 10
-321.02719845838249
 20
104.8524897031014
 30
0.0
 11
-320.8985204863352
 21
104.74633060157591
 31
0.0
  0
LINE
  8
DETAIL
  6
CONTINUOUS
 62
     5
 10
-320.8985204863352
 20
104.74633060157591
 30
0.0
 11
-320.76957328054959
 21
104.64053152001399
 31
0.0
  0
LINE
  8
DETAIL
  6
CONTINUOUS
 62
     5
 10
-320.76957328054959
 20
104.64053152001399
 30
0.0
 11
-320.6403788831667
 21
104.5351081662272
 31
0.0
  0
LINE
  8
DETAIL
  6
CONTINUOUS
 62
     5
 10
-320.6403788831667
 20
104.5351081662272
 30
0.0
 11
-320.5109593363278
 21
104.4300762480278
 31
0.0
  0
LINE
  8
DETAIL
  6
CONTINUOUS
 62
     5
 10
-320.5109593363278
 20
104.4300762480278
 30
0.0
 11
-320.38133668217421
 21
104.3254514732275
 31
0.0
  0
LINE
  8
DETAIL
  6
CONTINUOUS
 62
     5
 10
-320.38133668217421
 20
104.3254514732275
 30
0.0
 11
-320.25153296284662
 21
104.2212495496382
 31
0.0
  0
LINE
  8
DETAIL
  6
CONTINUOUS
 62
     5
 10
-322.04553166789992
 20
105.7137005153777
 30
0.0
 11
-321.91933940094242
 21
105.6049074881728
 31
0.0
  0
LINE
  8
DETAIL
  6
CONTINUOUS
 62
     5
 10
-321.91933940094242
 20
105.6049074881728
 30
0.0
 11
-321.79283243357662
 21
105.49643931370549
 31
0.0
  0
LINE
  8
DETAIL
  6
CONTINUOUS
 62
     5
 10
-321.79283243357662
 20
105.49643931370549
 30
0.0
 11
-321.66601099620038
 21
105.3882966172429
 31
0.0
  0
LINE
  8
DETAIL
  6
CONTINUOUS
 62
     5
 10
-321.66601099620038
 20
105.3882966172429
 30
0.0
 11
-321.53887531921168
 21
105.2804800240518
 31
0.0
  0
LINE
  8
DETAIL
  6
CONTINUOUS
 62
     5
 10
-321.53887531921168
 20
105.2804800240518
 30
0.0
 11
-321.41142563300838
 21
105.1729901593993
 31
0.0
  0
LINE
  8
DETAIL
  6
CONTINUOUS
 62
     5
 10
-321.41142563300838
 20
105.1729901593993
 30
0.0
 11
-321.28366216798878
 21
105.0658276485526
 31
0.0
  0
LINE
  8
DETAIL
  6
CONTINUOUS
 62
     5
 10
-321.28366216798878
 20
105.0658276485526
 30
0.0
 11
-321.15558515455058
 21
104.9589931167784
 31
0.0
  0
LINE
  8
DETAIL
  6
CONTINUOUS
 62
     5
 10
-322.92093417581532
 20
106.4852305343738
 30
0.0
 11
-322.79662261645228
 21
106.373834674517
 31
0.0
  0
LINE
  8
DETAIL
  6
CONTINUOUS
 62
     5
 10
-322.79662261645228
 20
106.373834674517
 30
0.0
 11
-322.67208790350651
 21
106.26285747442429
 31
0.0
  0
LINE
  8
DETAIL
  6
CONTINUOUS
 62
     5
 10
-322.67208790350651
 20
106.26285747442429
 30
0.0
 11
-322.54731474077431
 21
106.15228319538031
 31
0.0
  0
LINE
  8
DETAIL
  6
CONTINUOUS
 62
     5
 10
-322.54731474077431
 20
106.15228319538031
 30
0.0
 11
-322.42228783205121
 21
106.04209609866921
 31
0.0
  0
LINE
  8
DETAIL
  6
CONTINUOUS
 62
     5
 10
-322.42228783205121
 20
106.04209609866921
 30
0.0
 11
-322.29699188113392
 21
105.9322804455754
 31
0.0
  0
LINE
  8
DETAIL
  6
CONTINUOUS
 62
     5
 10
-322.29699188113392
 20
105.9322804455754
 30
0.0
 11
-322.17141159181813
 21
105.8228204973834
 31
0.0
  0
LINE
  8
DETAIL
  6
CONTINUOUS
 62
     5
 10
-322.17141159181813
 20
105.8228204973834
 30
0.0
 11
-322.04553166789992
 21
105.7137005153777
 31
0.0
  0
LINE
  8
DETAIL
  6
CONTINUOUS
 62
     5
 10
-323.78135435121862
 20
107.27344196270531
 30
0.0
 11
-323.65995284074961
 21
107.1603795315242
 31
0.0
  0
LINE
  8
DETAIL
  6
CONTINUOUS
 62
     5
 10
-323.65995284074961
 20
107.1603795315242
 30
0.0
 11
-323.53793174122052
 21
107.0473627002643
 31
0.0
  0
LINE
  8
DETAIL
  6
CONTINUOUS
 62
     5
 10
-323.53793174122052
 20
107.0473627002643
 30
0.0
 11
-323.41535967457821
 21
106.9344562686852
 31
0.0
  0
LINE
  8
DETAIL
  6
CONTINUOUS
 62
     5
 10
-323.41535967457821
 20
106.9344562686852
 30
0.0
 11
-323.29230526276962
 21
106.82172503654679
 31
0.0
  0
LINE
  8
DETAIL
  6
CONTINUOUS
 62
     5
 10
-323.29230526276962
 20
106.82172503654679
 30
0.0
 11
-323.16883712774171
 21
106.709233803609
 31
0.0
  0
LINE
  8
DETAIL
  6
CONTINUOUS
 62
     5
 10
-323.16883712774171
 20
106.709233803609
 30
0.0
 11
-323.04502389144142
 21
106.5970473696314
 31
0.0
  0
LINE
  8
DETAIL
  6
CONTINUOUS
 62
     5
 10
-323.04502389144142
 20
106.5970473696314
 30
0.0
 11
-322.92093417581532
 21
106.4852305343738
 31
0.0
  0
LINE
  8
DETAIL
  6
CONTINUOUS
 62
     5
 10
-324.61584193132762
 20
108.06797711758421
 30
0.0
 11
-324.49781470953849
 21
107.9537201021901
 31
0.0
  0
LINE
  8
DETAIL
  6
CONTINUOUS
 62
     5
 10
-324.49781470953849
 20
107.9537201021901
 30
0.0
 11
-324.37950512752673
 21
107.8398175451656
 31
0.0
  0
LINE
  8
DETAIL
  6
CONTINUOUS
 62
     5
 10
-324.37950512752673
 20
107.8398175451656
 30
0.0
 11
-324.26084554349472
 21
107.7262071701426
 31
0.0
  0
LINE
  8
DETAIL
  6
CONTINUOUS
 62
     5
 10
-324.26084554349472
 20
107.7262071701426
 30
0.0
 11
-324.14176831564532
 21
107.6128267007532
 31
0.0
  0
LINE
  8
DETAIL
  6
CONTINUOUS
 62
     5
 10
-324.14176831564532
 20
107.6128267007532
 30
0.0
 11
-324.02220580218108
 21
107.4996138606291
 31
0.0
  0
LINE
  8
DETAIL
  6
CONTINUOUS
 62
     5
 10
-324.02220580218108
 20
107.4996138606291
 30
0.0
 11
-323.90209036130449
 21
107.3865063734025
 31
0.0
  0
LINE
  8
DETAIL
  6
CONTINUOUS
 62
     5
 10
-323.90209036130449
 20
107.3865063734025
 30
0.0
 11
-323.78135435121862
 21
107.27344196270531
 31
0.0
  0
LINE
  8
DETAIL
  6
CONTINUOUS
 62
     5
 10
-325.43487209727391
 20
108.87844109561991
 30
0.0
 11
-325.31875512012158
 21
108.761622048002
 31
0.0
  0
LINE
  8
DETAIL
  6
CONTINUOUS
 62
     5
 10
-325.31875512012158
 20
108.761622048002
 30
0.0
 11
-325.20231118900892
 21
108.6451220159437
 31
0.0
  0
LINE
  8
DETAIL
  6
CONTINUOUS
 62
     5
 10
-325.20231118900892
 20
108.6451220159437
 30
0.0
 11
-325.08555900985863
 21
108.5289572859746
 31
0.0
  0
LINE
  8
DETAIL
  6
CONTINUOUS
 62
     5
 10
-325.08555900985863
 20
108.5289572859746
 30
0.0
 11
-324.96851728859252
 21
108.4131441446244
 31
0.0
  0
LINE
  8
DETAIL
  6
CONTINUOUS
 62
     5
 10
-324.96851728859252
 20
108.4131441446244
 30
0.0
 11
-324.85120473113369
 21
108.29769887842281
 31
0.0
  0
LINE
  8
DETAIL
  6
CONTINUOUS
 62
     5
 10
-324.85120473113369
 20
108.29769887842281
 30
0.0
 11
-324.73364004340459
 21
108.1826377738996
 31
0.0
  0
LINE
  8
DETAIL
  6
CONTINUOUS
 62
     5
 10
-324.73364004340459
 20
108.1826377738996
 30
0.0
 11
-324.61584193132762
 21
108.06797711758421
 31
0.0
  0
LINE
  8
DETAIL
  6
CONTINUOUS
 62
     5
 10
-326.23802329670048
 20
109.7046352557707
 30
0.0
 11
-326.12432688933058
 21
109.5857071967736
 31
0.0
  0
LINE
  8
DETAIL
  6
CONTINUOUS
 62
     5
 10
-326.12432688933058
 20
109.5857071967736
 30
0.0
 11
-326.01028366887158
 21
109.4670782366877
 31
0.0
  0
LINE
  8
DETAIL
  6
CONTINUOUS
 62
     5
 10
-326.01028366887158
 20
109.4670782366877
 30
0.0
 11
-325.89589382752411
 21
109.3487489805329
 31
0.0
  0
LINE
  8
DETAIL
  6
CONTINUOUS
 62
     5
 10
-325.89589382752411
 20
109.3487489805329
 30
0.0
 11
-325.78115755748968
 21
109.23072003332901
 31
0.0
  0
LINE
  8
DETAIL
  6
CONTINUOUS
 62
     5
 10
-325.78115755748968
 20
109.23072003332901
 30
0.0
 11
-325.66607505096891
 21
109.1129920000956
 31
0.0
  0
LINE
  8
DETAIL
  6
CONTINUOUS
 62
     5
 10
-325.66607505096891
 20
109.1129920000956
 30
0.0
 11
-325.55064650016328
 21
108.99556548585269
 31
0.0
  0
LINE
  8
DETAIL
  6
CONTINUOUS
 62
     5
 10
-325.55064650016328
 20
108.99556548585269
 30
0.0
 11
-325.43487209727391
 21
108.87844109561991
 31
0.0
  0
LINE
  8
DETAIL
  6
CONTINUOUS
 62
     5
 10
-327.02487397725082
 20
110.5463609569952
 30
0.0
 11
-326.9133504448132
 21
110.42502093267549
 31
0.0
  0
LINE
  8
DETAIL
  6
CONTINUOUS
 62
     5
 10
-326.9133504448132
 20
110.42502093267549
 30
0.0
 11
-326.80155251088382
 21
110.3040707932774
 31
0.0
  0
LINE
  8
DETAIL
  6
CONTINUOUS
 62
     5
 10
-326.80155251088382
 20
110.3040707932774
 30
0.0
 11
-326.68946807482939
 21
110.1834953069629
 31
0.0
  0
LINE
  8
DETAIL
  6
CONTINUOUS
 62
     5
 10
-326.68946807482939
 20
110.1834953069629
 30
0.0
 11
-326.57708503601691
 21
110.0632792418933
 31
0.0
  0
LINE
  8
DETAIL
  6
CONTINUOUS
 62
     5
 10
-326.57708503601691
 20
110.0632792418933
 30
0.0
 11
-326.46439129381332
 21
109.9434073662303
 31
0.0
  0
LINE
  8
DETAIL
  6
CONTINUOUS
 62
     5
 10
-326.46439129381332
 20
109.9434073662303
 30
0.0
 11
-326.35137474758562
 21
109.82386444813559
 31
0.0
  0
LINE
  8
DETAIL
  6
CONTINUOUS
 62
     5
 10
-326.35137474758562
 20
109.82386444813559
 30
0.0
 11
-326.23802329670048
 21
109.7046352557707
 31
0.0
  0
LINE
  8
DETAIL
  6
CONTINUOUS
 62
     5
 10
-328.53951981796649
 20
112.2655923827526
 30
0.0
 11
-328.43440278210261
 21
112.1417535705128
 31
0.0
  0
LINE
  8
DETAIL
  6
CONTINUOUS
 62
     5
 10
-328.43440278210261
 20
112.1417535705128
 30
0.0
 11
-328.32896278834932
 21
112.0182405205916
 31
0.0
  0
LINE
  8
DETAIL
  6
CONTINUOUS
 62
     5
 10
-328.32896278834932
 20
112.0182405205916
 30
0.0
 11
-328.22314509771599
 21
111.8949920287741
 31
0.0
  0
LINE
  8
DETAIL
  6
CONTINUOUS
 62
     5
 10
-328.22314509771599
 20
111.8949920287741
 30
0.0
 11
-328.11689497121188
 21
111.7719468908459
 31
0.0
  0
LINE
  8
DETAIL
  6
CONTINUOUS
 62
     5
 10
-328.11689497121188
 20
111.7719468908459
 30
0.0
 11
-328.01015766984631
 21
111.6490439025926
 31
0.0
  0
LINE
  8
DETAIL
  6
CONTINUOUS
 62
     5
 10
-328.01015766984631
 20
111.6490439025926
 30
0.0
 11
-327.90287845462848
 21
111.52622185979941
 31
0.0
  0
LINE
  8
DETAIL
  6
CONTINUOUS
 62
     5
 10
-327.90287845462848
 20
111.52622185979941
 30
0.0
 11
-327.79500258656782
 21
111.4034195582519
 31
0.0
  0
LINE
  8
DETAIL
  6
CONTINUOUS
 62
     5
 10
-329.26688418850648
 20
113.1422938803746
 30
0.0
 11
-329.16397996823571
 21
113.01610227118201
 31
0.0
  0
LINE
  8
DETAIL
  6
CONTINUOUS
 62
     5
 10
-329.16397996823571
 20
113.01610227118201
 30
0.0
 11
-329.06071507422399
 21
112.89019961552459
 31
0.0
  0
LINE
  8
DETAIL
  6
CONTINUOUS
 62
     5
 10
-329.06071507422399
 20
112.89019961552459
 30
0.0
 11
-328.95710491561198
 21
112.76460224890209
 31
0.0
  0
LINE
  8
DETAIL
  6
CONTINUOUS
 62
     5
 10
-328.95710491561198
 20
112.76460224890209
 30
0.0
 11
-328.8531649015398
 21
112.639326506814
 31
0.0
  0
LINE
  8
DETAIL
  6
CONTINUOUS
 62
     5
 10
-328.8531649015398
 20
112.639326506814
 30
0.0
 11
-328.74891044114821
 21
112.5143887247599
 31
0.0
  0
LINE
  8
DETAIL
  6
CONTINUOUS
 62
     5
 10
-328.74891044114821
 20
112.5143887247599
 30
0.0
 11
-328.64435694357689
 21
112.3898052382395
 31
0.0
  0
LINE
  8
DETAIL
  6
CONTINUOUS
 62
     5
 10
-328.64435694357689
 20
112.3898052382395
 30
0.0
 11
-328.53951981796649
 21
112.2655923827526
 31
0.0
  0
LINE
  8
DETAIL
  6
CONTINUOUS
 62
     5
 10
-329.97669856086532
 20
114.0332609004312
 30
0.0
 11
-329.87642539900588
 21
113.9051680941152
 31
0.0
  0
LINE
  8
DETAIL
  6
CONTINUOUS
 62
     5
 10
-329.87642539900588
 20
113.9051680941152
 30
0.0
 11
-329.77577585763868
 21
113.7773451132242
 31
0.0
  0
LINE
  8
DETAIL
  6
CONTINUOUS
 62
     5
 10
-329.77577585763868
 20
113.7773451132242
 30
0.0
 11
-329.67474998620128
 21
113.6497924231936
 31
0.0
  0
LINE
  8
DETAIL
  6
CONTINUOUS
 62
     5
 10
-329.67474998620128
 20
113.6497924231936
 30
0.0
 11
-329.5733478341316
 21
113.5225104894581
 31
0.0
  0
LINE
  8
DETAIL
  6
CONTINUOUS
 62
     5
 10
-329.5733478341316
 20
113.5225104894581
 30
0.0
 11
-329.47156945086749
 21
113.3954997774531
 31
0.0
  0
LINE
  8
DETAIL
  6
CONTINUOUS
 62
     5
 10
-329.47156945086749
 20
113.3954997774531
 30
0.0
 11
-329.36941488584648
 21
113.2687607526136
 31
0.0
  0
LINE
  8
DETAIL
  6
CONTINUOUS
 62
     5
 10
-329.36941488584648
 20
113.2687607526136
 30
0.0
 11
-329.26688418850648
 21
113.1422938803746
 31
0.0
  0
LINE
  8
DETAIL
  6
CONTINUOUS
 62
     5
 10
-330.6685657977207
 20
114.93823029223491
 30
0.0
 11
-330.57074432938578
 21
114.8079641483066
 31
0.0
  0
LINE
  8
DETAIL
  6
CONTINUOUS
 62
     5
 10
-330.57074432938578
 20
114.8079641483066
 30
0.0
 11
-330.47259839140293
 21
114.67804892849379
 31
0.0
  0
LINE
  8
DETAIL
  6
CONTINUOUS
 62
     5
 10
-330.47259839140293
 20
114.67804892849379
 30
0.0
 11
-330.37411932388909
 21
114.5484710387756
 31
0.0
  0
LINE
  8
DETAIL
  6
CONTINUOUS
 62
     5
 10
-330.37411932388909
 20
114.5484710387756
 30
0.0
 11
-330.2752984669612
 21
114.41921688513121
 31
0.0
  0
LINE
  8
DETAIL
  6
CONTINUOUS
 62
     5
 10
-330.2752984669612
 20
114.41921688513121
 30
0.0
 11
-330.17612716073648
 21
114.29027287353961
 31
0.0
  0
LINE
  8
DETAIL
  6
CONTINUOUS
 62
     5
 10
-330.17612716073648
 20
114.29027287353961
 30
0.0
 11
-330.07659674533238
 21
114.16162540997991
 31
0.0
  0
LINE
  8
DETAIL
  6
CONTINUOUS
 62
     5
 10
-330.07659674533238
 20
114.16162540997991
 30
0.0
 11
-329.97669856086532
 21
114.0332609004312
 31
0.0
  0
LINE
  8
DETAIL
  6
CONTINUOUS
 62
     5
 10
-331.3420887617508
 20
115.8569389050992
 30
0.0
 11
-331.24735860708893
 21
115.7253619434166
 31
0.0
  0
LINE
  8
DETAIL
  6
CONTINUOUS
 62
     5
 10
-331.24735860708893
 20
115.7253619434166
 30
0.0
 11
-331.15206342004672
 21
115.5937984166648
 31
0.0
  0
LINE
  8
DETAIL
  6
CONTINUOUS
 62
     5
 10
-331.15206342004672
 20
115.5937984166648
 30
0.0
 11
-331.05624473772679
 21
115.4623068387115
 31
0.0
  0
LINE
  8
DETAIL
  6
CONTINUOUS
 62
     5
 10
-331.05624473772679
 20
115.4623068387115
 30
0.0
 11
-330.95994409723181
 21
115.33094572342419
 31
0.0
  0
LINE
  8
DETAIL
  6
CONTINUOUS
 62
     5
 10
-330.95994409723181
 20
115.33094572342419
 30
0.0
 11
-330.86320303566413
 21
115.19977358467069
 31
0.0
  0
LINE
  8
DETAIL
  6
CONTINUOUS
 62
     5
 10
-330.86320303566413
 20
115.19977358467069
 30
0.0
 11
-330.76606309012629
 21
115.0688489363183
 31
0.0
  0
LINE
  8
DETAIL
  6
CONTINUOUS
 62
     5
 10
-330.76606309012629
 20
115.0688489363183
 30
0.0
 11
-330.6685657977207
 21
114.93823029223491
 31
0.0
  0
LINE
  8
DETAIL
  6
CONTINUOUS
 62
     5
 10
-331.99059653282688
 20
116.7799783636636
 30
0.0
 11
-331.8992419253708
 21
116.64752433576609
 31
0.0
  0
LINE
  8
DETAIL
  6
CONTINUOUS
 62
     5
 10
-331.8992419253708
 20
116.64752433576609
 30
0.0
 11
-331.80752552471262
 21
116.5153605296608
 31
0.0
  0
LINE
  8
DETAIL
  6
CONTINUOUS
 62
     5
 10
-331.80752552471262
 20
116.5153605296608
 30
0.0
 11
-331.7154065348052
 21
116.38343106189301
 31
0.0
  0
LINE
  8
DETAIL
  6
CONTINUOUS
 62
     5
 10
-331.7154065348052
 20
116.38343106189301
 30
0.0
 11
-331.62284415960221
 21
116.2516800490077
 31
0.0
  0
LINE
  8
DETAIL
  6
CONTINUOUS
 62
     5
 10
-331.62284415960221
 20
116.2516800490077
 30
0.0
 11
-331.52979760305652
 21
116.1200516075502
 31
0.0
  0
LINE
  8
DETAIL
  6
CONTINUOUS
 62
     5
 10
-331.52979760305652
 20
116.1200516075502
 30
0.0
 11
-331.43622606912157
 21
115.98848985406561
 31
0.0
  0
LINE
  8
DETAIL
  6
CONTINUOUS
 62
     5
 10
-331.43622606912157
 20
115.98848985406561
 30
0.0
 11
-331.3420887617508
 21
115.8569389050992
 31
0.0
  0
LINE
  8
DETAIL
  6
CONTINUOUS
 62
     5
 10
-332.62037082546141
 20
117.71590653549291
 30
0.0
 11
-332.53151897808988
 21
117.58136335058229
 31
0.0
  0
LINE
  8
DETAIL
  6
CONTINUOUS
 62
     5
 10
-332.53151897808988
 20
117.58136335058229
 30
0.0
 11
-332.44227555636922
 21
117.447074353052
 31
0.0
  0
LINE
  8
DETAIL
  6
CONTINUOUS
 62
     5
 10
-332.44227555636922
 20
117.447074353052
 30
0.0
 11
-332.35265232316527
 21
117.31305486254681
 31
0.0
  0
LINE
  8
DETAIL
  6
CONTINUOUS
 62
     5
 10
-332.35265232316527
 20
117.31305486254681
 30
0.0
 11
-332.26266104134362
 21
117.1793201987109
 31
0.0
  0
LINE
  8
DETAIL
  6
CONTINUOUS
 62
     5
 10
-332.26266104134362
 20
117.1793201987109
 30
0.0
 11
-332.17231347376952
 21
117.04588568118881
 31
0.0
  0
LINE
  8
DETAIL
  6
CONTINUOUS
 62
     5
 10
-332.17231347376952
 20
117.04588568118881
 30
0.0
 11
-332.08162138330891
 21
116.9127666296249
 31
0.0
  0
LINE
  8
DETAIL
  6
CONTINUOUS
 62
     5
 10
-332.08162138330891
 20
116.9127666296249
 30
0.0
 11
-331.99059653282688
 21
116.7799783636636
 31
0.0
  0
LINE
  8
DETAIL
  6
CONTINUOUS
 62
     5
 10
-336.92513117192971
 20
125.587299366078
 30
0.0
 11
-336.86015246017013
 21
125.4415035400401
 31
0.0
  0
LINE
  8
DETAIL
  6
CONTINUOUS
 62
     5
 10
-336.86015246017013
 20
125.4415035400401
 30
0.0
 11
-336.79467493417559
 21
125.2957545597629
 31
0.0
  0
LINE
  8
DETAIL
  6
CONTINUOUS
 62
     5
 10
-336.79467493417559
 20
125.2957545597629
 30
0.0
 11
-336.7287135618426
 21
125.15008601813329
 31
0.0
  0
LINE
  8
DETAIL
  6
CONTINUOUS
 62
     5
 10
-336.7287135618426
 20
125.15008601813329
 30
0.0
 11
-336.66228331106691
 21
125.0045315080379
 31
0.0
  0
LINE
  8
DETAIL
  6
CONTINUOUS
 62
     5
 10
-336.66228331106691
 20
125.0045315080379
 30
0.0
 11
-336.59539914974488
 21
124.85912462236411
 31
0.0
  0
LINE
  8
DETAIL
  6
CONTINUOUS
 62
     5
 10
-336.59539914974488
 20
124.85912462236411
 30
0.0
 11
-336.52807604577288
 21
124.71389895399849
 31
0.0
  0
LINE
  8
DETAIL
  6
CONTINUOUS
 62
     5
 10
-336.52807604577288
 20
124.71389895399849
 30
0.0
 11
-336.46032896704651
 21
124.5688880958282
 31
0.0
  0
LINE
  8
DETAIL
  6
CONTINUOUS
 62
     5
 10
-333.82229909867033
 20
119.6251233706532
 30
0.0
 11
-333.73897513819219
 21
119.4870254607351
 31
0.0
  0
LINE
  8
DETAIL
  6
CONTINUOUS
 62
     5
 10
-333.73897513819219
 20
119.4870254607351
 30
0.0
 11
-333.65528037873719
 21
119.3492294274845
 31
0.0
  0
LINE
  8
DETAIL
  6
CONTINUOUS
 62
     5
 10
-333.65528037873719
 20
119.3492294274845
 30
0.0
 11
-333.57120945098109
 21
119.2117244022519
 31
0.0
  0
LINE
  8
DETAIL
  6
CONTINUOUS
 62
     5
 10
-333.57120945098109
 20
119.2117244022519
 30
0.0
 11
-333.48675698560021
 21
119.074499516388
 31
0.0
  0
LINE
  8
DETAIL
  6
CONTINUOUS
 62
     5
 10
-333.48675698560021
 20
119.074499516388
 30
0.0
 11
-333.40191761327083
 21
118.9375439012431
 31
0.0
  0
LINE
  8
DETAIL
  6
CONTINUOUS
 62
     5
 10
-333.40191761327083
 20
118.9375439012431
 30
0.0
 11
-333.31668596466892
 21
118.80084668816821
 31
0.0
  0
LINE
  8
DETAIL
  6
CONTINUOUS
 62
     5
 10
-333.31668596466892
 20
118.80084668816821
 30
0.0
 11
-333.23105667047071
 21
118.6643970085137
 31
0.0
  0
LINE
  8
DETAIL
  6
CONTINUOUS
 62
     5
 10
-334.3937431408765
 20
120.5977592098376
 30
0.0
 11
-334.31356509190528
 21
120.4585083032274
 31
0.0
  0
LINE
  8
DETAIL
  6
CONTINUOUS
 62
     5
 10
-334.31356509190528
 20
120.4585083032274
 30
0.0
 11
-334.23285521701558
 21
120.3192769236109
 31
0.0
  0
LINE
  8
DETAIL
  6
CONTINUOUS
 62
     5
 10
-334.23285521701558
 20
120.3192769236109
 30
0.0
 11
-334.15164124891839
 21
120.18011394070869
 31
0.0
  0
LINE
  8
DETAIL
  6
CONTINUOUS
 62
     5
 10
-334.15164124891839
 20
120.18011394070869
 30
0.0
 11
-334.06995092032429
 21
120.0410682242414
 31
0.0
  0
LINE
  8
DETAIL
  6
CONTINUOUS
 62
     5
 10
-334.06995092032429
 20
120.0410682242414
 30
0.0
 11
-333.9878119639443
 21
119.90218864392931
 31
0.0
  0
LINE
  8
DETAIL
  6
CONTINUOUS
 62
     5
 10
-333.9878119639443
 20
119.90218864392931
 30
0.0
 11
-333.90525211248951
 21
119.7635240694931
 31
0.0
  0
LINE
  8
DETAIL
  6
CONTINUOUS
 62
     5
 10
-333.90525211248951
 20
119.7635240694931
 30
0.0
 11
-333.82229909867033
 21
119.6251233706532
 31
0.0
  0
LINE
  8
DETAIL
  6
CONTINUOUS
 62
     5
 10
-334.94090179007088
 20
121.5743940767445
 30
0.0
 11
-334.86406301383317
 21
121.4343617828881
 31
0.0
  0
LINE
  8
DETAIL
  6
CONTINUOUS
 62
     5
 10
-334.86406301383317
 20
121.4343617828881
 30
0.0
 11
-334.78682710857203
 21
121.2945775564599
 31
0.0
  0
LINE
  8
DETAIL
  6
CONTINUOUS
 62
     5
 10
-334.78682710857203
 20
121.2945775564599
 30
0.0
 11
-334.70916700268589
 21
121.15499516243401
 31
0.0
  0
LINE
  8
DETAIL
  6
CONTINUOUS
 62
     5
 10
-334.70916700268589
 20
121.15499516243401
 30
0.0
 11
-334.6310556245744
 21
121.0155683657847
 31
0.0
  0
LINE
  8
DETAIL
  6
CONTINUOUS
 62
     5
 10
-334.6310556245744
 20
121.0155683657847
 30
0.0
 11
-334.55246590263619
 21
120.876250931486
 31
0.0
  0
LINE
  8
DETAIL
  6
CONTINUOUS
 62
     5
 10
-334.55246590263619
 20
120.876250931486
 30
0.0
 11
-334.4733707652706
 21
120.7369966245122
 31
0.0
  0
LINE
  8
DETAIL
  6
CONTINUOUS
 62
     5
 10
-334.4733707652706
 20
120.7369966245122
 30
0.0
 11
-334.3937431408765
 21
120.5977592098376
 31
0.0
  0
LINE
  8
DETAIL
  6
CONTINUOUS
 62
     5
 10
-335.46791709694492
 20
122.56205048849201
 30
0.0
 11
-335.3938446421738
 21
122.42024576575341
 31
0.0
  0
LINE
  8
DETAIL
  6
CONTINUOUS
 62
     5
 10
-335.3938446421738
 20
122.42024576575341
 30
0.0
 11
-335.31935354200658
 21
122.2786559803625
 31
0.0
  0
LINE
  8
DETAIL
  6
CONTINUOUS
 62
     5
 10
-335.31935354200658
 20
122.2786559803625
 30
0.0
 11
-335.24445189443873
 21
122.1372943598371
 31
0.0
  0
LINE
  8
DETAIL
  6
CONTINUOUS
 62
     5
 10
-335.24445189443873
 20
122.1372943598371
 30
0.0
 11
-335.16914779746548
 21
121.9961741316949
 31
0.0
  0
LINE
  8
DETAIL
  6
CONTINUOUS
 62
     5
 10
-335.16914779746548
 20
121.9961741316949
 30
0.0
 11
-335.09344934908279
 21
121.8553085234537
 31
0.0
  0
LINE
  8
DETAIL
  6
CONTINUOUS
 62
     5
 10
-335.09344934908279
 20
121.8553085234537
 30
0.0
 11
-335.01736464728612
 21
121.7147107626309
 31
0.0
  0
LINE
  8
DETAIL
  6
CONTINUOUS
 62
     5
 10
-335.01736464728612
 20
121.7147107626309
 30
0.0
 11
-334.94090179007088
 21
121.5743940767445
 31
0.0
  0
LINE
  8
DETAIL
  6
CONTINUOUS
 62
     5
 10
-335.97449188232832
 20
123.56034348240971
 30
0.0
 11
-335.90340270116639
 21
123.4171258350208
 31
0.0
  0
LINE
  8
DETAIL
  6
CONTINUOUS
 62
     5
 10
-335.90340270116639
 20
123.4171258350208
 30
0.0
 11
-335.83188750808381
 21
123.2741095434866
 31
0.0
  0
LINE
  8
DETAIL
  6
CONTINUOUS
 62
     5
 10
-335.83188750808381
 20
123.2741095434866
 30
0.0
 11
-335.75994618116852
 21
123.1312946668029
 31
0.0
  0
LINE
  8
DETAIL
  6
CONTINUOUS
 62
     5
 10
-335.75994618116852
 20
123.1312946668029
 30
0.0
 11
-335.68757859850888
 21
122.9886812639656
 31
0.0
  0
LINE
  8
DETAIL
  6
CONTINUOUS
 62
     5
 10
-335.68757859850888
 20
122.9886812639656
 30
0.0
 11
-335.61478463819299
 21
122.8462693939708
 31
0.0
  0
LINE
  8
DETAIL
  6
CONTINUOUS
 62
     5
 10
-335.61478463819299
 20
122.8462693939708
 30
0.0
 11
-335.54156417830887
 21
122.7040591158143
 31
0.0
  0
LINE
  8
DETAIL
  6
CONTINUOUS
 62
     5
 10
-335.54156417830887
 20
122.7040591158143
 30
0.0
 11
-335.46791709694492
 21
122.56205048849201
 31
0.0
  0
LINE
  8
DETAIL
  6
CONTINUOUS
 62
     5
 10
-336.46032896704651
 20
124.5688880958282
 30
0.0
 11
-336.39216998483312
 21
124.4241189203487
 31
0.0
  0
LINE
  8
DETAIL
  6
CONTINUOUS
 62
     5
 10
-336.39216998483312
 20
124.4241189203487
 30
0.0
 11
-336.32359958388298
 21
124.27959141849099
 31
0.0
  0
LINE
  8
DETAIL
  6
CONTINUOUS
 62
     5
 10
-336.32359958388298
 20
124.27959141849099
 30
0.0
 11
-336.25461535231773
 21
124.13529886079441
 31
0.0
  0
LINE
  8
DETAIL
  6
CONTINUOUS
 62
     5
 10
-336.25461535231773
 20
124.13529886079441
 30
0.0
 11
-336.18521487825819
 21
123.9912345177984
 31
0.0
  0
LINE
  8
DETAIL
  6
CONTINUOUS
 62
     5
 10
-336.18521487825819
 20
123.9912345177984
 30
0.0
 11
-336.11539574982589
 21
123.8473916600426
 31
0.0
  0
LINE
  8
DETAIL
  6
CONTINUOUS
 62
     5
 10
-336.11539574982589
 20
123.8473916600426
 30
0.0
 11
-336.04515555514217
 21
123.7037635580666
 31
0.0
  0
LINE
  8
DETAIL
  6
CONTINUOUS
 62
     5
 10
-336.04515555514217
 20
123.7037635580666
 30
0.0
 11
-335.97449188232832
 21
123.56034348240971
 31
0.0
  0
LINE
  8
DETAIL
  6
CONTINUOUS
 62
     5
 10
-339.69840155114463
 20
133.4321086889843
 30
0.0
 11
-339.6643243288438
 21
133.30546376164881
 31
0.0
  0
LINE
  8
DETAIL
  6
CONTINUOUS
 62
     5
 10
-339.6643243288438
 20
133.30546376164881
 30
0.0
 11
-339.629964686932
 21
133.1789393861981
 31
0.0
  0
LINE
  8
DETAIL
  6
CONTINUOUS
 62
     5
 10
-339.629964686932
 20
133.1789393861981
 30
0.0
 11
-339.59529040894608
 21
133.05245314195031
 31
0.0
  0
LINE
  8
DETAIL
  6
CONTINUOUS
 62
     5
 10
-339.59529040894608
 20
133.05245314195031
 30
0.0
 11
-339.56026927842322
 21
132.92592260822329
 31
0.0
  0
LINE
  8
DETAIL
  6
CONTINUOUS
 62
     5
 10
-339.56026927842322
 20
132.92592260822329
 30
0.0
 11
-339.52486907890062
 21
132.79926536433479
 31
0.0
  0
LINE
  8
DETAIL
  6
CONTINUOUS
 62
     5
 10
-339.52486907890062
 20
132.79926536433479
 30
0.0
 11
-339.48905759391528
 21
132.6723989896027
 31
0.0
  0
LINE
  8
DETAIL
  6
CONTINUOUS
 62
     5
 10
-339.48905759391528
 20
132.6723989896027
 30
0.0
 11
-339.45280260700451
 21
132.54524106334489
 31
0.0
  0
LINE
  8
DETAIL
  6
CONTINUOUS
 62
     5
 10
-338.91565606151789
 20
130.78495266557971
 30
0.0
 11
-338.86952344374032
 21
130.64381002085821
 31
0.0
  0
LINE
  8
DETAIL
  6
CONTINUOUS
 62
     5
 10
-338.86952344374032
 20
130.64381002085821
 30
0.0
 11
-338.82126983314112
 21
130.49747163748589
 31
0.0
  0
LINE
  8
DETAIL
  6
CONTINUOUS
 62
     5
 10
-338.82126983314112
 20
130.49747163748589
 30
0.0
 11
-338.77126475607048
 21
130.34712078727631
 31
0.0
  0
LINE
  8
DETAIL
  6
CONTINUOUS
 62
     5
 10
-338.77126475607048
 20
130.34712078727631
 30
0.0
 11
-338.71987773887878
 21
130.19394074204251
 31
0.0
  0
LINE
  8
DETAIL
  6
CONTINUOUS
 62
     5
 10
-338.71987773887878
 20
130.19394074204251
 30
0.0
 11
-338.66747830791633
 21
130.03911477359779
 31
0.0
  0
LINE
  8
DETAIL
  6
CONTINUOUS
 62
     5
 10
-338.66747830791633
 20
130.03911477359779
 30
0.0
 11
-338.61443598953338
 21
129.88382615375551
 31
0.0
  0
LINE
  8
DETAIL
  6
CONTINUOUS
 62
     5
 10
-338.61443598953338
 20
129.88382615375551
 30
0.0
 11
-338.56112031008018
 21
129.7292581543289
 31
0.0
  0
LINE
  8
DETAIL
  6
CONTINUOUS
 62
     5
 10
-339.19186062574198
 20
131.6627669289326
 30
0.0
 11
-339.15473965461871
 21
131.5412549558171
 31
0.0
  0
LINE
  8
DETAIL
  6
CONTINUOUS
 62
     5
 10
-339.15473965461871
 20
131.5412549558171
 30
0.0
 11
-339.11749804143852
 21
131.4204010338772
 31
0.0
  0
LINE
  8
DETAIL
  6
CONTINUOUS
 62
     5
 10
-339.11749804143852
 20
131.4204010338772
 30
0.0
 11
-339.07974080668282
 21
131.2990323195061
 31
0.0
  0
LINE
  8
DETAIL
  6
CONTINUOUS
 62
     5
 10
-339.07974080668282
 20
131.2990323195061
 30
0.0
 11
-339.04107297083192
 21
131.17597596909741
 31
0.0
  0
LINE
  8
DETAIL
  6
CONTINUOUS
 62
     5
 10
-339.04107297083192
 20
131.17597596909741
 30
0.0
 11
-339.00109955436687
 21
131.05005913904449
 31
0.0
  0
LINE
  8
DETAIL
  6
CONTINUOUS
 62
     5
 10
-339.00109955436687
 20
131.05005913904449
 30
0.0
 11
-338.95942557776868
 21
130.92010898574071
 31
0.0
  0
LINE
  8
DETAIL
  6
CONTINUOUS
 62
     5
 10
-338.95942557776868
 20
130.92010898574071
 30
0.0
 11
-338.91565606151789
 21
130.78495266557971
 31
0.0
  0
LINE
  8
DETAIL
  6
CONTINUOUS
 62
     5
 10
-339.45280260700451
 20
132.54524106334489
 30
0.0
 11
-339.41609512958831
 21
132.41777539849249
 31
0.0
  0
LINE
  8
DETAIL
  6
CONTINUOUS
 62
     5
 10
-339.41609512958831
 20
132.41777539849249
 30
0.0
 11
-339.37901908461942
 21
132.29025074243091
 31
0.0
  0
LINE
  8
DETAIL
  6
CONTINUOUS
 62
     5
 10
-339.37901908461942
 20
132.29025074243091
 30
0.0
 11
-339.34168162293389
 21
132.1629820761585
 31
0.0
  0
LINE
  8
DETAIL
  6
CONTINUOUS
 62
     5
 10
-339.34168162293389
 20
132.1629820761585
 30
0.0
 11
-339.30418989536747
 21
132.03628438067381
 31
0.0
  0
LINE
  8
DETAIL
  6
CONTINUOUS
 62
     5
 10
-339.30418989536747
 20
132.03628438067381
 30
0.0
 11
-339.26665105275612
 21
131.9104726369757
 31
0.0
  0
LINE
  8
DETAIL
  6
CONTINUOUS
 62
     5
 10
-339.26665105275612
 20
131.9104726369757
 30
0.0
 11
-339.22917224593562
 21
131.78586182606239
 31
0.0
  0
LINE
  8
DETAIL
  6
CONTINUOUS
 62
     5
 10
-339.22917224593562
 20
131.78586182606239
 30
0.0
 11
-339.19186062574198
 21
131.6627669289326
 31
0.0
  0
LINE
  8
DETAIL
  6
CONTINUOUS
 62
     5
 10
-337.3663557296843
 20
126.6097987538498
 30
0.0
 11
-337.30469625884803
 21
126.46334237714881
 31
0.0
  0
LINE
  8
DETAIL
  6
CONTINUOUS
 62
     5
 10
-337.30469625884803
 20
126.46334237714881
 30
0.0
 11
-337.24260088475012
 21
126.3170586119228
 31
0.0
  0
LINE
  8
DETAIL
  6
CONTINUOUS
 62
     5
 10
-337.24260088475012
 20
126.3170586119228
 30
0.0
 11
-337.18005662757878
 21
126.170920898405
 31
0.0
  0
LINE
  8
DETAIL
  6
CONTINUOUS
 62
     5
 10
-337.18005662757878
 20
126.170920898405
 30
0.0
 11
-337.11705050752272
 21
126.0249026768286
 31
0.0
  0
LINE
  8
DETAIL
  6
CONTINUOUS
 62
     5
 10
-337.11705050752272
 20
126.0249026768286
 30
0.0
 11
-337.05356954477003
 21
125.8789773874266
 31
0.0
  0
LINE
  8
DETAIL
  6
CONTINUOUS
 62
     5
 10
-337.05356954477003
 20
125.8789773874266
 30
0.0
 11
-336.98960075950959
 21
125.733118470432
 31
0.0
  0
LINE
  8
DETAIL
  6
CONTINUOUS
 62
     5
 10
-336.98960075950959
 20
125.733118470432
 30
0.0
 11
-336.92513117192971
 21
125.587299366078
 31
0.0
  0
LINE
  8
DETAIL
  6
CONTINUOUS
 62
     5
 10
-337.78624532084177
 20
127.6412474880749
 30
0.0
 11
-337.72750023411191
 21
127.4931390865524
 31
0.0
  0
LINE
  8
DETAIL
  6
CONTINUOUS
 62
     5
 10
-337.72750023411191
 20
127.4931390865524
 30
0.0
 11
-337.6683458992112
 21
127.34530419563571
 31
0.0
  0
LINE
  8
DETAIL
  6
CONTINUOUS
 62
     5
 10
-337.6683458992112
 20
127.34530419563571
 30
0.0
 11
-337.60878003692687
 21
127.19773042543081
 31
0.0
  0
LINE
  8
DETAIL
  6
CONTINUOUS
 62
     5
 10
-337.60878003692687
 20
127.19773042543081
 30
0.0
 11
-337.54880036804519
 21
127.05040538604359
 31
0.0
  0
LINE
  8
DETAIL
  6
CONTINUOUS
 62
     5
 10
-337.54880036804519
 20
127.05040538604359
 30
0.0
 11
-337.48840461335288
 21
126.9033166875804
 31
0.0
  0
LINE
  8
DETAIL
  6
CONTINUOUS
 62
     5
 10
-337.48840461335288
 20
126.9033166875804
 30
0.0
 11
-337.42759049363713
 21
126.7564519401471
 31
0.0
  0
LINE
  8
DETAIL
  6
CONTINUOUS
 62
     5
 10
-337.42759049363713
 20
126.7564519401471
 30
0.0
 11
-337.3663557296843
 21
126.6097987538498
 31
0.0
  0
LINE
  8
DETAIL
  6
CONTINUOUS
 62
     5
 10
-338.18457512208101
 20
128.68121185836449
 30
0.0
 11
-338.1292301542768
 21
128.53287599772679
 31
0.0
  0
LINE
  8
DETAIL
  6
CONTINUOUS
 62
     5
 10
-338.1292301542768
 20
128.53287599772679
 30
0.0
 11
-338.0733220409104
 21
128.38432380090839
 31
0.0
  0
LINE
  8
DETAIL
  6
CONTINUOUS
 62
     5
 10
-338.0733220409104
 20
128.38432380090839
 30
0.0
 11
-338.01687681141613
 21
128.23563897402269
 31
0.0
  0
LINE
  8
DETAIL
  6
CONTINUOUS
 62
     5
 10
-338.01687681141613
 20
128.23563897402269
 30
0.0
 11
-337.95992049522789
 21
128.08690522318309
 31
0.0
  0
LINE
  8
DETAIL
  6
CONTINUOUS
 62
     5
 10
-337.95992049522789
 20
128.08690522318309
 30
0.0
 11
-337.90247912178012
 21
127.9382062545029
 31
0.0
  0
LINE
  8
DETAIL
  6
CONTINUOUS
 62
     5
 10
-337.90247912178012
 20
127.9382062545029
 30
0.0
 11
-337.84457872050672
 21
127.7896257740957
 31
0.0
  0
LINE
  8
DETAIL
  6
CONTINUOUS
 62
     5
 10
-337.84457872050672
 20
127.7896257740957
 30
0.0
 11
-337.78624532084177
 21
127.6412474880749
 31
0.0
  0
LINE
  8
DETAIL
  6
CONTINUOUS
 62
     5
 10
-338.56112031008018
 20
129.7292581543289
 30
0.0
 11
-338.5078228905561
 21
129.57634436053081
 31
0.0
  0
LINE
  8
DETAIL
  6
CONTINUOUS
 62
     5
 10
-338.5078228905561
 20
129.57634436053081
 30
0.0
 11
-338.45452373055832
 21
129.42501961117259
 31
0.0
  0
LINE
  8
DETAIL
  6
CONTINUOUS
 62
     5
 10
-338.45452373055832
 20
129.42501961117259
 30
0.0
 11
-338.40112492433292
 21
129.2749690584653
 31
0.0
  0
LINE
  8
DETAIL
  6
CONTINUOUS
 62
     5
 10
-338.40112492433292
 20
129.2749690584653
 30
0.0
 11
-338.34752856612607
 21
129.1258778546198
 31
0.0
  0
LINE
  8
DETAIL
  6
CONTINUOUS
 62
     5
 10
-338.34752856612607
 20
129.1258778546198
 30
0.0
 11
-338.29363675018431
 21
128.97743115184721
 31
0.0
  0
LINE
  8
DETAIL
  6
CONTINUOUS
 62
     5
 10
-338.29363675018431
 20
128.97743115184721
 30
0.0
 11
-338.23935157075391
 21
128.8293141023585
 31
0.0
  0
LINE
  8
DETAIL
  6
CONTINUOUS
 62
     5
 10
-338.23935157075391
 20
128.8293141023585
 30
0.0
 11
-338.18457512208101
 21
128.68121185836449
 31
0.0
  0
LINE
  8
DETAIL
  6
CONTINUOUS
 62
     5
 10
-339.92857700400208
 20
134.32310342601801
 30
0.0
 11
-339.89674599679762
 21
134.19546124454541
 31
0.0
  0
LINE
  8
DETAIL
  6
CONTINUOUS
 62
     5
 10
-339.89674599679762
 20
134.19546124454541
 30
0.0
 11
-339.86452605218261
 21
134.06790586702661
 31
0.0
  0
LINE
  8
DETAIL
  6
CONTINUOUS
 62
     5
 10
-339.86452605218261
 20
134.06790586702661
 30
0.0
 11
-339.831940292534
 21
133.94045665489719
 31
0.0
  0
LINE
  8
DETAIL
  6
CONTINUOUS
 62
     5
 10
-339.831940292534
 20
133.94045665489719
 30
0.0
 11
-339.79901184022867
 21
133.8131329695926
 31
0.0
  0
LINE
  8
DETAIL
  6
CONTINUOUS
 62
     5
 10
-339.79901184022867
 20
133.8131329695926
 30
0.0
 11
-339.76576381764397
 21
133.68595417254861
 31
0.0
  0
LINE
  8
DETAIL
  6
CONTINUOUS
 62
     5
 10
-339.76576381764397
 20
133.68595417254861
 30
0.0
 11
-339.73221934715713
 21
133.55893962520071
 31
0.0
  0
LINE
  8
DETAIL
  6
CONTINUOUS
 62
     5
 10
-339.73221934715713
 20
133.55893962520071
 30
0.0
 11
-339.69840155114463
 21
133.4321086889843
 31
0.0
  0
LINE
  8
DETAIL
  6
CONTINUOUS
 62
     5
 10
-340.14324851141703
 20
135.21795889461421
 30
0.0
 11
-340.11305207868668
 21
135.09004532193671
 31
0.0
  0
LINE
  8
DETAIL
  6
CONTINUOUS
 62
     5
 10
-340.11305207868668
 20
135.09004532193671
 30
0.0
 11
-340.08279678027219
 21
134.96214138390459
 31
0.0
  0
LINE
  8
DETAIL
  6
CONTINUOUS
 62
     5
 10
-340.08279678027219
 20
134.96214138390459
 30
0.0
 11
-340.05242375048999
 21
134.8342567151636
 31
0.0
  0
LINE
  8
DETAIL
  6
CONTINUOUS
 62
     5
 10
-340.05242375048999
 20
134.8342567151636
 30
0.0
 11
-340.02187412365572
 21
134.7064009503589
 31
0.0
  0
LINE
  8
DETAIL
  6
CONTINUOUS
 62
     5
 10
-340.02187412365572
 20
134.7064009503589
 30
0.0
 11
-339.99108903408569
 21
134.57858372413611
 31
0.0
  0
LINE
  8
DETAIL
  6
CONTINUOUS
 62
     5
 10
-339.99108903408569
 20
134.57858372413611
 30
0.0
 11
-339.96000961609582
 21
134.45081467114071
 31
0.0
  0
LINE
  8
DETAIL
  6
CONTINUOUS
 62
     5
 10
-339.96000961609582
 20
134.45081467114071
 30
0.0
 11
-339.92857700400208
 21
134.32310342601801
 31
0.0
  0
LINE
  8
DETAIL
  6
CONTINUOUS
 62
     5
 10
-340.56797426919121
 20
137.23781299578849
 30
0.0
 11
-340.53780997157372
 21
137.0819699962359
 31
0.0
  0
LINE
  8
DETAIL
  6
CONTINUOUS
 62
     5
 10
-340.53780997157372
 20
137.0819699962359
 30
0.0
 11
-340.50713814751521
 21
136.9262262969531
 31
0.0
  0
LINE
  8
DETAIL
  6
CONTINUOUS
 62
     5
 10
-340.50713814751521
 20
136.9262262969531
 30
0.0
 11
-340.47604338475639
 21
136.7705653478954
 31
0.0
  0
LINE
  8
DETAIL
  6
CONTINUOUS
 62
     5
 10
-340.47604338475639
 20
136.7705653478954
 30
0.0
 11
-340.44461027103688
 21
136.61497059901751
 31
0.0
  0
LINE
  8
DETAIL
  6
CONTINUOUS
 62
     5
 10
-340.44461027103688
 20
136.61497059901751
 30
0.0
 11
-340.41292339409711
 21
136.45942550027451
 31
0.0
  0
LINE
  8
DETAIL
  6
CONTINUOUS
 62
     5
 10
-340.41292339409711
 20
136.45942550027451
 30
0.0
 11
-340.38106734167718
 21
136.30391350162151
 31
0.0
  0
LINE
  8
DETAIL
  6
CONTINUOUS
 62
     5
 10
-340.38106734167718
 20
136.30391350162151
 30
0.0
 11
-340.34912670151721
 21
136.1484180530135
 31
0.0
  0
LINE
  8
DETAIL
  6
CONTINUOUS
 62
     5
 10
-340.76392644844492
 20
138.3315597209814
 30
0.0
 11
-340.73741795089239
 21
138.1750487726313
 31
0.0
  0
LINE
  8
DETAIL
  6
CONTINUOUS
 62
     5
 10
-340.73741795089239
 20
138.1750487726313
 30
0.0
 11
-340.71045195683439
 21
138.01861392008911
 31
0.0
  0
LINE
  8
DETAIL
  6
CONTINUOUS
 62
     5
 10
-340.71045195683439
 20
138.01861392008911
 30
0.0
 11
-340.68300602999187
 21
137.8622617891061
 31
0.0
  0
LINE
  8
DETAIL
  6
CONTINUOUS
 62
     5
 10
-340.68300602999187
 20
137.8622617891061
 30
0.0
 11
-340.65505773408557
 21
137.70599900543331
 31
0.0
  0
LINE
  8
DETAIL
  6
CONTINUOUS
 62
     5
 10
-340.65505773408557
 20
137.70599900543331
 30
0.0
 11
-340.62658463283628
 21
137.5498321948221
 31
0.0
  0
LINE
  8
DETAIL
  6
CONTINUOUS
 62
     5
 10
-340.62658463283628
 20
137.5498321948221
 30
0.0
 11
-340.59756428996462
 21
137.39376798302339
 31
0.0
  0
LINE
  8
DETAIL
  6
CONTINUOUS
 62
     5
 10
-340.59756428996462
 20
137.39376798302339
 30
0.0
 11
-340.56797426919121
 21
137.23781299578849
 31
0.0
  0
LINE
  8
DETAIL
  6
CONTINUOUS
 62
     5
 10
-340.9369311318444
 20
139.4291716905536
 30
0.0
 11
-340.91360025315521
 21
139.27214282327219
 31
0.0
  0
LINE
  8
DETAIL
  6
CONTINUOUS
 62
     5
 10
-340.91360025315521
 20
139.27214282327219
 30
0.0
 11
-340.88979790097687
 21
139.11519207858871
 31
0.0
  0
LINE
  8
DETAIL
  6
CONTINUOUS
 62
     5
 10
-340.88979790097687
 20
139.11519207858871
 30
0.0
 11
-340.86553014418593
 21
138.9583180144127
 31
0.0
  0
LINE
  8
DETAIL
  6
CONTINUOUS
 62
     5
 10
-340.86553014418593
 20
138.9583180144127
 30
0.0
 11
-340.84080305165998
 21
138.80151918865411
 31
0.0
  0
LINE
  8
DETAIL
  6
CONTINUOUS
 62
     5
 10
-340.84080305165998
 20
138.80151918865411
 30
0.0
 11
-340.81562269227641
 21
138.64479415922281
 31
0.0
  0
LINE
  8
DETAIL
  6
CONTINUOUS
 62
     5
 10
-340.81562269227641
 20
138.64479415922281
 30
0.0
 11
-340.78999513491232
 21
138.4881414840286
 31
0.0
  0
LINE
  8
DETAIL
  6
CONTINUOUS
 62
     5
 10
-340.78999513491232
 20
138.4881414840286
 30
0.0
 11
-340.76392644844492
 21
138.3315597209814
 31
0.0
  0
LINE
  8
DETAIL
  6
CONTINUOUS
 62
     5
 10
-341.08693621195522
 20
140.5301623664667
 30
0.0
 11
-341.06692748141398
 21
140.37273878535601
 31
0.0
  0
LINE
  8
DETAIL
  6
CONTINUOUS
 62
     5
 10
-341.06692748141398
 20
140.37273878535601
 30
0.0
 11
-341.04644677488278
 21
140.21534884805951
 31
0.0
  0
LINE
  8
DETAIL
  6
CONTINUOUS
 62
     5
 10
-341.04644677488278
 20
140.21534884805951
 30
0.0
 11
-341.02549316463188
 21
140.0580002080562
 31
0.0
  0
LINE
  8
DETAIL
  6
CONTINUOUS
 62
     5
 10
-341.02549316463188
 20
140.0580002080562
 30
0.0
 11
-341.00406572293218
 21
139.900700518825
 31
0.0
  0
LINE
  8
DETAIL
  6
CONTINUOUS
 62
     5
 10
-341.00406572293218
 20
139.900700518825
 30
0.0
 11
-340.98216352205372
 21
139.7434574338449
 31
0.0
  0
LINE
  8
DETAIL
  6
CONTINUOUS
 62
     5
 10
-340.98216352205372
 20
139.7434574338449
 30
0.0
 11
-340.95978563426769
 21
139.58627860659479
 31
0.0
  0
LINE
  8
DETAIL
  6
CONTINUOUS
 62
     5
 10
-340.95978563426769
 20
139.58627860659479
 30
0.0
 11
-340.9369311318444
 21
139.4291716905536
 31
0.0
  0
LINE
  8
DETAIL
  6
CONTINUOUS
 62
     5
 10
-341.21388958134418
 20
141.63404521068171
 30
0.0
 11
-341.19714772652992
 21
141.47600109807209
 31
0.0
  0
LINE
  8
DETAIL
  6
CONTINUOUS
 62
     5
 10
-341.19714772652992
 20
141.47600109807209
 30
0.0
 11
-341.17994350221011
 21
141.31810694153481
 31
0.0
  0
LINE
  8
DETAIL
  6
CONTINUOUS
 62
     5
 10
-341.17994350221011
 20
141.31810694153481
 30
0.0
 11
-341.16227546192528
 21
141.16034208011371
 31
0.0
  0
LINE
  8
DETAIL
  6
CONTINUOUS
 62
     5
 10
-341.16227546192528
 20
141.16034208011371
 30
0.0
 11
-341.14414215921659
 21
141.00268585285241
 31
0.0
  0
LINE
  8
DETAIL
  6
CONTINUOUS
 62
     5
 10
-341.14414215921659
 20
141.00268585285241
 30
0.0
 11
-341.12554214762491
 21
140.84511759879501
 31
0.0
  0
LINE
  8
DETAIL
  6
CONTINUOUS
 62
     5
 10
-341.12554214762491
 20
140.84511759879501
 30
0.0
 11
-341.10647398069079
 21
140.68761665698511
 31
0.0
  0
LINE
  8
DETAIL
  6
CONTINUOUS
 62
     5
 10
-341.10647398069079
 20
140.68761665698511
 30
0.0
 11
-341.08693621195522
 21
140.5301623664667
 31
0.0
  0
LINE
  8
DETAIL
  6
CONTINUOUS
 62
     5
 10
-341.31804119130811
 20
142.74377977369821
 30
0.0
 11
-341.3045755951473
 21
142.5850362707904
 31
0.0
  0
LINE
  8
DETAIL
  6
CONTINUOUS
 62
     5
 10
-341.3045755951473
 20
142.5850362707904
 30
0.0
 11
-341.2906350284984
 21
142.4263240662126
 31
0.0
  0
LINE
  8
DETAIL
  6
CONTINUOUS
 62
     5
 10
-341.2906350284984
 20
142.4263240662126
 30
0.0
 11
-341.276221832602
 21
142.26766637974791
 31
0.0
  0
LINE
  8
DETAIL
  6
CONTINUOUS
 62
     5
 10
-341.276221832602
 20
142.26766637974791
 30
0.0
 11
-341.26133834869802
 21
142.10908643117929
 31
0.0
  0
LINE
  8
DETAIL
  6
CONTINUOUS
 62
     5
 10
-341.26133834869802
 20
142.10908643117929
 30
0.0
 11
-341.2459869180268
 21
141.9506074402901
 31
0.0
  0
LINE
  8
DETAIL
  6
CONTINUOUS
 62
     5
 10
-341.2459869180268
 20
141.9506074402901
 30
0.0
 11
-341.23016988182889
 21
141.7922526268633
 31
0.0
  0
LINE
  8
DETAIL
  6
CONTINUOUS
 62
     5
 10
-341.23016988182889
 20
141.7922526268633
 30
0.0
 11
-341.21388958134418
 21
141.63404521068171
 31
0.0
  0
LINE
  8
DETAIL
  6
CONTINUOUS
 62
     5
 10
-341.39898269415539
 20
143.85544828609611
 30
0.0
 11
-341.38884147738872
 21
143.69656634800629
 31
0.0
  0
LINE
  8
DETAIL
  6
CONTINUOUS
 62
     5
 10
-341.38884147738872
 20
143.69656634800629
 30
0.0
 11
-341.37822760125499
 21
143.537714603062
 31
0.0
  0
LINE
  8
DETAIL
  6
CONTINUOUS
 62
     5
 10
-341.37822760125499
 20
143.537714603062
 30
0.0
 11
-341.36714029036079
 21
143.3788893654968
 31
0.0
  0
LINE
  8
DETAIL
  6
CONTINUOUS
 62
     5
 10
-341.36714029036079
 20
143.3788893654968
 30
0.0
 11
-341.35557876931267
 21
143.22008694954411
 31
0.0
  0
LINE
  8
DETAIL
  6
CONTINUOUS
 62
     5
 10
-341.35557876931267
 20
143.22008694954411
 30
0.0
 11
-341.34354226271671
 21
143.06130366943779
 31
0.0
  0
LINE
  8
DETAIL
  6
CONTINUOUS
 62
     5
 10
-341.34354226271671
 20
143.06130366943779
 30
0.0
 11
-341.33102999517968
 21
142.90253583941131
 31
0.0
  0
LINE
  8
DETAIL
  6
CONTINUOUS
 62
     5
 10
-341.33102999517968
 20
142.90253583941131
 30
0.0
 11
-341.31804119130811
 21
142.74377977369821
 31
0.0
  0
LINE
  8
DETAIL
  6
CONTINUOUS
 62
     5
 10
-341.45675179497971
 20
144.96856407395401
 30
0.0
 11
-341.44991602821477
 21
144.80944637097321
 31
0.0
  0
LINE
  8
DETAIL
  6
CONTINUOUS
 62
     5
 10
-341.44991602821477
 20
144.80944637097321
 30
0.0
 11
-341.44260777285928
 21
144.65036232773011
 31
0.0
  0
LINE
  8
DETAIL
  6
CONTINUOUS
 62
     5
 10
-341.44260777285928
 20
144.65036232773011
 30
0.0
 11
-341.43482712968262
 21
144.49131198075369
 31
0.0
  0
LINE
  8
DETAIL
  6
CONTINUOUS
 62
     5
 10
-341.43482712968262
 20
144.49131198075369
 30
0.0
 11
-341.42657419945431
 21
144.33229536657299
 31
0.0
  0
LINE
  8
DETAIL
  6
CONTINUOUS
 62
     5
 10
-341.42657419945431
 20
144.33229536657299
 30
0.0
 11
-341.41784908294397
 21
144.17331252171721
 31
0.0
  0
LINE
  8
DETAIL
  6
CONTINUOUS
 62
     5
 10
-341.41784908294397
 20
144.17331252171721
 30
0.0
 11
-341.4086518809213
 21
144.0143634827152
 31
0.0
  0
LINE
  8
DETAIL
  6
CONTINUOUS
 62
     5
 10
-341.4086518809213
 20
144.0143634827152
 30
0.0
 11
-341.39898269415539
 21
143.85544828609611
 31
0.0
  0
LINE
  8
DETAIL
  6
CONTINUOUS
 62
     5
 10
-341.4913861988764
 20
146.0826404633508
 30
0.0
 11
-341.48785246073629
 21
145.92354251146801
 31
0.0
  0
LINE
  8
DETAIL
  6
CONTINUOUS
 62
     5
 10
-341.48785246073629
 20
145.92354251146801
 30
0.0
 11
-341.48384785672943
 21
145.76440586541369
 31
0.0
  0
LINE
  8
DETAIL
  6
CONTINUOUS
 62
     5
 10
-341.48384785672943
 20
145.76440586541369
 30
0.0
 11
-341.47937209960668
 21
145.60524257808461
 31
0.0
  0
LINE
  8
DETAIL
  6
CONTINUOUS
 62
     5
 10
-341.47937209960668
 20
145.60524257808461
 30
0.0
 11
-341.47442490211921
 21
145.4460647023775
 31
0.0
  0
LINE
  8
DETAIL
  6
CONTINUOUS
 62
     5
 10
-341.47442490211921
 20
145.4460647023775
 30
0.0
 11
-341.46900597701801
 21
145.28688429118881
 31
0.0
  0
LINE
  8
DETAIL
  6
CONTINUOUS
 62
     5
 10
-341.46900597701801
 20
145.28688429118881
 30
0.0
 11
-341.46311503705442
 21
145.1277133974155
 31
0.0
  0
LINE
  8
DETAIL
  6
CONTINUOUS
 62
     5
 10
-341.46311503705442
 20
145.1277133974155
 30
0.0
 11
-341.45675179497971
 21
144.96856407395401
 31
0.0
  0
LINE
  8
DETAIL
  6
CONTINUOUS
 62
     5
 10
-340.14324985768548
 20
135.21795900000009
 30
0.0
 11
-340.34912785768569
 21
136.14842100000001
 31
0.0
  0
LINE
  8
DETAIL
  6
CONTINUOUS
 62
     5
 10
-333.22932035720692
 20
176.65787582461601
 30
0.0
 11
-333.31497556017302
 21
176.51182701833639
 31
0.0
  0
LINE
  8
DETAIL
  6
CONTINUOUS
 62
     5
 10
-333.31497556017302
 20
176.51182701833639
 30
0.0
 11
-333.400243707448
 21
176.36555663518811
 31
0.0
  0
LINE
  8
DETAIL
  6
CONTINUOUS
 62
     5
 10
-333.400243707448
 20
176.36555663518811
 30
0.0
 11
-333.48513524907167
 21
176.21904304885521
 31
0.0
  0
LINE
  8
DETAIL
  6
CONTINUOUS
 62
     5
 10
-333.48513524907167
 20
176.21904304885521
 30
0.0
 11
-333.56966063508372
 21
176.07226463302081
 31
0.0
  0
LINE
  8
DETAIL
  6
CONTINUOUS
 62
     5
 10
-333.56966063508372
 20
176.07226463302081
 30
0.0
 11
-333.65383031552369
 21
175.9251997613693
 31
0.0
  0
LINE
  8
DETAIL
  6
CONTINUOUS
 62
     5
 10
-333.65383031552369
 20
175.9251997613693
 30
0.0
 11
-333.73765474043148
 21
175.77782680758401
 31
0.0
  0
LINE
  8
DETAIL
  6
CONTINUOUS
 62
     5
 10
-333.73765474043148
 20
175.77782680758401
 30
0.0
 11
-333.82114435984658
 21
175.63012414534859
 31
0.0
  0
LINE
  8
DETAIL
  6
CONTINUOUS
 62
     5
 10
-336.45902061673291
 20
170.39227914100229
 30
0.0
 11
-336.52699731135198
 21
170.2391779384736
 31
0.0
  0
LINE
  8
DETAIL
  6
CONTINUOUS
 62
     5
 10
-336.52699731135198
 20
170.2391779384736
 30
0.0
 11
-336.5945724369119
 21
170.0858514682304
 31
0.0
  0
LINE
  8
DETAIL
  6
CONTINUOUS
 62
     5
 10
-336.5945724369119
 20
170.0858514682304
 30
0.0
 11
-336.66170904034379
 21
169.9323884671411
 31
0.0
  0
LINE
  8
DETAIL
  6
CONTINUOUS
 62
     5
 10
-336.66170904034379
 20
169.9323884671411
 30
0.0
 11
-336.72837016857869
 21
169.77887767207449
 31
0.0
  0
LINE
  8
DETAIL
  6
CONTINUOUS
 62
     5
 10
-336.72837016857869
 20
169.77887767207449
 30
0.0
 11
-336.79451886854798
 21
169.62540781989921
 31
0.0
  0
LINE
  8
DETAIL
  6
CONTINUOUS
 62
     5
 10
-336.79451886854798
 20
169.62540781989921
 30
0.0
 11
-336.86011818718299
 21
169.4720676474839
 31
0.0
  0
LINE
  8
DETAIL
  6
CONTINUOUS
 62
     5
 10
-336.86011818718299
 20
169.4720676474839
 30
0.0
 11
-336.92513117141488
 21
169.31894589169701
 31
0.0
  0
LINE
  8
DETAIL
  6
CONTINUOUS
 62
     5
 10
-335.97248708413491
 20
171.45650439967309
 30
0.0
 11
-336.04318676104322
 21
171.30514010955849
 31
0.0
  0
LINE
  8
DETAIL
  6
CONTINUOUS
 62
     5
 10
-336.04318676104322
 20
171.30514010955849
 30
0.0
 11
-336.11347518877687
 21
171.15358833365491
 31
0.0
  0
LINE
  8
DETAIL
  6
CONTINUOUS
 62
     5
 10
-336.11347518877687
 20
171.15358833365491
 30
0.0
 11
-336.18336013953319
 21
171.0018279854967
 31
0.0
  0
LINE
  8
DETAIL
  6
CONTINUOUS
 62
     5
 10
-336.18336013953319
 20
171.0018279854967
 30
0.0
 11
-336.25284938550959
 21
170.8498379786179
 31
0.0
  0
LINE
  8
DETAIL
  6
CONTINUOUS
 62
     5
 10
-336.25284938550959
 20
170.8498379786179
 30
0.0
 11
-336.32195069890349
 21
170.6975972265532
 31
0.0
  0
LINE
  8
DETAIL
  6
CONTINUOUS
 62
     5
 10
-336.32195069890349
 20
170.6975972265532
 30
0.0
 11
-336.3906718519122
 21
170.54508464283651
 31
0.0
  0
LINE
  8
DETAIL
  6
CONTINUOUS
 62
     5
 10
-336.3906718519122
 20
170.54508464283651
 30
0.0
 11
-336.45902061673291
 21
170.39227914100229
 31
0.0
  0
LINE
  8
DETAIL
  6
CONTINUOUS
 62
     5
 10
-335.46587002593668
 20
172.51132164483619
 30
0.0
 11
-335.53949999790348
 21
172.36114380862659
 31
0.0
  0
LINE
  8
DETAIL
  6
CONTINUOUS
 62
     5
 10
-335.53949999790348
 20
172.36114380862659
 30
0.0
 11
-335.61271139047022
 21
172.21079442984711
 31
0.0
  0
LINE
  8
DETAIL
  6
CONTINUOUS
 62
     5
 10
-335.61271139047022
 20
172.21079442984711
 30
0.0
 11
-335.68550412997519
 21
172.06027436570551
 31
0.0
  0
LINE
  8
DETAIL
  6
CONTINUOUS
 62
     5
 10
-335.68550412997519
 20
172.06027436570551
 30
0.0
 11
-335.757878142756
 21
171.90958447340941
 31
0.0
  0
LINE
  8
DETAIL
  6
CONTINUOUS
 62
     5
 10
-335.757878142756
 20
171.90958447340941
 30
0.0
 11
-335.82983335515092
 21
171.75872561016681
 31
0.0
  0
LINE
  8
DETAIL
  6
CONTINUOUS
 62
     5
 10
-335.82983335515092
 20
171.75872561016681
 30
0.0
 11
-335.90136969349811
 21
171.60769863318549
 31
0.0
  0
LINE
  8
DETAIL
  6
CONTINUOUS
 62
     5
 10
-335.90136969349811
 20
171.60769863318549
 30
0.0
 11
-335.97248708413491
 21
171.45650439967309
 31
0.0
  0
LINE
  8
DETAIL
  6
CONTINUOUS
 62
     5
 10
-334.93950889445449
 20
173.55643085361859
 30
0.0
 11
-335.01578445764329
 21
173.4079445134372
 31
0.0
  0
LINE
  8
DETAIL
  6
CONTINUOUS
 62
     5
 10
-335.01578445764329
 20
173.4079445134372
 30
0.0
 11
-335.09172200803891
 21
173.2591483383892
 31
0.0
  0
LINE
  8
DETAIL
  6
CONTINUOUS
 62
     5
 10
-335.09172200803891
 20
173.2591483383892
 30
0.0
 11
-335.1673081301501
 21
173.11006523432289
 31
0.0
  0
LINE
  8
DETAIL
  6
CONTINUOUS
 62
     5
 10
-335.1673081301501
 20
173.11006523432289
 30
0.0
 11
-335.24252940848618
 21
172.96071810708631
 31
0.0
  0
LINE
  8
DETAIL
  6
CONTINUOUS
 62
     5
 10
-335.24252940848618
 20
172.96071810708631
 30
0.0
 11
-335.31737242755639
 21
172.81112986252751
 31
0.0
  0
LINE
  8
DETAIL
  6
CONTINUOUS
 62
     5
 10
-335.31737242755639
 20
172.81112986252751
 30
0.0
 11
-335.39182377187018
 21
172.66132340649469
 31
0.0
  0
LINE
  8
DETAIL
  6
CONTINUOUS
 62
     5
 10
-335.39182377187018
 20
172.66132340649469
 30
0.0
 11
-335.46587002593668
 21
172.51132164483619
 31
0.0
  0
LINE
  8
DETAIL
  6
CONTINUOUS
 62
     5
 10
-334.39374314200381
 20
174.5915320031468
 30
0.0
 11
-334.47330483986292
 21
174.44352461147261
 31
0.0
  0
LINE
  8
DETAIL
  6
CONTINUOUS
 62
     5
 10
-334.47330483986292
 20
174.44352461147261
 30
0.0
 11
-334.55225515431789
 21
174.29570787340469
 31
0.0
  0
LINE
  8
DETAIL
  6
CONTINUOUS
 62
     5
 10
-334.55225515431789
 20
174.29570787340469
 30
0.0
 11
-334.63064188305219
 21
174.14799455655611
 31
0.0
  0
LINE
  8
DETAIL
  6
CONTINUOUS
 62
     5
 10
-334.63064188305219
 20
174.14799455655611
 30
0.0
 11
-334.7085128237494
 21
174.00029742853999
 31
0.0
  0
LINE
  8
DETAIL
  6
CONTINUOUS
 62
     5
 10
-334.7085128237494
 20
174.00029742853999
 30
0.0
 11
-334.78591577409321
 21
173.85252925696949
 31
0.0
  0
LINE
  8
DETAIL
  6
CONTINUOUS
 62
     5
 10
-334.78591577409321
 20
173.85252925696949
 30
0.0
 11
-334.86289853176709
 21
173.70460280945801
 31
0.0
  0
LINE
  8
DETAIL
  6
CONTINUOUS
 62
     5
 10
-334.86289853176709
 20
173.70460280945801
 30
0.0
 11
-334.93950889445449
 21
173.55643085361859
 31
0.0
  0
LINE
  8
DETAIL
  6
CONTINUOUS
 62
     5
 10
-333.82114435984658
 20
175.63012414534859
 30
0.0
 11
-333.90429991009643
 21
175.48208873417971
 31
0.0
  0
LINE
  8
DETAIL
  6
CONTINUOUS
 62
     5
 10
-333.90429991009643
 20
175.48208873417971
 30
0.0
 11
-333.98708327265939
 21
175.33379187692441
 31
0.0
  0
LINE
  8
DETAIL
  6
CONTINUOUS
 62
     5
 10
-333.98708327265939
 20
175.33379187692441
 30
0.0
 11
-334.0694466153027
 21
175.1853234622624
 31
0.0
  0
LINE
  8
DETAIL
  6
CONTINUOUS
 62
     5
 10
-334.0694466153027
 20
175.1853234622624
 30
0.0
 11
-334.15134210579208
 21
175.0367733788737
 31
0.0
  0
LINE
  8
DETAIL
  6
CONTINUOUS
 62
     5
 10
-334.15134210579208
 20
175.0367733788737
 30
0.0
 11
-334.23272191189449
 21
174.88823151543841
 31
0.0
  0
LINE
  8
DETAIL
  6
CONTINUOUS
 62
     5
 10
-334.23272191189449
 20
174.88823151543841
 30
0.0
 11
-334.31353820137628
 21
174.73978776063609
 31
0.0
  0
LINE
  8
DETAIL
  6
CONTINUOUS
 62
     5
 10
-334.31353820137628
 20
174.73978776063609
 30
0.0
 11
-334.39374314200381
 21
174.5915320031468
 31
0.0
  0
LINE
  8
DETAIL
  6
CONTINUOUS
 62
     5
 10
-339.55464684941808
 20
161.70647367241369
 30
0.0
 11
-339.59699977406382
 21
161.5488773921393
 31
0.0
  0
LINE
  8
DETAIL
  6
CONTINUOUS
 62
     5
 10
-339.59699977406382
 20
161.5488773921393
 30
0.0
 11
-339.6388992571483
 21
161.3911863527637
 31
0.0
  0
LINE
  8
DETAIL
  6
CONTINUOUS
 62
     5
 10
-339.6388992571483
 20
161.3911863527637
 30
0.0
 11
-339.68034544228112
 21
161.23340103599151
 31
0.0
  0
LINE
  8
DETAIL
  6
CONTINUOUS
 62
     5
 10
-339.68034544228112
 20
161.23340103599151
 30
0.0
 11
-339.72133847307208
 21
161.0755219235273
 31
0.0
  0
LINE
  8
DETAIL
  6
CONTINUOUS
 62
     5
 10
-339.72133847307208
 20
161.0755219235273
 30
0.0
 11
-339.76187849313118
 21
160.9175494970755
 31
0.0
  0
LINE
  8
DETAIL
  6
CONTINUOUS
 62
     5
 10
-339.76187849313118
 20
160.9175494970755
 30
0.0
 11
-339.80196564606808
 21
160.7594842383406
 31
0.0
  0
LINE
  8
DETAIL
  6
CONTINUOUS
 62
     5
 10
-339.80196564606808
 20
160.7594842383406
 30
0.0
 11
-339.84160007549241
 21
160.6013266290274
 31
0.0
  0
LINE
  8
DETAIL
  6
CONTINUOUS
 62
     5
 10
-341.49128186809571
 20
148.3181889248863
 30
0.0
 11
-341.49436708011081
 21
148.15791517112419
 31
0.0
  0
LINE
  8
DETAIL
  6
CONTINUOUS
 62
     5
 10
-341.49436708011081
 20
148.15791517112419
 30
0.0
 11
-341.49697797373187
 21
147.99761449313439
 31
0.0
  0
LINE
  8
DETAIL
  6
CONTINUOUS
 62
     5
 10
-341.49697797373187
 20
147.99761449313439
 30
0.0
 11
-341.49911471881637
 21
147.8373292777909
 31
0.0
  0
LINE
  8
DETAIL
  6
CONTINUOUS
 62
     5
 10
-341.49911471881637
 20
147.8373292777909
 30
0.0
 11
-341.5007774852221
 21
147.67710191196809
 31
0.0
  0
LINE
  8
DETAIL
  6
CONTINUOUS
 62
     5
 10
-341.5007774852221
 20
147.67710191196809
 30
0.0
 11
-341.50196644280618
 21
147.5169747825399
 31
0.0
  0
LINE
  8
DETAIL
  6
CONTINUOUS
 62
     5
 10
-341.50196644280618
 20
147.5169747825399
 30
0.0
 11
-341.50268176142617
 21
147.3569902763808
 31
0.0
  0
LINE
  8
DETAIL
  6
CONTINUOUS
 62
     5
 10
-341.50268176142617
 20
147.3569902763808
 30
0.0
 11
-341.50292361093972
 21
147.19719078036471
 31
0.0
  0
LINE
  8
DETAIL
  6
CONTINUOUS
 62
     5
 10
-341.45643522950849
 20
149.43870427423741
 30
0.0
 11
-341.46282875390239
 21
149.2787270820194
 31
0.0
  0
LINE
  8
DETAIL
  6
CONTINUOUS
 62
     5
 10
-341.46282875390239
 20
149.2787270820194
 30
0.0
 11
-341.46875149693119
 21
149.11873204217079
 31
0.0
  0
LINE
  8
DETAIL
  6
CONTINUOUS
 62
     5
 10
-341.46875149693119
 20
149.11873204217079
 30
0.0
 11
-341.47420284078072
 21
148.9587105774464
 31
0.0
  0
LINE
  8
DETAIL
  6
CONTINUOUS
 62
     5
 10
-341.47420284078072
 20
148.9587105774464
 30
0.0
 11
-341.47918216763611
 21
148.79865411060101
 31
0.0
  0
LINE
  8
DETAIL
  6
CONTINUOUS
 62
     5
 10
-341.47918216763611
 20
148.79865411060101
 30
0.0
 11
-341.4836888596833
 21
148.6385540643893
 31
0.0
  0
LINE
  8
DETAIL
  6
CONTINUOUS
 62
     5
 10
-341.4836888596833
 20
148.6385540643893
 30
0.0
 11
-341.4877222991081
 21
148.4784018615662
 31
0.0
  0
LINE
  8
DETAIL
  6
CONTINUOUS
 62
     5
 10
-341.4877222991081
 20
148.4784018615662
 30
0.0
 11
-341.49128186809571
 21
148.3181889248863
 31
0.0
  0
LINE
  8
DETAIL
  6
CONTINUOUS
 62
     5
 10
-341.39850605942883
 20
150.5582669276769
 30
0.0
 11
-341.40819423773428
 21
150.39835906219511
 31
0.0
  0
LINE
  8
DETAIL
  6
CONTINUOUS
 62
     5
 10
-341.40819423773428
 20
150.39835906219511
 30
0.0
 11
-341.41741128698391
 21
150.23844107465919
 31
0.0
  0
LINE
  8
DETAIL
  6
CONTINUOUS
 62
     5
 10
-341.41741128698391
 20
150.23844107465919
 30
0.0
 11
-341.42615736809529
 21
150.07851310701429
 31
0.0
  0
LINE
  8
DETAIL
  6
CONTINUOUS
 62
     5
 10
-341.42615736809529
 20
150.07851310701429
 30
0.0
 11
-341.43443264198589
 21
149.91857530120481
 31
0.0
  0
LINE
  8
DETAIL
  6
CONTINUOUS
 62
     5
 10
-341.43443264198589
 20
149.91857530120481
 30
0.0
 11
-341.4422372695733
 21
149.75862779917571
 31
0.0
  0
LINE
  8
DETAIL
  6
CONTINUOUS
 62
     5
 10
-341.4422372695733
 20
149.75862779917571
 30
0.0
 11
-341.44957141177508
 21
149.5986707428716
 31
0.0
  0
LINE
  8
DETAIL
  6
CONTINUOUS
 62
     5
 10
-341.44957141177508
 20
149.5986707428716
 30
0.0
 11
-341.45643522950849
 21
149.43870427423741
 31
0.0
  0
LINE
  8
DETAIL
  6
CONTINUOUS
 62
     5
 10
-341.317616722107
 20
151.67640698446479
 30
0.0
 11
-341.33055804924771
 21
151.51691446358839
 31
0.0
  0
LINE
  8
DETAIL
  6
CONTINUOUS
 62
     5
 10
-341.33055804924771
 20
151.51691446358839
 30
0.0
 11
-341.34304108444411
 21
151.3573143028882
 31
0.0
  0
LINE
  8
DETAIL
  6
CONTINUOUS
 62
     5
 10
-341.34304108444411
 20
151.3573143028882
 30
0.0
 11
-341.35506366135837
 21
151.19762273166859
 31
0.0
  0
LINE
  8
DETAIL
  6
CONTINUOUS
 62
     5
 10
-341.35506366135837
 20
151.19762273166859
 30
0.0
 11
-341.36662361365211
 21
151.0378559792334
 31
0.0
  0
LINE
  8
DETAIL
  6
CONTINUOUS
 62
     5
 10
-341.36662361365211
 20
151.0378559792334
 30
0.0
 11
-341.37771877498722
 21
150.87803027488701
 31
0.0
  0
LINE
  8
DETAIL
  6
CONTINUOUS
 62
     5
 10
-341.37771877498722
 20
150.87803027488701
 30
0.0
 11
-341.38834697902553
 21
150.71816184793349
 31
0.0
  0
LINE
  8
DETAIL
  6
CONTINUOUS
 62
     5
 10
-341.38834697902553
 20
150.71816184793349
 30
0.0
 11
-341.39850605942883
 21
150.5582669276769
 31
0.0
  0
LINE
  8
DETAIL
  6
CONTINUOUS
 62
     5
 10
-341.213889581795
 20
152.79265454386041
 30
0.0
 11
-341.23015885290118
 21
152.63282330298401
 31
0.0
  0
LINE
  8
DETAIL
  6
CONTINUOUS
 62
     5
 10
-341.23015885290118
 20
152.63282330298401
 30
0.0
 11
-341.24593381468452
 21
152.47320922891959
 31
0.0
  0
LINE
  8
DETAIL
  6
CONTINUOUS
 62
     5
 10
-341.24593381468452
 20
152.47320922891959
 30
0.0
 11
-341.26122083109772
 21
152.31375548234431
 31
0.0
  0
LINE
  8
DETAIL
  6
CONTINUOUS
 62
     5
 10
-341.26122083109772
 20
152.31375548234431
 30
0.0
 11
-341.27602626609382
 21
152.15440522393439
 31
0.0
  0
LINE
  8
DETAIL
  6
CONTINUOUS
 62
     5
 10
-341.27602626609382
 20
152.15440522393439
 30
0.0
 11
-341.29035648362537
 21
151.9951016143668
 31
0.0
  0
LINE
  8
DETAIL
  6
CONTINUOUS
 62
     5
 10
-341.29035648362537
 20
151.9951016143668
 30
0.0
 11
-341.30421784764548
 21
151.83578781431811
 31
0.0
  0
LINE
  8
DETAIL
  6
CONTINUOUS
 62
     5
 10
-341.30421784764548
 20
151.83578781431811
 30
0.0
 11
-341.317616722107
 21
151.67640698446479
 31
0.0
  0
LINE
  8
DETAIL
  6
CONTINUOUS
 62
     5
 10
-341.08632769985911
 20
153.91567675495619
 30
0.0
 11
-341.1059767916031
 21
153.75519670077981
 31
0.0
  0
LINE
  8
DETAIL
  6
CONTINUOUS
 62
     5
 10
-341.1059767916031
 20
153.75519670077981
 30
0.0
 11
-341.1251603119515
 21
153.59463355642859
 31
0.0
  0
LINE
  8
DETAIL
  6
CONTINUOUS
 62
     5
 10
-341.1251603119515
 20
153.59463355642859
 30
0.0
 11
-341.14387241059131
 21
153.4340468379543
 31
0.0
  0
LINE
  8
DETAIL
  6
CONTINUOUS
 62
     5
 10
-341.14387241059131
 20
153.4340468379543
 30
0.0
 11
-341.16210723720911
 21
153.27349606140839
 31
0.0
  0
LINE
  8
DETAIL
  6
CONTINUOUS
 62
     5
 10
-341.16210723720911
 20
153.27349606140839
 30
0.0
 11
-341.17985894149098
 21
153.11304074284311
 31
0.0
  0
LINE
  8
DETAIL
  6
CONTINUOUS
 62
     5
 10
-341.17985894149098
 20
153.11304074284311
 30
0.0
 11
-341.19712167312417
 21
152.95274039830969
 31
0.0
  0
LINE
  8
DETAIL
  6
CONTINUOUS
 62
     5
 10
-341.19712167312417
 20
152.95274039830969
 30
0.0
 11
-341.213889581795
 21
152.79265454386041
 31
0.0
  0
LINE
  8
DETAIL
  6
CONTINUOUS
 62
     5
 10
-340.93587324769868
 20
155.03585875860239
 30
0.0
 11
-340.95875313429929
 21
154.87609112270209
 31
0.0
  0
LINE
  8
DETAIL
  6
CONTINUOUS
 62
     5
 10
-340.95875313429929
 20
154.87609112270209
 30
0.0
 11
-340.98116996280748
 21
154.71625909014099
 31
0.0
  0
LINE
  8
DETAIL
  6
CONTINUOUS
 62
     5
 10
-340.98116996280748
 20
154.71625909014099
 30
0.0
 11
-341.00312428939202
 21
154.55634962599149
 31
0.0
  0
LINE
  8
DETAIL
  6
CONTINUOUS
 62
     5
 10
-341.00312428939202
 20
154.55634962599149
 30
0.0
 11
-341.02461667022101
 21
154.39634969532591
 31
0.0
  0
LINE
  8
DETAIL
  6
CONTINUOUS
 62
     5
 10
-341.02461667022101
 20
154.39634969532591
 30
0.0
 11
-341.04564766146291
 21
154.2362462632166
 31
0.0
  0
LINE
  8
DETAIL
  6
CONTINUOUS
 62
     5
 10
-341.04564766146291
 20
154.2362462632166
 30
0.0
 11
-341.06621781928618
 21
154.0760262947359
 31
0.0
  0
LINE
  8
DETAIL
  6
CONTINUOUS
 62
     5
 10
-341.06621781928618
 20
154.0760262947359
 30
0.0
 11
-341.08632769985911
 21
153.91567675495619
 31
0.0
  0
LINE
  8
DETAIL
  6
CONTINUOUS
 62
     5
 10
-340.7627234484678
 20
156.15276167824081
 30
0.0
 11
-340.78885226059242
 21
155.99336211388939
 31
0.0
  0
LINE
  8
DETAIL
  6
CONTINUOUS
 62
     5
 10
-340.78885226059242
 20
155.99336211388939
 30
0.0
 11
-340.81451640442339
 21
155.8339093830059
 31
0.0
  0
LINE
  8
DETAIL
  6
CONTINUOUS
 62
     5
 10
-340.81451640442339
 20
155.8339093830059
 30
0.0
 11
-340.83971605563278
 21
155.67440378639029
 31
0.0
  0
LINE
  8
DETAIL
  6
CONTINUOUS
 62
     5
 10
-340.83971605563278
 20
155.67440378639029
 30
0.0
 11
-340.86445138989279
 21
155.5148456248422
 31
0.0
  0
LINE
  8
DETAIL
  6
CONTINUOUS
 62
     5
 10
-340.86445138989279
 20
155.5148456248422
 30
0.0
 11
-340.88872258287569
 21
155.3552351991618
 31
0.0
  0
LINE
  8
DETAIL
  6
CONTINUOUS
 62
     5
 10
-340.88872258287569
 20
155.3552351991618
 30
0.0
 11
-340.91252981025372
 21
155.1955728101486
 31
0.0
  0
LINE
  8
DETAIL
  6
CONTINUOUS
 62
     5
 10
-340.91252981025372
 20
155.1955728101486
 30
0.0
 11
-340.93587324769868
 21
155.03585875860239
 31
0.0
  0
LINE
  8
DETAIL
  6
CONTINUOUS
 62
     5
 10
-340.56707552531861
 20
157.26594663731481
 30
0.0
 11
-340.59635854580051
 21
157.10733423188711
 31
0.0
  0
LINE
  8
DETAIL
  6
CONTINUOUS
 62
     5
 10
-340.59635854580051
 20
157.10733423188711
 30
0.0
 11
-340.62520497526538
 21
156.9485513059112
 31
0.0
  0
LINE
  8
DETAIL
  6
CONTINUOUS
 62
     5
 10
-340.62520497526538
 20
156.9485513059112
 30
0.0
 11
-340.65361010488868
 21
156.78961736825681
 31
0.0
  0
LINE
  8
DETAIL
  6
CONTINUOUS
 62
     5
 10
-340.65361010488868
 20
156.78961736825681
 30
0.0
 11
-340.68156922584552
 21
156.63055192779319
 31
0.0
  0
LINE
  8
DETAIL
  6
CONTINUOUS
 62
     5
 10
-340.68156922584552
 20
156.63055192779319
 30
0.0
 11
-340.70907762931068
 21
156.47137449338979
 31
0.0
  0
LINE
  8
DETAIL
  6
CONTINUOUS
 62
     5
 10
-340.70907762931068
 20
156.47137449338979
 30
0.0
 11
-340.73613060645988
 21
156.31210457391589
 31
0.0
  0
LINE
  8
DETAIL
  6
CONTINUOUS
 62
     5
 10
-340.73613060645988
 20
156.31210457391589
 30
0.0
 11
-340.7627234484678
 21
156.15276167824081
 31
0.0
  0
LINE
  8
DETAIL
  6
CONTINUOUS
 62
     5
 10
-340.34912670140437
 20
158.37497475926509
 30
0.0
 11
-340.38175561982717
 21
158.21619368989491
 31
0.0
  0
LINE
  8
DETAIL
  6
CONTINUOUS
 62
     5
 10
-340.38175561982717
 20
158.21619368989491
 30
0.0
 11
-340.41386139810118
 21
158.05764654592519
 31
0.0
  0
LINE
  8
DETAIL
  6
CONTINUOUS
 62
     5
 10
-340.41386139810118
 20
158.05764654592519
 30
0.0
 11
-340.44545924588562
 21
157.89926266821979
 31
0.0
  0
LINE
  8
DETAIL
  6
CONTINUOUS
 62
     5
 10
-340.44545924588562
 20
157.89926266821979
 30
0.0
 11
-340.47656437284007
 21
157.7409713976424
 31
0.0
  0
LINE
  8
DETAIL
  6
CONTINUOUS
 62
     5
 10
-340.47656437284007
 20
157.7409713976424
 30
0.0
 11
-340.50719198862407
 21
157.58270207505669
 31
0.0
  0
LINE
  8
DETAIL
  6
CONTINUOUS
 62
     5
 10
-340.50719198862407
 20
157.58270207505669
 30
0.0
 11
-340.53735730289708
 21
157.42438404132619
 31
0.0
  0
LINE
  8
DETAIL
  6
CONTINUOUS
 62
     5
 10
-340.53735730289708
 20
157.42438404132619
 30
0.0
 11
-340.56707552531861
 21
157.26594663731481
 31
0.0
  0
LINE
  8
DETAIL
  6
CONTINUOUS
 62
     5
 10
-340.10651305882129
 20
159.49069452562711
 30
0.0
 11
-340.14259507981097
 21
159.3313458921194
 31
0.0
  0
LINE
  8
DETAIL
  6
CONTINUOUS
 62
     5
 10
-340.14259507981097
 20
159.3313458921194
 30
0.0
 11
-340.17822742186922
 21
159.17186169323119
 31
0.0
  0
LINE
  8
DETAIL
  6
CONTINUOUS
 62
     5
 10
-340.17822742186922
 20
159.17186169323119
 30
0.0
 11
-340.2133953065163
 21
159.01231528728181
 31
0.0
  0
LINE
  8
DETAIL
  6
CONTINUOUS
 62
     5
 10
-340.2133953065163
 20
159.01231528728181
 30
0.0
 11
-340.24808395527282
 21
158.85278003259091
 31
0.0
  0
LINE
  8
DETAIL
  6
CONTINUOUS
 62
     5
 10
-340.24808395527282
 20
158.85278003259091
 30
0.0
 11
-340.2822785896592
 21
158.69332928747801
 31
0.0
  0
LINE
  8
DETAIL
  6
CONTINUOUS
 62
     5
 10
-340.2822785896592
 20
158.69332928747801
 30
0.0
 11
-340.31596443119628
 21
158.53403641026301
 31
0.0
  0
LINE
  8
DETAIL
  6
CONTINUOUS
 62
     5
 10
-340.31596443119628
 20
158.53403641026301
 30
0.0
 11
-340.34912670140437
 21
158.37497475926509
 31
0.0
  0
LINE
  8
DETAIL
  6
CONTINUOUS
 62
     5
 10
-339.84160007549241
 20
160.6013266290274
 30
0.0
 11
-339.88078232201832
 21
160.4430742835365
 31
0.0
  0
LINE
  8
DETAIL
  6
CONTINUOUS
 62
     5
 10
-339.88078232201832
 20
160.4430742835365
 30
0.0
 11
-339.91951451427741
 21
160.2847133470535
 31
0.0
  0
LINE
  8
DETAIL
  6
CONTINUOUS
 62
     5
 10
-339.91951451427741
 20
160.2847133470535
 30
0.0
 11
-339.95779917790497
 21
160.12622709746049
 31
0.0
  0
LINE
  8
DETAIL
  6
CONTINUOUS
 62
     5
 10
-339.95779917790497
 20
160.12622709746049
 30
0.0
 11
-339.99563883853762
 21
159.96759881263941
 31
0.0
  0
LINE
  8
DETAIL
  6
CONTINUOUS
 62
     5
 10
-339.99563883853762
 20
159.96759881263941
 30
0.0
 11
-340.03303602181057
 21
159.8088117704722
 31
0.0
  0
LINE
  8
DETAIL
  6
CONTINUOUS
 62
     5
 10
-340.03303602181057
 20
159.8088117704722
 30
0.0
 11
-340.06999325336011
 21
159.6498492488407
 31
0.0
  0
LINE
  8
DETAIL
  6
CONTINUOUS
 62
     5
 10
-340.06999325336011
 20
159.6498492488407
 30
0.0
 11
-340.10651305882129
 21
159.49069452562711
 31
0.0
  0
LINE
  8
DETAIL
  6
CONTINUOUS
 62
     5
 10
-339.24591247859848
 20
162.80573825873259
 30
0.0
 11
-339.29127892301051
 21
162.64926889217821
 31
0.0
  0
LINE
  8
DETAIL
  6
CONTINUOUS
 62
     5
 10
-339.29127892301051
 20
162.64926889217821
 30
0.0
 11
-339.33623757665993
 21
162.49257380370699
 31
0.0
  0
LINE
  8
DETAIL
  6
CONTINUOUS
 62
     5
 10
-339.33623757665993
 20
162.49257380370699
 30
0.0
 11
-339.38078080714519
 21
162.3356747401709
 31
0.0
  0
LINE
  8
DETAIL
  6
CONTINUOUS
 62
     5
 10
-339.38078080714519
 20
162.3356747401709
 30
0.0
 11
-339.42490098206508
 21
162.17859344842171
 31
0.0
  0
LINE
  8
DETAIL
  6
CONTINUOUS
 62
     5
 10
-339.42490098206508
 20
162.17859344842171
 30
0.0
 11
-339.46859046901812
 21
162.02135167531119
 31
0.0
  0
LINE
  8
DETAIL
  6
CONTINUOUS
 62
     5
 10
-339.46859046901812
 20
162.02135167531119
 30
0.0
 11
-339.51184163560288
 21
161.86397116769129
 31
0.0
  0
LINE
  8
DETAIL
  6
CONTINUOUS
 62
     5
 10
-339.51184163560288
 20
161.86397116769129
 30
0.0
 11
-339.55464684941808
 21
161.70647367241369
 31
0.0
  0
LINE
  8
DETAIL
  6
CONTINUOUS
 62
     5
 10
-338.91565606103359
 20
163.8987229909319
 30
0.0
 11
-338.96437212204268
 21
163.74227799292919
 31
0.0
  0
LINE
  8
DETAIL
  6
CONTINUOUS
 62
     5
 10
-338.96437212204268
 20
163.74227799292919
 30
0.0
 11
-339.01253290267442
 21
163.58606863151789
 31
0.0
  0
LINE
  8
DETAIL
  6
CONTINUOUS
 62
     5
 10
-339.01253290267442
 20
163.58606863151789
 30
0.0
 11
-339.06016425659777
 21
163.43001438913811
 31
0.0
  0
LINE
  8
DETAIL
  6
CONTINUOUS
 62
     5
 10
-339.06016425659777
 20
163.43001438913811
 30
0.0
 11
-339.10729203748258
 21
163.2740347482297
 31
0.0
  0
LINE
  8
DETAIL
  6
CONTINUOUS
 62
     5
 10
-339.10729203748258
 20
163.2740347482297
 30
0.0
 11
-339.15394209899802
 21
163.11804919123259
 31
0.0
  0
LINE
  8
DETAIL
  6
CONTINUOUS
 62
     5
 10
-339.15394209899802
 20
163.11804919123259
 30
0.0
 11
-339.20014029481348
 21
162.96197720058689
 31
0.0
  0
LINE
  8
DETAIL
  6
CONTINUOUS
 62
     5
 10
-339.20014029481348
 20
162.96197720058689
 30
0.0
 11
-339.24591247859848
 21
162.80573825873259
 31
0.0
  0
LINE
  8
DETAIL
  6
CONTINUOUS
 62
     5
 10
-338.55986225922487
 20
164.99783856677371
 30
0.0
 11
-338.61210128656728
 21
164.8409555397316
 31
0.0
  0
LINE
  8
DETAIL
  6
CONTINUOUS
 62
     5
 10
-338.61210128656728
 20
164.8409555397316
 30
0.0
 11
-338.6639124386802
 21
164.68388930703469
 31
0.0
  0
LINE
  8
DETAIL
  6
CONTINUOUS
 62
     5
 10
-338.6639124386802
 20
164.68388930703469
 30
0.0
 11
-338.71527017242738
 21
164.52672309531749
 31
0.0
  0
LINE
  8
DETAIL
  6
CONTINUOUS
 62
     5
 10
-338.71527017242738
 20
164.52672309531749
 30
0.0
 11
-338.76614894467252
 21
164.36954013121419
 31
0.0
  0
LINE
  8
DETAIL
  6
CONTINUOUS
 62
     5
 10
-338.76614894467252
 20
164.36954013121419
 30
0.0
 11
-338.81652321227938
 21
164.21242364135921
 31
0.0
  0
LINE
  8
DETAIL
  6
CONTINUOUS
 62
     5
 10
-338.81652321227938
 20
164.21242364135921
 30
0.0
 11
-338.86636743211187
 21
164.05545685238701
 31
0.0
  0
LINE
  8
DETAIL
  6
CONTINUOUS
 62
     5
 10
-338.86636743211187
 20
164.05545685238701
 30
0.0
 11
-338.91565606103359
 21
163.8987229909319
 31
0.0
  0
LINE
  8
DETAIL
  6
CONTINUOUS
 62
     5
 10
-338.18260639263292
 20
166.08976838189619
 30
0.0
 11
-338.23777248049009
 21
165.93432491418281
 31
0.0
  0
LINE
  8
DETAIL
  6
CONTINUOUS
 62
     5
 10
-338.23777248049009
 20
165.93432491418281
 30
0.0
 11
-338.29250605332322
 21
165.7787316869458
 31
0.0
  0
LINE
  8
DETAIL
  6
CONTINUOUS
 62
     5
 10
-338.29250605332322
 20
165.7787316869458
 30
0.0
 11
-338.34681214162077
 21
165.6229692547241
 31
0.0
  0
LINE
  8
DETAIL
  6
CONTINUOUS
 62
     5
 10
-338.34681214162077
 20
165.6229692547241
 30
0.0
 11
-338.40069577587133
 21
165.46701817205701
 31
0.0
  0
LINE
  8
DETAIL
  6
CONTINUOUS
 62
     5
 10
-338.40069577587133
 20
165.46701817205701
 30
0.0
 11
-338.45416198656318
 21
165.31085899348361
 31
0.0
  0
LINE
  8
DETAIL
  6
CONTINUOUS
 62
     5
 10
-338.45416198656318
 20
165.31085899348361
 30
0.0
 11
-338.50721580418502
 21
165.15447227354281
 31
0.0
  0
LINE
  8
DETAIL
  6
CONTINUOUS
 62
     5
 10
-338.50721580418502
 20
165.15447227354281
 30
0.0
 11
-338.55986225922487
 21
164.99783856677371
 31
0.0
  0
LINE
  8
DETAIL
  6
CONTINUOUS
 62
     5
 10
-337.78419493798378
 20
167.1741626991741
 30
0.0
 11
-337.84242427756982
 21
167.01964891724339
 31
0.0
  0
LINE
  8
DETAIL
  6
CONTINUOUS
 62
     5
 10
-337.84242427756982
 20
167.01964891724339
 30
0.0
 11
-337.90021571120218
 21
166.865000782891
 31
0.0
  0
LINE
  8
DETAIL
  6
CONTINUOUS
 62
     5
 10
-337.90021571120218
 20
166.865000782891
 30
0.0
 11
-337.95756929895452
 21
166.71021896917659
 31
0.0
  0
LINE
  8
DETAIL
  6
CONTINUOUS
 62
     5
 10
-337.95756929895452
 20
166.71021896917659
 30
0.0
 11
-338.01448510090012
 21
166.55530414916009
 31
0.0
  0
LINE
  8
DETAIL
  6
CONTINUOUS
 62
     5
 10
-338.01448510090012
 20
166.55530414916009
 30
0.0
 11
-338.07096317711267
 21
166.40025699590109
 31
0.0
  0
LINE
  8
DETAIL
  6
CONTINUOUS
 62
     5
 10
-338.07096317711267
 20
166.40025699590109
 30
0.0
 11
-338.12700358766568
 21
166.24507818245999
 31
0.0
  0
LINE
  8
DETAIL
  6
CONTINUOUS
 62
     5
 10
-338.12700358766568
 20
166.24507818245999
 30
0.0
 11
-338.18260639263292
 21
166.08976838189619
 31
0.0
  0
LINE
  8
DETAIL
  6
CONTINUOUS
 62
     5
 10
-337.36493437200278
 20
168.25067178148271
 30
0.0
 11
-337.42600442206373
 21
168.09758717010661
 31
0.0
  0
LINE
  8
DETAIL
  6
CONTINUOUS
 62
     5
 10
-337.42600442206373
 20
168.09758717010661
 30
0.0
 11
-337.48670029744608
 21
167.94423030681631
 31
0.0
  0
LINE
  8
DETAIL
  6
CONTINUOUS
 62
     5
 10
-337.48670029744608
 20
167.94423030681631
 30
0.0
 11
-337.54701136625908
 21
167.7906240626838
 31
0.0
  0
LINE
  8
DETAIL
  6
CONTINUOUS
 62
     5
 10
-337.54701136625908
 20
167.7906240626838
 30
0.0
 11
-337.60692699661058
 21
167.63679130878131
 31
0.0
  0
LINE
  8
DETAIL
  6
CONTINUOUS
 62
     5
 10
-337.60692699661058
 20
167.63679130878131
 30
0.0
 11
-337.6664365566096
 21
167.48275491618071
 31
0.0
  0
LINE
  8
DETAIL
  6
CONTINUOUS
 62
     5
 10
-337.6664365566096
 20
167.48275491618071
 30
0.0
 11
-337.72552941436447
 21
167.32853775595439
 31
0.0
  0
LINE
  8
DETAIL
  6
CONTINUOUS
 62
     5
 10
-337.72552941436447
 20
167.32853775595439
 30
0.0
 11
-337.78419493798378
 21
167.1741626991741
 31
0.0
  0
LINE
  8
DETAIL
  6
CONTINUOUS
 62
     5
 10
-336.92513117141488
 20
169.31894589169701
 30
0.0
 11
-336.98953321141698
 21
169.166102160013
 31
0.0
  0
LINE
  8
DETAIL
  6
CONTINUOUS
 62
     5
 10
-336.98953321141698
 20
169.166102160013
 30
0.0
 11
-337.0533490703308
 21
169.0134795423287
 31
0.0
  0
LINE
  8
DETAIL
  6
CONTINUOUS
 62
     5
 10
-337.0533490703308
 20
169.0134795423287
 30
0.0
 11
-337.11661585454021
 21
168.86099199914619
 31
0.0
  0
LINE
  8
DETAIL
  6
CONTINUOUS
 62
     5
 10
-337.11661585454021
 20
168.86099199914619
 30
0.0
 11
-337.17937067042823
 21
168.708553490968
 31
0.0
  0
LINE
  8
DETAIL
  6
CONTINUOUS
 62
     5
 10
-337.17937067042823
 20
168.708553490968
 30
0.0
 11
-337.24165062437902
 21
168.55607797829651
 31
0.0
  0
LINE
  8
DETAIL
  6
CONTINUOUS
 62
     5
 10
-337.24165062437902
 20
168.55607797829651
 30
0.0
 11
-337.30349282277609
 21
168.40347942163399
 31
0.0
  0
LINE
  8
DETAIL
  6
CONTINUOUS
 62
     5
 10
-337.30349282277609
 20
168.40347942163399
 30
0.0
 11
-337.36493437200278
 21
168.25067178148271
 31
0.0
  0
LINE
  8
DETAIL
  6
CONTINUOUS
 62
     5
 10
-322.92123120181009
 20
189.98659262204001
 30
0.0
 11
-323.0452785370187
 21
189.8609411293975
 31
0.0
  0
LINE
  8
DETAIL
  6
CONTINUOUS
 62
     5
 10
-323.0452785370187
 20
189.8609411293975
 30
0.0
 11
-323.16904807114361
 21
189.73495282693111
 31
0.0
  0
LINE
  8
DETAIL
  6
CONTINUOUS
 62
     5
 10
-323.16904807114361
 20
189.73495282693111
 30
0.0
 11
-323.29247196490451
 21
189.6086994098257
 31
0.0
  0
LINE
  8
DETAIL
  6
CONTINUOUS
 62
     5
 10
-323.29247196490451
 20
189.6086994098257
 30
0.0
 11
-323.41548237902032
 21
189.48225257326581
 31
0.0
  0
LINE
  8
DETAIL
  6
CONTINUOUS
 62
     5
 10
-323.41548237902032
 20
189.48225257326581
 30
0.0
 11
-323.53801147421109
 21
189.35568401243609
 31
0.0
  0
LINE
  8
DETAIL
  6
CONTINUOUS
 62
     5
 10
-323.53801147421109
 20
189.35568401243609
 30
0.0
 11
-323.65999141119579
 21
189.2290654225213
 31
0.0
  0
LINE
  8
DETAIL
  6
CONTINUOUS
 62
     5
 10
-323.65999141119579
 20
189.2290654225213
 30
0.0
 11
-323.7813543506943
 21
189.1024684987062
 31
0.0
  0
LINE
  8
DETAIL
  6
CONTINUOUS
 62
     5
 10
-327.02455960883088
 20
185.46726143999919
 30
0.0
 11
-327.13587073676922
 21
185.333014691366
 31
0.0
  0
LINE
  8
DETAIL
  6
CONTINUOUS
 62
     5
 10
-327.13587073676922
 20
185.333014691366
 30
0.0
 11
-327.24687257862132
 21
185.1984511924901
 31
0.0
  0
LINE
  8
DETAIL
  6
CONTINUOUS
 62
     5
 10
-327.24687257862132
 20
185.1984511924901
 30
0.0
 11
-327.35750113693638
 21
185.06365163694721
 31
0.0
  0
LINE
  8
DETAIL
  6
CONTINUOUS
 62
     5
 10
-327.35750113693638
 20
185.06365163694721
 30
0.0
 11
-327.46769241426517
 21
184.92869671831281
 31
0.0
  0
LINE
  8
DETAIL
  6
CONTINUOUS
 62
     5
 10
-327.46769241426517
 20
184.92869671831281
 30
0.0
 11
-327.57738241315752
 21
184.7936671301629
 31
0.0
  0
LINE
  8
DETAIL
  6
CONTINUOUS
 62
     5
 10
-327.57738241315752
 20
184.7936671301629
 30
0.0
 11
-327.68650713616319
 21
184.6586435660729
 31
0.0
  0
LINE
  8
DETAIL
  6
CONTINUOUS
 62
     5
 10
-327.68650713616319
 20
184.6586435660729
 30
0.0
 11
-327.79500258583238
 21
184.5237067196185
 31
0.0
  0
LINE
  8
DETAIL
  6
CONTINUOUS
 62
     5
 10
-326.23760620261351
 20
186.39708316217229
 30
0.0
 11
-326.35095335885762
 21
186.26518713168551
 31
0.0
  0
LINE
  8
DETAIL
  6
CONTINUOUS
 62
     5
 10
-326.35095335885762
 20
186.26518713168551
 30
0.0
 11
-326.4639678225451
 21
186.13301212846301
 31
0.0
  0
LINE
  8
DETAIL
  6
CONTINUOUS
 62
     5
 10
-326.4639678225451
 20
186.13301212846301
 30
0.0
 11
-326.57666416099568
 21
186.0005384073244
 31
0.0
  0
LINE
  8
DETAIL
  6
CONTINUOUS
 62
     5
 10
-326.57666416099568
 20
186.0005384073244
 30
0.0
 11
-326.68905694152983
 21
185.86774622308911
 31
0.0
  0
LINE
  8
DETAIL
  6
CONTINUOUS
 62
     5
 10
-326.68905694152983
 20
185.86774622308911
 30
0.0
 11
-326.80116073146678
 21
185.73461583057679
 31
0.0
  0
LINE
  8
DETAIL
  6
CONTINUOUS
 62
     5
 10
-326.80116073146678
 20
185.73461583057679
 30
0.0
 11
-326.91299009812718
 21
185.60112748460691
 31
0.0
  0
LINE
  8
DETAIL
  6
CONTINUOUS
 62
     5
 10
-326.91299009812718
 20
185.60112748460691
 30
0.0
 11
-327.02455960883088
 21
185.46726143999919
 31
0.0
  0
LINE
  8
DETAIL
  6
CONTINUOUS
 62
     5
 10
-325.43450946138319
 20
187.31300370206301
 30
0.0
 11
-325.55027033396459
 21
187.18295157215559
 31
0.0
  0
LINE
  8
DETAIL
  6
CONTINUOUS
 62
     5
 10
-325.55027033396459
 20
187.18295157215559
 30
0.0
 11
-325.66568810648721
 21
187.0526328398438
 31
0.0
  0
LINE
  8
DETAIL
  6
CONTINUOUS
 62
     5
 10
-325.66568810648721
 20
187.0526328398438
 30
0.0
 11
-325.78076208564812
 21
186.92204873426911
 31
0.0
  0
LINE
  8
DETAIL
  6
CONTINUOUS
 62
     5
 10
-325.78076208564812
 20
186.92204873426911
 30
0.0
 11
-325.89549157814389
 21
186.79120048457321
 31
0.0
  0
LINE
  8
DETAIL
  6
CONTINUOUS
 62
     5
 10
-325.89549157814389
 20
186.79120048457321
 30
0.0
 11
-326.00987589067222
 21
186.66008931989751
 31
0.0
  0
LINE
  8
DETAIL
  6
CONTINUOUS
 62
     5
 10
-326.00987589067222
 20
186.66008931989751
 30
0.0
 11
-326.12391432992968
 21
186.52871646938331
 31
0.0
  0
LINE
  8
DETAIL
  6
CONTINUOUS
 62
     5
 10
-326.12391432992968
 20
186.52871646938331
 30
0.0
 11
-326.23760620261351
 21
186.39708316217229
 31
0.0
  0
LINE
  8
DETAIL
  6
CONTINUOUS
 62
     5
 10
-324.61563647934241
 20
188.214854875599
 30
0.0
 11
-324.73340875163439
 21
188.0870535062314
 31
0.0
  0
LINE
  8
DETAIL
  6
CONTINUOUS
 62
     5
 10
-324.73340875163439
 20
188.0870535062314
 30
0.0
 11
-324.85094791065637
 21
187.95887768165861
 31
0.0
  0
LINE
  8
DETAIL
  6
CONTINUOUS
 62
     5
 10
-324.85094791065637
 20
187.95887768165861
 30
0.0
 11
-324.96823574082748
 21
187.8303451724905
 31
0.0
  0
LINE
  8
DETAIL
  6
CONTINUOUS
 62
     5
 10
-324.96823574082748
 20
187.8303451724905
 30
0.0
 11
-325.08525402656647
 21
187.701473749337
 31
0.0
  0
LINE
  8
DETAIL
  6
CONTINUOUS
 62
     5
 10
-325.08525402656647
 20
187.701473749337
 30
0.0
 11
-325.20198455229291
 21
187.57228118280801
 31
0.0
  0
LINE
  8
DETAIL
  6
CONTINUOUS
 62
     5
 10
-325.20198455229291
 20
187.57228118280801
 30
0.0
 11
-325.31840910242539
 21
187.44278524351341
 31
0.0
  0
LINE
  8
DETAIL
  6
CONTINUOUS
 62
     5
 10
-325.31840910242539
 20
187.44278524351341
 30
0.0
 11
-325.43450946138319
 21
187.31300370206301
 31
0.0
  0
LINE
  8
DETAIL
  6
CONTINUOUS
 62
     5
 10
-323.7813543506943
 20
189.1024684987062
 30
0.0
 11
-323.90205494899851
 21
188.97594142538031
 31
0.0
  0
LINE
  8
DETAIL
  6
CONTINUOUS
 62
     5
 10
-323.90205494899851
 20
188.97594142538031
 30
0.0
 11
-324.02213784468972
 21
188.84943834375281
 31
0.0
  0
LINE
  8
DETAIL
  6
CONTINUOUS
 62
     5
 10
-324.02213784468972
 20
188.84943834375281
 30
0.0
 11
-324.14167017192221
 21
188.72288988423861
 31
0.0
  0
LINE
  8
DETAIL
  6
CONTINUOUS
 62
     5
 10
-324.14167017192221
 20
188.72288988423861
 30
0.0
 11
-324.2607190648497
 21
188.59622667725159
 31
0.0
  0
LINE
  8
DETAIL
  6
CONTINUOUS
 62
     5
 10
-324.2607190648497
 20
188.59622667725159
 30
0.0
 11
-324.37935165762622
 21
188.46937935320651
 31
0.0
  0
LINE
  8
DETAIL
  6
CONTINUOUS
 62
     5
 10
-324.37935165762622
 20
188.46937935320651
 30
0.0
 11
-324.49763508440577
 21
188.34227854251751
 31
0.0
  0
LINE
  8
DETAIL
  6
CONTINUOUS
 62
     5
 10
-324.49763508440577
 20
188.34227854251751
 30
0.0
 11
-324.61563647934241
 21
188.214854875599
 31
0.0
  0
LINE
  8
DETAIL
  6
CONTINUOUS
 62
     5
 10
-332.61863030762947
 20
177.6745353929216
 30
0.0
 11
-332.70706099949939
 21
177.52991140508291
 31
0.0
  0
LINE
  8
DETAIL
  6
CONTINUOUS
 62
     5
 10
-332.70706099949939
 20
177.52991140508291
 30
0.0
 11
-332.79509569070461
 21
177.38508135514209
 31
0.0
  0
LINE
  8
DETAIL
  6
CONTINUOUS
 62
     5
 10
-332.79509569070461
 20
177.38508135514209
 30
0.0
 11
-332.88273413040042
 21
177.24004626169111
 31
0.0
  0
LINE
  8
DETAIL
  6
CONTINUOUS
 62
     5
 10
-332.88273413040042
 20
177.24004626169111
 30
0.0
 11
-332.96997606774289
 21
177.0948071433213
 31
0.0
  0
LINE
  8
DETAIL
  6
CONTINUOUS
 62
     5
 10
-332.96997606774289
 20
177.0948071433213
 30
0.0
 11
-333.05682125188758
 21
176.94936501862449
 31
0.0
  0
LINE
  8
DETAIL
  6
CONTINUOUS
 62
     5
 10
-333.05682125188758
 20
176.94936501862449
 30
0.0
 11
-333.14326943199057
 21
176.80372090619221
 31
0.0
  0
LINE
  8
DETAIL
  6
CONTINUOUS
 62
     5
 10
-333.14326943199057
 20
176.80372090619221
 30
0.0
 11
-333.22932035720692
 21
176.65787582461601
 31
0.0
  0
LINE
  8
DETAIL
  6
CONTINUOUS
 62
     5
 10
-331.98943338465978
 20
178.67985120223989
 30
0.0
 11
-332.08030142427089
 21
178.53714130156121
 31
0.0
  0
LINE
  8
DETAIL
  6
CONTINUOUS
 62
     5
 10
-332.08030142427089
 20
178.53714130156121
 30
0.0
 11
-332.17086809155091
 21
178.3940925964524
 31
0.0
  0
LINE
  8
DETAIL
  6
CONTINUOUS
 62
     5
 10
-332.17086809155091
 20
178.3940925964524
 30
0.0
 11
-332.26111765691832
 21
178.2507270408698
 31
0.0
  0
LINE
  8
DETAIL
  6
CONTINUOUS
 62
     5
 10
-332.26111765691832
 20
178.2507270408698
 30
0.0
 11
-332.35103439079148
 21
178.1070665887695
 31
0.0
  0
LINE
  8
DETAIL
  6
CONTINUOUS
 62
     5
 10
-332.35103439079148
 20
178.1070665887695
 30
0.0
 11
-332.44060256358858
 21
177.96313319410729
 31
0.0
  0
LINE
  8
DETAIL
  6
CONTINUOUS
 62
     5
 10
-332.44060256358858
 20
177.96313319410729
 30
0.0
 11
-332.52980644572858
 21
177.81894881083929
 31
0.0
  0
LINE
  8
DETAIL
  6
CONTINUOUS
 62
     5
 10
-332.52980644572858
 20
177.81894881083929
 30
0.0
 11
-332.61863030762947
 21
177.6745353929216
 31
0.0
  0
LINE
  8
DETAIL
  6
CONTINUOUS
 62
     5
 10
-331.34208876184289
 20
179.6735716045437
 30
0.0
 11
-331.43616301461958
 21
179.5315962009058
 31
0.0
  0
LINE
  8
DETAIL
  6
CONTINUOUS
 62
     5
 10
-331.43616301461958
 20
179.5315962009058
 30
0.0
 11
-331.52961030713828
 21
179.38976663333909
 31
0.0
  0
LINE
  8
DETAIL
  6
CONTINUOUS
 62
     5
 10
-331.52961030713828
 20
179.38976663333909
 30
0.0
 11
-331.62248752565029
 21
179.24799846943421
 31
0.0
  0
LINE
  8
DETAIL
  6
CONTINUOUS
 62
     5
 10
-331.62248752565029
 20
179.24799846943421
 30
0.0
 11
-331.71485155640721
 21
179.10620727678119
 31
0.0
  0
LINE
  8
DETAIL
  6
CONTINUOUS
 62
     5
 10
-331.71485155640721
 20
179.10620727678119
 30
0.0
 11
-331.80675928565978
 21
178.96430862297089
 31
0.0
  0
LINE
  8
DETAIL
  6
CONTINUOUS
 62
     5
 10
-331.80675928565978
 20
178.96430862297089
 30
0.0
 11
-331.89826759966041
 21
178.82221807559361
 31
0.0
  0
LINE
  8
DETAIL
  6
CONTINUOUS
 62
     5
 10
-331.89826759966041
 20
178.82221807559361
 30
0.0
 11
-331.98943338465978
 21
178.67985120223989
 31
0.0
  0
LINE
  8
DETAIL
  6
CONTINUOUS
 62
     5
 10
-330.6677537112987
 20
180.6687741505805
 30
0.0
 11
-330.76539611168778
 21
180.52704273304559
 31
0.0
  0
LINE
  8
DETAIL
  6
CONTINUOUS
 62
     5
 10
-330.76539611168778
 20
180.52704273304559
 30
0.0
 11
-330.86269745839292
 21
180.38501950082309
 31
0.0
  0
LINE
  8
DETAIL
  6
CONTINUOUS
 62
     5
 10
-330.86269745839292
 20
180.38501950082309
 30
0.0
 11
-330.95960061927639
 21
180.2427914677742
 31
0.0
  0
LINE
  8
DETAIL
  6
CONTINUOUS
 62
     5
 10
-330.95960061927639
 20
180.2427914677742
 30
0.0
 11
-331.05604846220081
 21
180.10044564776049
 31
0.0
  0
LINE
  8
DETAIL
  6
CONTINUOUS
 62
     5
 10
-331.05604846220081
 20
180.10044564776049
 30
0.0
 11
-331.15198385502839
 21
179.95806905464309
 31
0.0
  0
LINE
  8
DETAIL
  6
CONTINUOUS
 62
     5
 10
-331.15198385502839
 20
179.95806905464309
 30
0.0
 11
-331.24734966562158
 21
179.8157487022838
 31
0.0
  0
LINE
  8
DETAIL
  6
CONTINUOUS
 62
     5
 10
-331.24734966562158
 20
179.8157487022838
 30
0.0
 11
-331.34208876184289
 21
179.6735716045437
 31
0.0
  0
LINE
  8
DETAIL
  6
CONTINUOUS
 62
     5
 10
-329.97550936862558
 20
181.65159646420969
 30
0.0
 11
-330.07541943421302
 21
181.5120550398083
 31
0.0
  0
LINE
  8
DETAIL
  6
CONTINUOUS
 62
     5
 10
-330.07541943421302
 20
181.5120550398083
 30
0.0
 11
-330.17496884656379
 21
181.37226158180579
 31
0.0
  0
LINE
  8
DETAIL
  6
CONTINUOUS
 62
     5
 10
-330.17496884656379
 20
181.37226158180579
 30
0.0
 11
-330.27417039429361
 21
181.23219495771079
 31
0.0
  0
LINE
  8
DETAIL
  6
CONTINUOUS
 62
     5
 10
-330.27417039429361
 20
181.23219495771079
 30
0.0
 11
-330.37303686601689
 21
181.09183403503221
 31
0.0
  0
LINE
  8
DETAIL
  6
CONTINUOUS
 62
     5
 10
-330.37303686601689
 20
181.09183403503221
 30
0.0
 11
-330.47158105034868
 21
180.95115768127849
 31
0.0
  0
LINE
  8
DETAIL
  6
CONTINUOUS
 62
     5
 10
-330.47158105034868
 20
180.95115768127849
 30
0.0
 11
-330.56981573590451
 21
180.81014476395839
 31
0.0
  0
LINE
  8
DETAIL
  6
CONTINUOUS
 62
     5
 10
-330.56981573590451
 20
180.81014476395839
 30
0.0
 11
-330.6677537112987
 21
180.6687741505805
 31
0.0
  0
LINE
  8
DETAIL
  6
CONTINUOUS
 62
     5
 10
-329.26572393362289
 20
182.62183101632809
 30
0.0
 11
-329.36823615770533
 21
182.48393368619841
 31
0.0
  0
LINE
  8
DETAIL
  6
CONTINUOUS
 62
     5
 10
-329.36823615770533
 20
182.48393368619841
 30
0.0
 11
-329.47037771874739
 21
182.34579857685529
 31
0.0
  0
LINE
  8
DETAIL
  6
CONTINUOUS
 62
     5
 10
-329.47037771874739
 20
182.34579857685529
 30
0.0
 11
-329.57214815361431
 21
182.2074268346494
 31
0.0
  0
LINE
  8
DETAIL
  6
CONTINUOUS
 62
     5
 10
-329.57214815361431
 20
182.2074268346494
 30
0.0
 11
-329.67354699917081
 21
182.06881960593131
 31
0.0
  0
LINE
  8
DETAIL
  6
CONTINUOUS
 62
     5
 10
-329.67354699917081
 20
182.06881960593131
 30
0.0
 11
-329.77457379228173
 21
181.9299780370516
 31
0.0
  0
LINE
  8
DETAIL
  6
CONTINUOUS
 62
     5
 10
-329.77457379228173
 20
181.9299780370516
 30
0.0
 11
-329.87522806981178
 21
181.79090327436069
 31
0.0
  0
LINE
  8
DETAIL
  6
CONTINUOUS
 62
     5
 10
-329.87522806981178
 20
181.79090327436069
 30
0.0
 11
-329.97550936862558
 21
181.65159646420969
 31
0.0
  0
LINE
  8
DETAIL
  6
CONTINUOUS
 62
     5
 10
-328.53876560609177
 20
183.57927027783219
 30
0.0
 11
-328.64350149592372
 21
183.44347232252969
 31
0.0
  0
LINE
  8
DETAIL
  6
CONTINUOUS
 62
     5
 10
-328.64350149592372
 20
183.44347232252969
 30
0.0
 11
-328.74797144717218
 21
183.30731437764939
 31
0.0
  0
LINE
  8
DETAIL
  6
CONTINUOUS
 62
     5
 10
-328.74797144717218
 20
183.30731437764939
 30
0.0
 11
-328.8521580829505
 21
183.17081662052689
 31
0.0
  0
LINE
  8
DETAIL
  6
CONTINUOUS
 62
     5
 10
-328.8521580829505
 20
183.17081662052689
 30
0.0
 11
-328.9560440263715
 21
183.033999228498
 31
0.0
  0
LINE
  8
DETAIL
  6
CONTINUOUS
 62
     5
 10
-328.9560440263715
 20
183.033999228498
 30
0.0
 11
-329.05961190054859
 21
182.89688237889811
 31
0.0
  0
LINE
  8
DETAIL
  6
CONTINUOUS
 62
     5
 10
-329.05961190054859
 20
182.89688237889811
 30
0.0
 11
-329.1628443285947
 21
182.75948624906289
 31
0.0
  0
LINE
  8
DETAIL
  6
CONTINUOUS
 62
     5
 10
-329.1628443285947
 20
182.75948624906289
 30
0.0
 11
-329.26572393362289
 21
182.62183101632809
 31
0.0
  0
LINE
  8
DETAIL
  6
CONTINUOUS
 62
     5
 10
-327.79500258583238
 20
184.5237067196185
 30
0.0
 11
-327.90282601926862
 21
184.388910797872
 31
0.0
  0
LINE
  8
DETAIL
  6
CONTINUOUS
 62
     5
 10
-327.90282601926862
 20
184.388910797872
 30
0.0
 11
-328.01001971178857
 21
184.25420406189031
 31
0.0
  0
LINE
  8
DETAIL
  6
CONTINUOUS
 62
     5
 10
-328.01001971178857
 20
184.25420406189031
 30
0.0
 11
-328.11664719326222
 21
184.11950828622719
 31
0.0
  0
LINE
  8
DETAIL
  6
CONTINUOUS
 62
     5
 10
-328.11664719326222
 20
184.11950828622719
 30
0.0
 11
-328.22277199355932
 21
183.98474524543619
 31
0.0
  0
LINE
  8
DETAIL
  6
CONTINUOUS
 62
     5
 10
-328.22277199355932
 20
183.98474524543619
 30
0.0
 11
-328.32845764254989
 21
183.84983671407099
 31
0.0
  0
LINE
  8
DETAIL
  6
CONTINUOUS
 62
     5
 10
-328.32845764254989
 20
183.84983671407099
 30
0.0
 11
-328.43376767010409
 21
183.71470446668511
 31
0.0
  0
LINE
  8
DETAIL
  6
CONTINUOUS
 62
     5
 10
-328.43376767010409
 20
183.71470446668511
 30
0.0
 11
-328.53876560609177
 21
183.57927027783219
 31
0.0
  0
LINE
  8
DETAIL
  6
CONTINUOUS
 62
     5
 10
-322.04605003482561
 20
190.85580671463501
 30
0.0
 11
-322.17190858854542
 21
190.73262953154591
 31
0.0
  0
LINE
  8
DETAIL
  6
CONTINUOUS
 62
     5
 10
-322.17190858854542
 20
190.73262953154591
 30
0.0
 11
-322.2974635863178
 21
190.6091496540553
 31
0.0
  0
LINE
  8
DETAIL
  6
CONTINUOUS
 62
     5
 10
-322.2974635863178
 20
190.6091496540553
 30
0.0
 11
-322.42273062716691
 21
190.48534944706219
 31
0.0
  0
LINE
  8
DETAIL
  6
CONTINUOUS
 62
     5
 10
-322.42273062716691
 20
190.48534944706219
 30
0.0
 11
-322.54772531011639
 21
190.36121127546511
 31
0.0
  0
LINE
  8
DETAIL
  6
CONTINUOUS
 62
     5
 10
-322.54772531011639
 20
190.36121127546511
 30
0.0
 11
-322.6724632341909
 21
190.23671750416321
 31
0.0
  0
LINE
  8
DETAIL
  6
CONTINUOUS
 62
     5
 10
-322.6724632341909
 20
190.23671750416321
 30
0.0
 11
-322.7969599984142
 21
190.11185049805519
 31
0.0
  0
LINE
  8
DETAIL
  6
CONTINUOUS
 62
     5
 10
-322.7969599984142
 20
190.11185049805519
 30
0.0
 11
-322.92123120181009
 21
189.98659262204001
 31
0.0
  0
LINE
  8
DETAIL
  6
CONTINUOUS
 62
     5
 10
-321.15617634916822
 20
191.70997180841161
 30
0.0
 11
-321.28424627122831
 21
191.58881999141749
 31
0.0
  0
LINE
  8
DETAIL
  6
CONTINUOUS
 62
     5
 10
-321.28424627122831
 20
191.58881999141749
 30
0.0
 11
-321.41200274066648
 21
191.46737545823231
 31
0.0
  0
LINE
  8
DETAIL
  6
CONTINUOUS
 62
     5
 10
-321.41200274066648
 20
191.46737545823231
 30
0.0
 11
-321.53944480709163
 21
191.3456394850042
 31
0.0
  0
LINE
  8
DETAIL
  6
CONTINUOUS
 62
     5
 10
-321.53944480709163
 20
191.3456394850042
 30
0.0
 11
-321.66657152011157
 21
191.22361334788209
 31
0.0
  0
LINE
  8
DETAIL
  6
CONTINUOUS
 62
     5
 10
-321.66657152011157
 20
191.22361334788209
 30
0.0
 11
-321.79338192933488
 21
191.10129832301411
 31
0.0
  0
LINE
  8
DETAIL
  6
CONTINUOUS
 62
     5
 10
-321.79338192933488
 20
191.10129832301411
 30
0.0
 11
-321.91987508437018
 21
190.97869568654889
 31
0.0
  0
LINE
  8
DETAIL
  6
CONTINUOUS
 62
     5
 10
-321.91987508437018
 20
190.97869568654889
 30
0.0
 11
-322.04605003482561
 21
190.85580671463501
 31
0.0
  0
LINE
  8
DETAIL
  6
CONTINUOUS
 62
     5
 10
-320.25197564426588
 20
192.54894893529129
 30
0.0
 11
-320.38184819679168
 21
192.4301715357058
 31
0.0
  0
LINE
  8
DETAIL
  6
CONTINUOUS
 62
     5
 10
-320.38184819679168
 20
192.4301715357058
 30
0.0
 11
-320.51151739328878
 21
192.31101037516649
 31
0.0
  0
LINE
  8
DETAIL
  6
CONTINUOUS
 62
     5
 10
-320.51151739328878
 20
192.31101037516649
 30
0.0
 11
-320.64096504272362
 21
192.191480415109
 31
0.0
  0
LINE
  8
DETAIL
  6
CONTINUOUS
 62
     5
 10
-320.64096504272362
 20
192.191480415109
 30
0.0
 11
-320.77017295406239
 21
192.07159661696909
 31
0.0
  0
LINE
  8
DETAIL
  6
CONTINUOUS
 62
     5
 10
-320.77017295406239
 20
192.07159661696909
 30
0.0
 11
-320.89912293627191
 21
191.95137394218241
 31
0.0
  0
LINE
  8
DETAIL
  6
CONTINUOUS
 62
     5
 10
-320.89912293627191
 20
191.95137394218241
 30
0.0
 11
-321.02779679831838
 21
191.8308273521848
 31
0.0
  0
LINE
  8
DETAIL
  6
CONTINUOUS
 62
     5
 10
-321.02779679831838
 20
191.8308273521848
 30
0.0
 11
-321.15617634916822
 21
191.70997180841161
 31
0.0
  0
LINE
  8
DETAIL
  6
CONTINUOUS
 62
     5
 10
-319.33381341954652
 20
193.37259912719449
 30
0.0
 11
-319.46641011898328
 21
193.25536799871841
 31
0.0
  0
LINE
  8
DETAIL
  6
CONTINUOUS
 62
     5
 10
-319.46641011898328
 20
193.25536799871841
 30
0.0
 11
-319.59841772772558
 21
193.13809029362929
 31
0.0
  0
LINE
  8
DETAIL
  6
CONTINUOUS
 62
     5
 10
-319.59841772772558
 20
193.13809029362929
 30
0.0
 11
-319.72990356672318
 21
193.02070732096439
 31
0.0
  0
LINE
  8
DETAIL
  6
CONTINUOUS
 62
     5
 10
-319.72990356672318
 20
193.02070732096439
 30
0.0
 11
-319.86093495692631
 21
192.90316038976081
 31
0.0
  0
LINE
  8
DETAIL
  6
CONTINUOUS
 62
     5
 10
-319.86093495692631
 20
192.90316038976081
 30
0.0
 11
-319.9915792192844
 21
192.78539080905591
 31
0.0
  0
LINE
  8
DETAIL
  6
CONTINUOUS
 62
     5
 10
-319.9915792192844
 20
192.78539080905591
 30
0.0
 11
-320.12190367474773
 21
192.66733988788701
 31
0.0
  0
LINE
  8
DETAIL
  6
CONTINUOUS
 62
     5
 10
-320.12190367474773
 20
192.66733988788701
 30
0.0
 11
-320.25197564426588
 21
192.54894893529129
 31
0.0
  0
LINE
  8
DETAIL
  6
CONTINUOUS
 62
     5
 10
-318.39123515068422
 20
194.19001134504131
 30
0.0
 11
-318.52697163176367
 21
194.07399238200199
 31
0.0
  0
LINE
  8
DETAIL
  6
CONTINUOUS
 62
     5
 10
-318.52697163176367
 20
194.07399238200199
 30
0.0
 11
-318.6624609899352
 21
193.9576206622412
 31
0.0
  0
LINE
  8
DETAIL
  6
CONTINUOUS
 62
     5
 10
-318.6624609899352
 20
193.9576206622412
 30
0.0
 11
-318.79763501040969
 21
193.8409569976038
 31
0.0
  0
LINE
  8
DETAIL
  6
CONTINUOUS
 62
     5
 10
-318.79763501040969
 20
193.8409569976038
 30
0.0
 11
-318.93242547839742
 21
193.72406219993539
 31
0.0
  0
LINE
  8
DETAIL
  6
CONTINUOUS
 62
     5
 10
-318.93242547839742
 20
193.72406219993539
 30
0.0
 11
-319.0667641791091
 21
193.60699708108069
 31
0.0
  0
LINE
  8
DETAIL
  6
CONTINUOUS
 62
     5
 10
-319.0667641791091
 20
193.60699708108069
 30
0.0
 11
-319.20058289775523
 21
193.48982245288539
 31
0.0
  0
LINE
  8
DETAIL
  6
CONTINUOUS
 62
     5
 10
-319.20058289775523
 20
193.48982245288539
 30
0.0
 11
-319.33381341954652
 21
193.37259912719449
 31
0.0
  0
LINE
  8
SIZE
  6
CONTINUOUS
 62
    30
 10
-341.49128186809571
 20
168.3181889248863
 30
0.0
 11
-341.49128186809571
 21
735.34238700000014
 31
0.0
  0
LINE
  8
SIZE
  6
CONTINUOUS
 62
    30
 10
-295.5
 20
227.0
 30
0.0
 11
-295.49999999999989
 21
735.34238700000014
 31
0.0
  0
LINE
  8
SIZE
  6
CONTINUOUS
 62
    30
 10
-283.49999999999989
 20
715.34238700000014
 30
0.0
 11
-271.49999999999989
 21
715.34238700000014
 31
0.0
  0
LINE
  8
SIZE
  6
CONTINUOUS
 62
    30
 10
-353.49128186809571
 20
715.34238700000014
 30
0.0
 11
-608.03985329666727
 21
715.34238700000014
 31
0.0
  0
LINE
  8
SIZE
  6
CONTINUOUS
 62
    30
 10
-295.49999999999989
 20
715.34238700000014
 30
0.0
 11
-341.49128186809571
 21
715.34238700000014
 31
0.0
  0
CIRCLE
  8
SIZE
  6
CONTINUOUS
 62
    30
 10
-295.49999999999989
 20
715.34238700000014
 30
0.0
 40
6.0
  0
LINE
  8
SIZE
  6
CONTINUOUS
 62
    30
 10
-295.49999999999989
 20
715.34238700000014
 30
0.0
 11
-283.49999999999989
 21
715.34238700000014
 31
0.0
  0
CIRCLE
  8
SIZE
  6
CONTINUOUS
 62
    30
 10
-341.49128186809571
 20
715.34238700000014
 30
0.0
 40
6.0
  0
LINE
  8
SIZE
  6
CONTINUOUS
 62
    30
 10
-341.49128186809571
 20
715.34238700000014
 30
0.0
 11
-353.49128186809571
 21
715.34238700000014
 31
0.0
  0
TEXT
  8
SIZE
  6
CONTINUOUS
 62
    30
 10
-609.91985329666727
 20
740.34238700000014
 30
0.0
 40
64.0
  1
（46）
 41
0.9
 72
     1
 11
-495.5427104395244
 21
740.34238700000014
 31
0.0
  0
POINT
  8
DEFPOINTS
  6
CONTINUOUS
 62
    30
 10
-341.49128186809571
 20
148.3181889248863
 30
0.0
  0
POINT
  8
DEFPOINTS
  6
CONTINUOUS
 62
    30
 10
-295.5
 20
207.0
 30
0.0
  0
POINT
  8
DEFPOINTS
  6
CONTINUOUS
 62
    30
 10
-295.49999999999989
 20
715.34238700000014
 30
0.0
  0
LINE
  8
DETAIL
  6
CONTINUOUS
 62
     5
 10
0.0
 20
-1.0
 30
0.0
 11
174.5273909999996
 21
-1.0
 31
0.0
  0
LINE
  8
DETAIL
  6
CONTINUOUS
 62
     5
 10
0.0
 20
-1.0
 30
0.0
 11
-174.47260899999989
 21
-1.0
 31
0.0
  0
LINE
  8
SIZE
  6
CONTINUOUS
 62
    30
 10
-174.47260899999989
 20
-21.0
 30
0.0
 11
-174.47260900000001
 21
-787.77428733205579
 31
0.0
  0
LINE
  8
SIZE
  6
CONTINUOUS
 62
    30
 10
174.5273909999996
 20
-21.0
 30
0.0
 11
174.5273909999996
 21
-787.77428733205579
 31
0.0
  0
LINE
  8
SIZE
  6
CONTINUOUS
 62
    30
 10
-162.47260900000001
 20
-767.77428733205579
 30
0.0
 11
162.5273909999996
 21
-767.77428733205579
 31
0.0
  0
CIRCLE
  8
SIZE
  6
CONTINUOUS
 62
    30
 10
-174.47260900000001
 20
-767.77428733205579
 30
0.0
 40
6.0
  0
LINE
  8
SIZE
  6
CONTINUOUS
 62
    30
 10
-174.47260900000001
 20
-767.77428733205579
 30
0.0
 11
-162.47260900000001
 21
-767.77428733205579
 31
0.0
  0
CIRCLE
  8
SIZE
  6
CONTINUOUS
 62
    30
 10
174.5273909999996
 20
-767.77428733205579
 30
0.0
 40
6.0
  0
LINE
  8
SIZE
  6
CONTINUOUS
 62
    30
 10
174.5273909999996
 20
-767.77428733205579
 30
0.0
 11
162.5273909999996
 21
-767.77428733205579
 31
0.0
  0
TEXT
  8
SIZE
  6
CONTINUOUS
 62
    30
 10
-72.658323285714545
 20
-742.77428733205579
 30
0.0
 40
64.0
  1
349
 41
0.9
 72
     1
 11
0.0273909999997386
 21
-742.77428733205579
 31
0.0
  0
POINT
  8
DEFPOINTS
  6
CONTINUOUS
 62
    30
 10
-174.47260899999989
 20
-1.0
 30
0.0
  0
POINT
  8
DEFPOINTS
  6
CONTINUOUS
 62
    30
 10
174.5273909999996
 20
-1.0
 30
0.0
  0
POINT
  8
DEFPOINTS
  6
CONTINUOUS
 62
    30
 10
174.5273909999996
 20
-767.77428733205579
 30
0.0
  0
LINE
  8
SIZE
  6
CONTINUOUS
 62
    30
 10
-47.000001999997949
 20
262.93998499999998
 30
0.0
 11
-47.000001999997949
 21
486.09252599999991
 31
0.0
  0
LINE
  8
SIZE
  6
CONTINUOUS
 62
    30
 10
51.000002000001587
 20
262.93998499999998
 30
0.0
 11
51.000002000001587
 21
486.09252599999991
 31
0.0
  0
LINE
  8
SIZE
  6
CONTINUOUS
 62
    30
 10
-59.000001999997949
 20
466.09252599999991
 30
0.0
 11
-71.000001999997949
 21
466.09252599999991
 31
0.0
  0
LINE
  8
SIZE
  6
CONTINUOUS
 62
    30
 10
63.000002000001587
 20
466.09252599999991
 30
0.0
 11
75.000002000001587
 21
466.09252599999991
 31
0.0
  0
LINE
  8
SIZE
  6
CONTINUOUS
 62
    30
 10
-47.000001999997949
 20
466.09252599999991
 30
0.0
 11
51.000002000001587
 21
466.09252599999991
 31
0.0
  0
CIRCLE
  8
SIZE
  6
CONTINUOUS
 62
    30
 10
-47.000001999997949
 20
466.09252599999991
 30
0.0
 40
6.0
  0
LINE
  8
SIZE
  6
CONTINUOUS
 62
    30
 10
-47.000001999997949
 20
466.09252599999991
 30
0.0
 11
-59.000001999997949
 21
466.09252599999991
 31
0.0
  0
CIRCLE
  8
SIZE
  6
CONTINUOUS
 62
    30
 10
51.000002000001587
 20
466.09252599999991
 30
0.0
 40
6.0
  0
LINE
  8
SIZE
  6
CONTINUOUS
 62
    30
 10
51.000002000001587
 20
466.09252599999991
 30
0.0
 11
63.000002000001587
 21
466.09252599999991
 31
0.0
  0
TEXT
  8
SIZE
  6
CONTINUOUS
 62
    30
 10
-74.799999999998178
 20
501.75919266666659
 30
0.0
 40
64.0
  1
φ98
 41
0.9
 72
     1
 11
2.000000000001819
 21
501.75919266666659
 31
0.0
  0
POINT
  8
DEFPOINTS
  6
CONTINUOUS
 62
    30
 10
-47.000001999997949
 20
242.93998500000001
 30
0.0
  0
POINT
  8
DEFPOINTS
  6
CONTINUOUS
 62
    30
 10
51.000002000001587
 20
242.93998500000001
 30
0.0
  0
POINT
  8
DEFPOINTS
  6
CONTINUOUS
 62
    30
 10
51.000002000001587
 20
466.09252599999991
 30
0.0
  0
LINE
  8
SIZE
  6
CONTINUOUS
 62
    30
 10
65.940000000001874
 20
247.9999709999997
 30
0.0
 11
865.96655607765751
 21
247.9999709999995
 31
0.0
  0
LINE
  8
SIZE
  6
CONTINUOUS
 62
    30
 10
194.5273909999996
 20
0.0
 30
0.0
 11
865.96655607765751
 21
-0.0000000000002274
 31
0.0
  0
LINE
  8
SIZE
  6
CONTINUOUS
 62
    30
 10
845.96655607765751
 20
235.9999709999995
 30
0.0
 11
845.96655607765751
 21
11.999999999999771
 31
0.0
  0
CIRCLE
  8
SIZE
  6
CONTINUOUS
 62
    30
 10
845.96655607765751
 20
247.9999709999995
 30
0.0
 40
6.0
  0
LINE
  8
SIZE
  6
CONTINUOUS
 62
    30
 10
845.96655607765751
 20
247.9999709999995
 30
0.0
 11
845.96655607765751
 21
235.9999709999995
 31
0.0
  0
CIRCLE
  8
SIZE
  6
CONTINUOUS
 62
    30
 10
845.96655607765751
 20
-0.0000000000002274
 30
0.0
 40
6.0
  0
LINE
  8
SIZE
  6
CONTINUOUS
 62
    30
 10
845.96655607765751
 20
-0.0000000000002274
 30
0.0
 11
845.96655607765751
 21
11.999999999999771
 31
0.0
  0
TEXT
  8
SIZE
  6
CONTINUOUS
 62
    30
 10
820.96655607765751
 20
49.942842642856903
 30
0.0
 40
64.0
  1
248
 50
90.0
 41
0.9
 72
     1
 11
820.96655607765751
 21
123.9999854999998
 31
0.0
  0
POINT
  8
DEFPOINTS
  6
CONTINUOUS
 62
    30
 10
45.940000000001866
 20
247.9999709999997
 30
0.0
  0
POINT
  8
DEFPOINTS
  6
CONTINUOUS
 62
    30
 10
174.5273909999996
 20
0.0
 30
0.0
  0
POINT
  8
DEFPOINTS
  6
CONTINUOUS
 62
    30
 10
845.96655607765751
 20
-0.0000000000002274
 30
0.0
  0
LINE
  8
OUTLINE
  6
CONTINUOUS
 62
     3
 10
-158.75
 20
54.0
 30
0.0
 11
-158.75
 21
0.0
 31
0.0
  0
LINE
  8
OUTLINE
  6
CONTINUOUS
 62
     3
 10
-155.25
 20
229.0
 30
0.0
 11
-155.25
 21
0.0
 31
0.0
  0
LINE
  8
OUTLINE
  6
CONTINUOUS
 62
     3
 10
-153.5
 20
0.0
 30
0.0
 11
-153.5
 21
229.0
 31
0.0
  0
LINE
  8
OUTLINE
  6
CONTINUOUS
 62
     3
 10
-238.5
 20
216.0
 30
0.0
 11
-155.25
 21
216.0
 31
0.0
  0
LINE
  8
OUTLINE
  6
CONTINUOUS
 62
     3
 10
-238.5
 20
54.0
 30
0.0
 11
-153.5
 21
54.0
 31
0.0
  0
LINE
  8
OUTLINE
  6
CONTINUOUS
 62
     3
 10
-295.5
 20
63.0
 30
0.0
 11
-295.5
 21
207.0
 31
0.0
  0
LINE
  8
OUTLINE
  6
CONTINUOUS
 62
     3
 10
-268.5
 20
59.0
 30
0.0
 11
-268.5
 21
211.0
 31
0.0
  0
LINE
  8
OUTLINE
  6
CONTINUOUS
 62
     3
 10
-238.5
 20
54.0
 30
0.0
 11
-238.5
 21
216.0
 31
0.0
  0
LINE
  8
OUTLINE
  6
CONTINUOUS
 62
     3
 10
-295.5
 20
63.0
 30
0.0
 11
-268.5
 21
63.0
 31
0.0
  0
LINE
  8
OUTLINE
  6
CONTINUOUS
 62
     3
 10
-268.5
 20
59.0
 30
0.0
 11
-238.5
 21
59.0
 31
0.0
  0
LINE
  8
OUTLINE
  6
CONTINUOUS
 62
     3
 10
-295.5
 20
207.0
 30
0.0
 11
-268.5
 21
207.0
 31
0.0
  0
LINE
  8
OUTLINE
  6
CONTINUOUS
 62
     3
 10
-268.5
 20
211.0
 30
0.0
 11
-238.5
 21
211.0
 31
0.0
  0
LINE
  8
OUTLINE
  6
CONTINUOUS
 62
     3
 10
-158.75
 20
229.0
 30
0.0
 11
-158.75
 21
216.0
 31
0.0
  0
LINE
  8
OUTLINE
  6
CONTINUOUS
 62
     3
 10
-158.75
 20
229.0
 30
0.0
 11
-153.5
 21
229.0
 31
0.0
  0
ENDSEC
  0
EOF
