  0
SECTION
  2
HEADER
  9
$ACADVER
  1
AC1009
  9
$INSBASE
 10
0.0
 20
0.0
 30
0.0
  9
$EXTMIN
 10
-1461.5709999999999
 20
-808.52458999999999
 30
0.0
  9
$EXTMAX
 10
1053.7578861430729
 20
839.43387384888968
 30
50.0
  9
$LIMMIN
 10
-2970.0
 20
-2100.0
  9
$LIMMAX
 10
2970.0
 20
2100.0
  9
$ORTHOMODE
 70
     1
  9
$REGENMODE
 70
     0
  9
$FILLMODE
 70
     1
  9
$QTEXTMODE
 70
     0
  9
$MIRRTEXT
 70
     0
  9
$DRAGMODE
 70
     2
  9
$LTSCALE
 40
20.0
  9
$OSMODE
 70
   175
  9
$ATTMODE
 70
     1
  9
$TEXTSIZE
 40
64.0
  9
$TRACEWID
 40
0.05
  9
$TEXTSTYLE
  7
STANDARD
  9
$CLAYER
  8
DETAIL
  9
$CELTYPE
  6
CONTINUOUS
  9
$CECOLOR
 62
     5
  9
$DIMSCALE
 40
1.0
  9
$DIMASZ
 40
12.0
  9
$DIMEXO
 40
20.0
  9
$DIMDLI
 40
200.0
  9
$DIMRND
 40
0.0
  9
$DIMDLE
 40
0.0
  9
$DIMEXE
 40
20.0
  9
$DIMTP
 40
0.0
  9
$DIMTM
 40
0.0
  9
$DIMTXT
 40
64.0
  9
$DIMCEN
 40
0.09
  9
$DIMTSZ
 40
0.0
  9
$DIMTOL
 70
     0
  9
$DIMLIM
 70
     0
  9
$DIMTIH
 70
     0
  9
$DIMTOH
 70
     0
  9
$DIMSE1
 70
     0
  9
$DIMSE2
 70
     0
  9
$DIMTAD
 70
     1
  9
$DIMZIN
 70
     8
  9
$DIMBLK
  1
DOT1
  9
$DIMASO
 70
     1
  9
$DIMSHO
 70
     0
  9
$DIMPOST
  1

  9
$DIMAPOST
  1

  9
$DIMALT
 70
     0
  9
$DIMALTD
 70
     2
  9
$DIMALTF
 40
25.399999999999999
  9
$DIMLFAC
 40
1.0
  9
$DIMTOFL
 70
     1
  9
$DIMTVP
 40
0.0
  9
$DIMTIX
 70
     1
  9
$DIMSOXD
 70
     0
  9
$DIMSAH
 70
     1
  9
$DIMBLK1
  1
ORIGIN
  9
$DIMBLK2
  1
ORIGIN
  9
$DIMSTYLE
  2
STANDARD
  9
$DIMCLRD
 70
     0
  9
$DIMCLRE
 70
     0
  9
$DIMCLRT
 70
     0
  9
$DIMTFAC
 40
1.0
  9
$DIMGAP
 40
0.09
  9
$LUNITS
 70
     2
  9
$LUPREC
 70
     4
  9
$SKETCHINC
 40
0.1
  9
$FILLETRAD
 40
15.0
  9
$AUNITS
 70
     1
  9
$AUPREC
 70
     3
  9
$MENU
  1
ACAD
  9
$ELEVATION
 40
0.0
  9
$PELEVATION
 40
0.0
  9
$THICKNESS
 40
50.0
  9
$LIMCHECK
 70
     0
  9
$BLIPMODE
 70
     0
  9
$CHAMFERA
 40
0.0
  9
$CHAMFERB
 40
0.0
  9
$SKPOLY
 70
     0
  9
$TDCREATE
 40
2452321.3961996529
  9
$TDUPDATE
 40
2453777.6124972799
  9
$TDINDWG
 40
0.2435449884
  9
$TDUSRTIMER
 40
0.2435448148
  9
$USRTIMER
 70
     1
  9
$ANGBASE
 50
0.0
  9
$ANGDIR
 70
     0
  9
$PDMODE
 70
     3
  9
$PDSIZE
 40
-2.0
  9
$PLINEWID
 40
0.0
  9
$COORDS
 70
     2
  9
$SPLFRAME
 70
     0
  9
$SPLINETYPE
 70
     6
  9
$SPLINESEGS
 70
     8
  9
$ATTDIA
 70
     0
  9
$ATTREQ
 70
     1
  9
$HANDLING
 70
 22529
  9
$HANDSEED
  5
3DE
  9
$SURFTAB1
 70
     6
  9
$SURFTAB2
 70
     6
  9
$SURFTYPE
 70
     6
  9
$SURFU
 70
     6
  9
$SURFV
 70
     6
  9
$UCSNAME
  2

  9
$UCSORG
 10
0.0
 20
0.0
 30
0.0
  9
$UCSXDIR
 10
1.0
 20
0.0
 30
0.0
  9
$UCSYDIR
 10
0.0
 20
1.0
 30
0.0
  9
$PUCSNAME
  2

  9
$PUCSORG
 10
0.0
 20
0.0
 30
0.0
  9
$PUCSXDIR
 10
1.0
 20
0.0
 30
0.0
  9
$PUCSYDIR
 10
0.0
 20
1.0
 30
0.0
  9
$USERI1
 70
     0
  9
$USERI2
 70
     0
  9
$USERI3
 70
     0
  9
$USERI4
 70
     0
  9
$USERI5
 70
     0
  9
$USERR1
 40
20.0
  9
$USERR2
 40
0.0
  9
$USERR3
 40
0.0
  9
$USERR4
 40
0.0
  9
$USERR5
 40
0.0
  9
$WORLDVIEW
 70
     1
  9
$SHADEDGE
 70
     3
  9
$SHADEDIF
 70
    70
  9
$TILEMODE
 70
     1
  9
$MAXACTVP
 70
    64
  9
$PLIMCHECK
 70
     0
  9
$PEXTMIN
 10
1.0000000000000000E+020
 20
1.0000000000000000E+020
 30
1.0000000000000000E+020
  9
$PEXTMAX
 10
-1.0000000000000000E+020
 20
-1.0000000000000000E+020
 30
-1.0000000000000000E+020
  9
$PLIMMIN
 10
0.0
 20
0.0
  9
$PLIMMAX
 10
12.0
 20
9.0
  9
$UNITMODE
 70
     0
  9
$VISRETAIN
 70
     1
  9
$PLINEGEN
 70
     0
  9
$PSLTSCALE
 70
     1
  0
ENDSEC
  0
SECTION
  2
TABLES
  0
TABLE
  2
VPORT
 70
     3
  0
VPORT
  2
*ACTIVE
 70
     0
 10
0.0
 20
0.0
 11
1.0
 21
1.0
 12
-62.969971979511683
 22
66.892501253877285
 13
0.0
 23
0.0
 14
1.0
 24
1.0
 15
0.0
 25
0.0
 16
0.0
 26
0.0
 36
1.0
 17
0.0
 27
0.0
 37
0.0
 40
2173.5115140197158
 41
1.447268106734434
 42
50.0
 43
0.0
 44
0.0
 50
0.0
 51
0.0
 71
     0
 72
   100
 73
     1
 74
     0
 75
     0
 76
     0
 77
     0
 78
     0
  0
ENDTAB
  0
TABLE
  2
LTYPE
 70
     2
  0
LTYPE
  2
CONTINUOUS
 70
     0
  3
Ä└É³
 72
    65
 73
     0
 40
0.0
  0
LTYPE
  2
DASHDOT
 70
     0
  3
____ _ ____ _ ____ _ ____ _ ____ _ ____ _ ____
 72
    65
 73
     4
 40
5.5
 49
4.0
 49
-0.6
 49
0.3
 49
-0.6
  0
ENDTAB
  0
TABLE
  2
LAYER
 70
    12
  0
LAYER
  2
0
 70
     0
 62
     7
  6
CONTINUOUS
  0
LAYER
  2
DETAIL
 70
     0
 62
     5
  6
CONTINUOUS
  0
LAYER
  2
SIZE
 70
     0
 62
    30
  6
CONTINUOUS
  0
LAYER
  2
BASIS
 70
     0
 62
     6
  6
DASHDOT
  0
LAYER
  2
OUTLINE
 70
     0
 62
     3
  6
CONTINUOUS
  0
LAYER
  2
ARRANGE
 70
     0
 62
     1
  6
CONTINUOUS
  0
LAYER
  2
DEFPOINTS
 70
     0
 62
     7
  6
CONTINUOUS
  0
LAYER
  2
ETC
 70
     0
 62
    61
  6
CONTINUOUS
  0
LAYER
  2
FIX
 70
     0
 62
    11
  6
CONTINUOUS
  0
LAYER
  2
NOTE
 70
     0
 62
     4
  6
CONTINUOUS
  0
LAYER
  2
SERVICESPACE
 70
     0
 62
     2
  6
DASHDOT
  0
LAYER
  2
SYMBOLLINE
 70
     0
 62
    15
  6
CONTINUOUS
  0
ENDTAB
  0
TABLE
  2
STYLE
 70
     1
  0
STYLE
  2
STANDARD
 70
     0
 40
64.0
 41
0.9
 50
0.0
 71
     0
 42
64.0
  3
SIMPLEX.shx
  4
BIGFONT.shx
  0
ENDTAB
  0
TABLE
  2
VIEW
 70
     1
  0
VIEW
  2
ALL
 70
     0
 40
4282.6198079999976
 10
0.0
 20
41.309903999999989
 41
5940.0
 11
0.0
 21
0.0
 31
1.0
 12
0.0
 22
0.0
 32
0.0
 42
50.0
 43
0.0
 44
0.0
 50
0.0
 71
     0
  0
ENDTAB
  0
TABLE
  2
UCS
 70
     0
  0
ENDTAB
  0
TABLE
  2
APPID
 70
     1
  0
APPID
  2
ACAD
 70
     0
  0
ENDTAB
  0
TABLE
  2
DIMSTYLE
 70
     1
  0
DIMSTYLE
  2
STANDARD
 70
     0
  3

  4

  5

  6

  7

 40
1.0
 41
0.18
 42
0.0625
 43
0.38
 44
0.18
 45
0.0
 46
0.0
 47
0.0
 48
0.0
140
0.18
141
0.09
142
0.0
143
25.399999999999999
144
1.0
145
0.0
146
1.0
147
0.09
 71
     0
 72
     0
 73
     1
 74
     1
 75
     0
 76
     0
 77
     0
 78
     0
170
     0
171
     2
172
     0
173
     0
174
     0
175
     0
176
     0
177
     0
178
     0
  0
ENDTAB
  0
ENDSEC
  0
SECTION
  2
BLOCKS
  0
BLOCK
  8
0
  2
$MODEL_SPACE
 70
     0
 10
0.0
 20
0.0
 30
0.0
  3
$MODEL_SPACE
  1

  0
ENDBLK
  5
23A
  8
0
  0
BLOCK
 67
     1
  8
0
  2
$PAPER_SPACE
 70
     0
 10
0.0
 20
0.0
 30
0.0
  3
$PAPER_SPACE
  1

  0
ENDBLK
  5
236
 67
     1
  8
0
  0
BLOCK
  8
0
  2
DOT1
 70
     0
 10
0.0
 20
0.0
 30
0.0
  3
DOT1
  1

  0
CIRCLE
  5
255
  8
SIZE
  6
CONTINUOUS
 62
     7
 10
0.0
 20
0.0
 30
0.0
 40
3.0
  0
ENDBLK
  5
256
  8
0
  0
BLOCK
  8
0
  2
_ORIGIN
 70
     0
 10
0.0
 20
0.0
 30
0.0
  3
_ORIGIN
  1

  0
CIRCLE
  5
259
  8
0
  6
CONTINUOUS
 62
     7
 10
0.0
 20
0.0
 30
0.0
 40
0.5
  0
LINE
  5
25A
  8
0
  6
CONTINUOUS
 62
     7
 10
0.0
 20
0.0
 30
0.0
 11
-1.0
 21
0.0
 31
0.0
  0
ENDBLK
  5
25B
  8
0
  0
ENDSEC
  0
SECTION
  2
ENTITIES
  0
TEXT
  5
25C
  8
NOTE
  6
CONTINUOUS
 62
     4
 10
-131.3540549999999
 20
93.436004999999994
 30
0.0
 40
64.0
  1
EA
 41
0.9
  0
CIRCLE
  5
25D
  8
ARRANGE
  6
CONTINUOUS
 62
     1
 10
0.0
 20
0.0
 30
0.0
 40
40.0
  0
LINE
  5
25E
  8
DETAIL
  6
CONTINUOUS
 62
     5
 10
-185.7499999999998
 20
208.0
 30
0.0
 11
-185.7499999999998
 21
204.49999999999989
 31
0.0
  0
LINE
  5
25F
  8
DETAIL
  6
CONTINUOUS
 62
     5
 10
-185.7499999999998
 20
208.0
 30
0.0
 11
-180.489958
 21
208.0
 31
0.0
  0
LINE
  5
260
  8
BASIS
  6
DASHDOT
 62
     6
 10
0.0
 20
-69.69345899999999
 30
0.0
 11
0.0
 21
291.47948300000002
 31
0.0
  0
LINE
  5
261
  8
BASIS
  6
DASHDOT
 62
     6
 10
23.0
 20
173.87266099999999
 30
0.0
 11
23.0
 21
265.88841500000001
 31
0.0
  0
LINE
  5
262
  8
BASIS
  6
DASHDOT
 62
     6
 10
-85.5
 20
27.787792
 30
0.0
 11
-85.5
 21
240.068172
 31
0.0
  0
LINE
  5
263
  8
DETAIL
  6
CONTINUOUS
 62
     5
 10
81.0
 20
208.0
 30
0.0
 11
16.5
 21
208.0
 31
0.0
  0
LINE
  5
264
  8
DETAIL
  6
CONTINUOUS
 62
     5
 10
-153.5
 20
0.0
 30
0.0
 11
-153.5
 21
47.746687999999992
 31
0.0
  0
LINE
  5
265
  8
DETAIL
  6
CONTINUOUS
 62
     5
 10
153.5
 20
0.0
 30
0.0
 11
153.5
 21
208.0
 31
0.0
  0
LINE
  5
266
  8
DETAIL
  6
CONTINUOUS
 62
     5
 10
-177.5
 20
85.0
 30
0.0
 11
-177.5
 21
190.40065100000001
 31
0.0
  0
LINE
  5
267
  8
DETAIL
  6
CONTINUOUS
 62
     5
 10
-32.199241000000001
 20
227.0
 30
0.0
 11
-138.80075899999991
 21
227.0
 31
0.0
  0
LINE
  5
268
  8
DETAIL
  6
CONTINUOUS
 62
     5
 10
-32.199241000000001
 20
43.0
 30
0.0
 11
-138.80075899999991
 21
43.0
 31
0.0
  0
LINE
  5
269
  8
DETAIL
  6
CONTINUOUS
 62
     5
 10
185.7499999999998
 20
208.0
 30
0.0
 11
185.7499999999998
 21
204.49999999999989
 31
0.0
  0
LINE
  5
26A
  8
DETAIL
  6
CONTINUOUS
 62
     5
 10
185.7499999999998
 20
208.0
 30
0.0
 11
153.5
 21
208.0
 31
0.0
  0
LINE
  5
26B
  8
DETAIL
  6
CONTINUOUS
 62
     5
 10
155.25
 20
208.0
 30
0.0
 11
155.25
 21
7.0
 31
0.0
  0
LINE
  5
26C
  8
DETAIL
  6
CONTINUOUS
 62
     5
 10
158.75
 20
7.0
 30
0.0
 11
153.5
 21
7.0
 31
0.0
  0
LINE
  5
26D
  8
DETAIL
  6
CONTINUOUS
 62
     5
 10
185.7499999999998
 20
204.49999999999989
 30
0.0
 11
158.75
 21
204.49999999999989
 31
0.0
  0
LINE
  5
26E
  8
DETAIL
  6
CONTINUOUS
 62
     5
 10
158.75
 20
204.49999999999989
 30
0.0
 11
158.75
 21
7.0
 31
0.0
  0
LINE
  5
26F
  8
DETAIL
  6
CONTINUOUS
 62
     5
 10
-185.7499999999998
 20
204.49999999999989
 30
0.0
 11
-180.4999999999998
 21
204.49999999999989
 31
0.0
  0
LINE
  5
270
  8
DETAIL
  6
CONTINUOUS
 62
     5
 10
-38.500002000000002
 20
215.0
 30
0.0
 11
-132.50000199999999
 21
215.0
 31
0.0
  0
LINE
  5
271
  8
DETAIL
  6
CONTINUOUS
 62
     5
 10
-162.5
 20
85.0
 30
0.0
 11
-162.5
 21
185.0
 31
0.0
  0
ARC
  5
272
  8
DETAIL
  6
CONTINUOUS
 62
     5
 10
-132.4999999999998
 20
185.0
 30
0.0
 40
30.0
 50
90.0
 51
180.0
  0
ARC
  5
273
  8
DETAIL
  6
CONTINUOUS
 62
     5
 10
-132.4999999999998
 20
85.0
 30
0.0
 40
30.0
 50
180.0
 51
270.0
  0
LINE
  5
274
  8
NOTE
  6
CONTINUOUS
 62
     4
 10
170.5
 20
188.0
 30
0.0
 11
170.5
 21
228.0
 31
0.0
  0
LINE
  5
275
  8
NOTE
  6
CONTINUOUS
 62
     4
 10
150.5
 20
208.0
 30
0.0
 11
190.5
 21
208.0
 31
0.0
  0
LINE
  5
276
  8
NOTE
  6
CONTINUOUS
 62
     4
 10
130.0
 20
180.0
 30
0.0
 11
130.0
 21
220.0
 31
0.0
  0
LINE
  5
277
  8
NOTE
  6
CONTINUOUS
 62
     4
 10
110.0
 20
200.0
 30
0.0
 11
150.0
 21
200.0
 31
0.0
  0
LINE
  5
278
  8
DETAIL
  6
CONTINUOUS
 62
     5
 10
-158.75
 20
7.0
 30
0.0
 11
-153.5
 21
7.0
 31
0.0
  0
LINE
  5
279
  8
DETAIL
  6
CONTINUOUS
 62
     5
 10
-158.75
 20
47.746687999999992
 30
0.0
 11
-158.75
 21
7.0
 31
0.0
  0
LINE
  5
27A
  8
DETAIL
  6
CONTINUOUS
 62
     5
 10
-155.25
 20
47.746687999999992
 30
0.0
 11
-155.25
 21
7.0
 31
0.0
  0
ARC
  5
27B
  8
DETAIL
  6
CONTINUOUS
 62
     5
 10
66.939999999999984
 20
242.94001399999991
 30
0.0
 40
5.060001999999999
 50
0.000001
 51
90.0
  0
LINE
  5
27C
  8
DETAIL
  6
CONTINUOUS
 62
     5
 10
72.0
 20
208.0
 30
0.0
 11
72.0
 21
242.94001399999991
 31
0.0
  0
LINE
  5
27D
  8
DETAIL
  6
CONTINUOUS
 62
     5
 10
-20.952642000000001
 20
248.0
 30
0.0
 11
23.0
 21
248.0
 31
0.0
  0
ARC
  5
27E
  8
DETAIL
  6
CONTINUOUS
 62
     5
 10
-20.940000000000001
 20
242.94001399999991
 30
0.0
 40
5.060001999999999
 50
90.0
 51
179.999999
  0
LINE
  5
27F
  8
DETAIL
  6
CONTINUOUS
 62
     5
 10
-26.0
 20
229.0
 30
0.0
 11
-26.0
 21
242.9442279999999
 31
0.0
  0
LINE
  5
280
  8
DETAIL
  6
CONTINUOUS
 62
     5
 10
66.952641999999997
 20
248.0
 30
0.0
 11
23.0
 21
248.0
 31
0.0
  0
CIRCLE
  5
281
  8
FIX
  6
CONTINUOUS
 62
    11
 10
100.0
 20
0.0
 30
0.0
 40
2.5
  0
LINE
  5
282
  8
NOTE
  6
CONTINUOUS
 62
     4
 10
100.0
 20
-20.0
 30
0.0
 11
100.0
 21
20.0
 31
0.0
  0
LINE
  5
283
  8
NOTE
  6
CONTINUOUS
 62
     4
 10
80.0
 20
0.0
 30
0.0
 11
120.0
 21
0.0
 31
0.0
  0
CIRCLE
  5
284
  8
FIX
  6
CONTINUOUS
 62
    11
 10
166.0
 20
0.0
 30
0.0
 40
2.5
  0
LINE
  5
285
  8
NOTE
  6
CONTINUOUS
 62
     4
 10
166.0
 20
-20.0
 30
0.0
 11
166.0
 21
20.0
 31
0.0
  0
LINE
  5
286
  8
NOTE
  6
CONTINUOUS
 62
     4
 10
146.0
 20
0.0
 30
0.0
 11
186.0
 21
0.0
 31
0.0
  0
CIRCLE
  5
287
  8
FIX
  6
CONTINUOUS
 62
    11
 10
170.5
 20
208.0
 30
0.0
 40
7.5
  0
LINE
  5
288
  8
DETAIL
  6
CONTINUOUS
 62
     5
 10
153.5
 20
200.0
 30
0.0
 11
16.5
 21
200.0
 31
0.0
  0
LINE
  5
289
  8
NOTE
  6
CONTINUOUS
 62
     4
 10
415.94590899999992
 20
371.10022799999979
 30
0.0
 11
727.03099999999995
 21
371.10022799999979
 31
0.0
  0
TEXT
  5
28A
  8
NOTE
  6
CONTINUOUS
 62
     4
 10
-801.54976199999987
 20
-218.62643399999999
 30
0.0
 40
64.0
  1
8-âË5ü~8
 41
0.9
  0
LINE
  5
28B
  8
NOTE
  6
CONTINUOUS
 62
     4
 10
-1461.5709999999999
 20
509.51199100000002
 30
0.0
 11
-462.564637
 21
509.51199100000002
 31
0.0
  0
LINE
  5
28C
  8
NOTE
  6
CONTINUOUS
 62
     4
 10
-170.5
 20
208.0
 30
0.0
 11
-462.564637
 21
509.51199100000002
 31
0.0
  0
LINE
  5
28D
  8
NOTE
  6
CONTINUOUS
 62
     4
 10
-205.14520200000001
 20
227.99274800000001
 30
0.0
 11
-170.5
 21
208.0
 31
0.0
  0
LINE
  5
28E
  8
NOTE
  6
CONTINUOUS
 62
     4
 10
-170.5
 20
208.0
 30
0.0
 11
-190.507251
 21
242.63682900000001
 31
0.0
  0
LINE
  5
28F
  8
NOTE
  6
CONTINUOUS
 62
     4
 10
-438.03398099999993
 20
-251.59070399999999
 30
0.0
 11
-831.04210499999999
 21
-251.59070399999999
 31
0.0
  0
LINE
  5
290
  8
NOTE
  6
CONTINUOUS
 62
     4
 10
-166.01125400000001
 20
-0.053252
 30
0.0
 11
-438.03398099999993
 21
-251.59070399999999
 31
0.0
  0
LINE
  5
291
  8
NOTE
  6
CONTINUOUS
 62
     4
 10
-186.8410929999998
 20
-34.139826999999997
 30
0.0
 11
-165.98712499999991
 21
-0.00609
 31
0.0
  0
LINE
  5
292
  8
NOTE
  6
CONTINUOUS
 62
     4
 10
-165.98712499999991
 20
-0.00609
 30
0.0
 11
-201.11405999999999
 21
-19.139789
 31
0.0
  0
TEXT
  5
293
  8
NOTE
  6
CONTINUOUS
 62
     4
 10
-1438.5550000000001
 20
549.43547699999999
 30
0.0
 40
64.0
  1
AH 4-âË15ü~22(4ô_Æ¦éÞ)
 41
0.9
  0
TEXT
  5
294
  8
NOTE
  6
CONTINUOUS
 62
     4
 10
449.040434
 20
390.03581700000001
 30
0.0
 40
64.0
  1
EL âË19
 41
0.9
  0
LINE
  5
295
  8
DETAIL
  6
CONTINUOUS
 62
     5
 10
-145.308673
 20
224.59256600000001
 30
0.0
 11
-174.0079139999998
 21
197.9932169999999
 31
0.0
  0
ARC
  5
296
  8
DETAIL
  6
CONTINUOUS
 62
     5
 10
-138.80075899999991
 20
217.0
 30
0.0
 40
10.0
 50
90.0
 51
130.60129499999991
  0
ARC
  5
297
  8
DETAIL
  6
CONTINUOUS
 62
     5
 10
-167.5
 20
190.40065100000001
 30
0.0
 40
10.0
 50
130.60129499999991
 51
180.0
  0
LINE
  5
298
  8
DETAIL
  6
CONTINUOUS
 62
     5
 10
-145.308673
 20
45.407434000000002
 30
0.0
 11
-174.0079139999998
 21
72.006782999999984
 31
0.0
  0
ARC
  5
299
  8
DETAIL
  6
CONTINUOUS
 62
     5
 10
-138.80075899999991
 20
53.0
 30
0.0
 40
10.0
 50
229.39870499999981
 51
270.0
  0
ARC
  5
29A
  8
DETAIL
  6
CONTINUOUS
 62
     5
 10
-167.5
 20
79.599349000000004
 30
0.0
 40
10.0
 50
180.0
 51
229.39870499999981
  0
LINE
  5
29B
  8
DETAIL
  6
CONTINUOUS
 62
     5
 10
-177.5
 20
85.0
 30
0.0
 11
-177.5
 21
79.599349000000004
 31
0.0
  0
ARC
  5
29C
  8
DETAIL
  6
CONTINUOUS
 62
     5
 10
-158.70935299999991
 20
207.28122999999991
 30
0.0
 40
21.792462
 50
94.713205000000002
 51
180.739417
  0
CIRCLE
  5
29D
  8
DETAIL
  6
CONTINUOUS
 62
     5
 10
-85.5
 20
135.0
 30
0.0
 40
76.0
  0
CIRCLE
  5
29E
  8
DETAIL
  6
CONTINUOUS
 62
     5
 10
-85.5
 20
135.0
 30
0.0
 40
72.0
  0
LINE
  5
29F
  8
NOTE
  6
CONTINUOUS
 62
     4
 10
130.0
 20
200.0
 30
0.0
 11
415.94590899999992
 21
371.10022799999979
 31
0.0
  0
LINE
  5
2A0
  8
NOTE
  6
CONTINUOUS
 62
     4
 10
157.77221900000001
 20
228.78721699999991
 30
0.0
 11
130.0
 21
200.0
 31
0.0
  0
LINE
  5
2A1
  8
NOTE
  6
CONTINUOUS
 62
     4
 10
130.0
 20
200.0
 30
0.0
 11
168.44505599999991
 21
211.04435099999981
 31
0.0
  0
ARC
  5
2A2
  8
DETAIL
  6
CONTINUOUS
 62
     5
 10
-38.5
 20
185.0
 30
0.0
 40
30.0
 50
0.0
 51
90.0
  0
LINE
  5
2A3
  8
DETAIL
  6
CONTINUOUS
 62
     5
 10
-8.5
 20
85.0
 30
0.0
 11
-8.5
 21
185.0
 31
0.0
  0
ARC
  5
2A4
  8
DETAIL
  6
CONTINUOUS
 62
     5
 10
-38.5
 20
85.0
 30
0.0
 40
30.0
 50
270.0
 51
0.0
  0
LINE
  5
2A5
  8
DETAIL
  6
CONTINUOUS
 62
     5
 10
-132.4999999999998
 20
55.0
 30
0.0
 11
-38.5
 21
55.0
 31
0.0
  0
LINE
  5
2A6
  8
DETAIL
  6
CONTINUOUS
 62
     5
 10
-25.69132699999999
 20
224.59256600000001
 30
0.0
 11
3.0079139999999991
 21
197.9932169999999
 31
0.0
  0
ARC
  5
2A7
  8
DETAIL
  6
CONTINUOUS
 62
     5
 10
-32.199241000000001
 20
217.0
 30
0.0
 40
10.0
 50
49.398705000000007
 51
90.0
  0
ARC
  5
2A8
  8
DETAIL
  6
CONTINUOUS
 62
     5
 10
-3.5
 20
190.40065100000001
 30
0.0
 40
10.0
 50
0.0
 51
49.398705000000007
  0
LINE
  5
2A9
  8
DETAIL
  6
CONTINUOUS
 62
     5
 10
-25.69132699999999
 20
45.407434000000002
 30
0.0
 11
3.0079139999999991
 21
72.006782999999984
 31
0.0
  0
ARC
  5
2AA
  8
DETAIL
  6
CONTINUOUS
 62
     5
 10
-3.5
 20
79.599349000000004
 30
0.0
 40
10.0
 50
310.60129499999999
 51
0.0
  0
ARC
  5
2AB
  8
DETAIL
  6
CONTINUOUS
 62
     5
 10
-32.199241000000001
 20
53.0
 30
0.0
 40
10.0
 50
270.0
 51
310.60129499999999
  0
LINE
  5
2AC
  8
DETAIL
  6
CONTINUOUS
 62
     5
 10
6.5
 20
190.40065100000001
 30
0.0
 11
6.5
 21
79.599349000000004
 31
0.0
  0
LINE
  5
2AD
  8
DETAIL
  6
CONTINUOUS
 62
     5
 10
153.5
 20
200.0
 30
0.0
 11
153.5
 21
208.0
 31
0.0
  0
ARC
  5
2AE
  8
DETAIL
  6
CONTINUOUS
 62
     5
 10
182.99999700000001
 20
-0.8571229999999998
 30
0.0
 40
7.0
 50
281.92691500000001
 51
0.0
  0
LINE
  5
2AF
  8
DETAIL
  6
CONTINUOUS
 62
     5
 10
190.0
 20
-0.8571229999999998
 30
0.0
 11
190.0
 21
0.0
 31
0.0
  0
LINE
  5
2B0
  8
DETAIL
  6
CONTINUOUS
 62
     5
 10
148.094582
 20
-15.0
 30
0.0
 11
0.0
 21
-15.0
 31
0.0
  0
ARC
  5
2B1
  8
DETAIL
  6
CONTINUOUS
 62
     5
 10
66.98603
 20
483.46498399999979
 30
0.0
 40
505.02072999999979
 50
279.24197999999978
 51
283.44935199999992
  0
LINE
  5
2B2
  8
DETAIL
  6
CONTINUOUS
 62
     5
 10
-148.094582
 20
-15.0
 30
0.0
 11
0.0
 21
-15.0
 31
0.0
  0
ARC
  5
2B3
  8
DETAIL
  6
CONTINUOUS
 62
     5
 10
-66.98603
 20
483.46498399999979
 30
0.0
 40
505.02072999999979
 50
256.55064800000002
 51
260.75801999999999
  0
ARC
  5
2B4
  8
DETAIL
  6
CONTINUOUS
 62
     5
 10
-182.99999700000001
 20
-0.8571229999999998
 30
0.0
 40
7.0
 50
180.0
 51
258.07308499999999
  0
LINE
  5
2B5
  8
DETAIL
  6
CONTINUOUS
 62
     5
 10
-190.0
 20
-0.8571229999999998
 30
0.0
 11
-190.0
 21
0.0
 31
0.0
  0
LINE
  5
2B6
  8
NOTE
  6
CONTINUOUS
 62
     4
 10
-170.5
 20
188.0
 30
0.0
 11
-170.5
 21
228.0
 31
0.0
  0
LINE
  5
2B7
  8
NOTE
  6
CONTINUOUS
 62
     4
 10
-150.5
 20
208.0
 30
0.0
 11
-190.5
 21
208.0
 31
0.0
  0
CIRCLE
  5
2B8
  8
FIX
  6
CONTINUOUS
 62
    11
 10
-170.5
 20
208.0
 30
0.0
 40
7.5
  0
LINE
  5
2B9
  8
DETAIL
  6
CONTINUOUS
 62
     5
 10
153.5
 20
192.0
 30
0.0
 11
16.5
 21
192.0
 31
0.0
  0
LINE
  5
2BA
  8
DETAIL
  6
CONTINUOUS
 62
     5
 10
81.0
 20
208.0
 30
0.0
 11
87.394959999999998
 21
200.0
 31
0.0
  0
LINE
  5
2BB
  8
SIZE
  6
CONTINUOUS
 62
    30
 10
-105.4306899999998
 20
55.0
 30
0.0
 11
-704.57424000000003
 21
55.0
 31
0.0
  0
LINE
  5
2BC
  8
SIZE
  6
CONTINUOUS
 62
    30
 10
-105.4306899999998
 20
215.0
 30
0.0
 11
-704.57424000000003
 21
215.0
 31
0.0
  0
LINE
  5
2BD
  8
SIZE
  6
CONTINUOUS
 62
    30
 10
-684.57424000000003
 20
67.0
 30
0.0
 11
-684.57424000000003
 21
203.0
 31
0.0
  0
TEXT
  5
2BE
  8
SIZE
  6
CONTINUOUS
 62
    30
 10
-711.77711699999998
 20
22.14477742857142
 30
0.0
 40
64.0
  1
üá160
 50
90.0
 41
0.9
 72
     1
 11
-711.77711699999998
 21
127.196206
 31
0.0
  0
CIRCLE
  5
2BF
  8
SIZE
  6
CONTINUOUS
 62
    30
 10
-684.57424000000003
 20
55.0
 30
0.0
 40
6.0
  0
LINE
  5
2C0
  8
SIZE
  6
CONTINUOUS
 62
    30
 10
-684.57424000000003
 20
55.0
 30
0.0
 11
-684.57424000000003
 21
67.0
 31
0.0
  0
CIRCLE
  5
2C1
  8
SIZE
  6
CONTINUOUS
 62
    30
 10
-684.57424000000003
 20
215.0
 30
0.0
 40
6.0
  0
LINE
  5
2C2
  8
SIZE
  6
CONTINUOUS
 62
    30
 10
-684.57424000000003
 20
215.0
 30
0.0
 11
-684.57424000000003
 21
203.0
 31
0.0
  0
LINE
  5
2C3
  8
SIZE
  6
CONTINUOUS
 62
    30
 10
-105.4306899999998
 20
59.0
 30
0.0
 11
-604.83479199999999
 21
59.0
 31
0.0
  0
LINE
  5
2C4
  8
SIZE
  6
CONTINUOUS
 62
    30
 10
-105.4306899999998
 20
211.0
 30
0.0
 11
-604.83479199999999
 21
211.0
 31
0.0
  0
LINE
  5
2C5
  8
SIZE
  6
CONTINUOUS
 62
    30
 10
-584.83479199999999
 20
71.0
 30
0.0
 11
-584.83479199999999
 21
199.0
 31
0.0
  0
LINE
  5
2C6
  8
SIZE
  6
CONTINUOUS
 62
    30
 10
-584.83479199999999
 20
484.78978099999989
 30
0.0
 11
-584.83479199999999
 21
211.0
 31
0.0
  0
TEXT
  5
2C7
  8
SIZE
  6
CONTINUOUS
 62
    30
 10
-609.83479199999999
 20
253.52692342857139
 30
0.0
 40
64.0
  1
âË152
 50
90.0
 41
0.9
 72
     1
 11
-609.83479199999999
 21
362.41835200000003
 31
0.0
  0
CIRCLE
  5
2C8
  8
SIZE
  6
CONTINUOUS
 62
    30
 10
-584.83479199999999
 20
59.0
 30
0.0
 40
6.0
  0
LINE
  5
2C9
  8
SIZE
  6
CONTINUOUS
 62
    30
 10
-584.83479199999999
 20
59.0
 30
0.0
 11
-584.83479199999999
 21
71.0
 31
0.0
  0
CIRCLE
  5
2CA
  8
SIZE
  6
CONTINUOUS
 62
    30
 10
-584.83479199999999
 20
211.0
 30
0.0
 40
6.0
  0
LINE
  5
2CB
  8
SIZE
  6
CONTINUOUS
 62
    30
 10
-584.83479199999999
 20
211.0
 30
0.0
 11
-584.83479199999999
 21
199.0
 31
0.0
  0
LINE
  5
2CC
  8
SIZE
  6
CONTINUOUS
 62
    30
 10
-105.4306899999998
 20
207.0
 30
0.0
 11
-494.44294000000002
 21
207.0
 31
0.0
  0
LINE
  5
2CD
  8
SIZE
  6
CONTINUOUS
 62
    30
 10
-105.4306899999998
 20
63.0
 30
0.0
 11
-494.44294000000002
 21
63.0
 31
0.0
  0
LINE
  5
2CE
  8
SIZE
  6
CONTINUOUS
 62
    30
 10
-474.44294000000002
 20
195.0
 30
0.0
 11
-474.44294000000002
 21
75.0
 31
0.0
  0
LINE
  5
2CF
  8
SIZE
  6
CONTINUOUS
 62
    30
 10
-474.44294000000002
 20
486.16120899999999
 30
0.0
 11
-474.44294000000002
 21
207.0
 31
0.0
  0
TEXT
  5
2D0
  8
SIZE
  6
CONTINUOUS
 62
    30
 10
-499.44294000000002
 20
252.15549485714291
 30
0.0
 40
64.0
  1
âË144
 50
90.0
 41
0.9
 72
     1
 11
-499.44294000000002
 21
362.41835200000003
 31
0.0
  0
CIRCLE
  5
2D1
  8
SIZE
  6
CONTINUOUS
 62
    30
 10
-474.44294000000002
 20
207.0
 30
0.0
 40
6.0
  0
LINE
  5
2D2
  8
SIZE
  6
CONTINUOUS
 62
    30
 10
-474.44294000000002
 20
207.0
 30
0.0
 11
-474.44294000000002
 21
195.0
 31
0.0
  0
CIRCLE
  5
2D3
  8
SIZE
  6
CONTINUOUS
 62
    30
 10
-474.44294000000002
 20
63.0
 30
0.0
 40
6.0
  0
LINE
  5
2D4
  8
SIZE
  6
CONTINUOUS
 62
    30
 10
-474.44294000000002
 20
63.0
 30
0.0
 11
-474.44294000000002
 21
75.0
 31
0.0
  0
LINE
  5
2D5
  8
SIZE
  6
CONTINUOUS
 62
    30
 10
115.5
 20
353.62182000000001
 30
0.0
 11
356.44273299999998
 21
353.62182000000001
 31
0.0
  0
LINE
  5
2D6
  8
SIZE
  6
CONTINUOUS
 62
    30
 10
23.0
 20
470.56585599999988
 30
0.0
 11
306.98641400000002
 21
470.56585599999988
 31
0.0
  0
LINE
  5
2D7
  8
SIZE
  6
CONTINUOUS
 62
    30
 10
-69.0
 20
470.56585599999988
 30
0.0
 11
-378.47816899999992
 21
470.56585599999988
 31
0.0
  0
LINE
  5
2D8
  8
SIZE
  6
CONTINUOUS
 62
    30
 10
396.09255400000001
 20
0.0
 30
0.0
 11
396.09255400000001
 21
-166.15110299999981
 31
0.0
  0
LINE
  5
2D9
  8
SIZE
  6
CONTINUOUS
 62
    30
 10
546.00811599999986
 20
208.0
 30
0.0
 11
546.00811599999986
 21
307.06305400000002
 31
0.0
  0
LINE
  5
2DA
  8
SIZE
  6
CONTINUOUS
 62
    30
 10
-474.44294000000002
 20
209.29705499999989
 30
0.0
 11
-474.44294000000002
 21
472.458191
 31
0.0
  0
LINE
  5
2DB
  8
SIZE
  6
CONTINUOUS
 62
    30
 10
-584.83479199999999
 20
217.2970549999998
 30
0.0
 11
-584.83479199999999
 21
470.16103500000003
 31
0.0
  0
LINE
  5
2DC
  8
DETAIL
  6
CONTINUOUS
 62
     5
 10
72.0
 20
213.0
 30
0.0
 11
16.5
 21
213.0
 31
0.0
  0
LINE
  5
2DD
  8
NOTE
  6
CONTINUOUS
 62
     4
 10
-100.0
 20
-20.0
 30
0.0
 11
-100.0
 21
20.0
 31
0.0
  0
LINE
  5
2DE
  8
NOTE
  6
CONTINUOUS
 62
     4
 10
-80.0
 20
0.0
 30
0.0
 11
-120.0
 21
0.0
 31
0.0
  0
CIRCLE
  5
2DF
  8
FIX
  6
CONTINUOUS
 62
    11
 10
-100.0
 20
0.0
 30
0.0
 40
2.5
  0
LINE
  5
2E0
  8
NOTE
  6
CONTINUOUS
 62
     4
 10
-166.0
 20
-20.0
 30
0.0
 11
-166.0
 21
20.0
 31
0.0
  0
LINE
  5
2E1
  8
NOTE
  6
CONTINUOUS
 62
     4
 10
-146.0
 20
0.0
 30
0.0
 11
-186.0
 21
0.0
 31
0.0
  0
CIRCLE
  5
2E2
  8
FIX
  6
CONTINUOUS
 62
    11
 10
-166.0
 20
0.0
 30
0.0
 40
2.5
  0
LINE
  5
2E3
  8
SIZE
  6
CONTINUOUS
 62
    30
 10
100.0
 20
-40.0
 30
0.0
 11
100.0
 21
-403.75348999999989
 31
0.0
  0
LINE
  5
2E4
  8
SIZE
  6
CONTINUOUS
 62
    30
 10
-100.0
 20
-40.0
 30
0.0
 11
-100.0
 21
-403.75348999999989
 31
0.0
  0
LINE
  5
2E5
  8
SIZE
  6
CONTINUOUS
 62
    30
 10
88.0
 20
-383.75348999999989
 30
0.0
 11
-88.0
 21
-383.75348999999989
 31
0.0
  0
TEXT
  5
2E6
  8
SIZE
  6
CONTINUOUS
 62
    30
 10
-74.05714285714285
 20
-356.82845900000001
 30
0.0
 40
64.0
  1
200
 41
0.9
 72
     1
 11
0.0
 21
-356.82845900000001
 31
0.0
  0
CIRCLE
  5
2E7
  8
SIZE
  6
CONTINUOUS
 62
    30
 10
100.0
 20
-383.75348999999989
 30
0.0
 40
6.0
  0
LINE
  5
2E8
  8
SIZE
  6
CONTINUOUS
 62
    30
 10
100.0
 20
-383.75348999999989
 30
0.0
 11
88.0
 21
-383.75348999999989
 31
0.0
  0
CIRCLE
  5
2E9
  8
SIZE
  6
CONTINUOUS
 62
    30
 10
-100.0
 20
-383.75348999999989
 30
0.0
 40
6.0
  0
LINE
  5
2EA
  8
SIZE
  6
CONTINUOUS
 62
    30
 10
-100.0
 20
-383.75348999999989
 30
0.0
 11
-88.0
 21
-383.75348999999989
 31
0.0
  0
LINE
  5
2EB
  8
SIZE
  6
CONTINUOUS
 62
    30
 10
153.5
 20
-20.0
 30
0.0
 11
153.5
 21
-544.4124099999998
 31
0.0
  0
LINE
  5
2EC
  8
SIZE
  6
CONTINUOUS
 62
    30
 10
-153.5
 20
-20.0
 30
0.0
 11
-153.5
 21
-544.4124099999998
 31
0.0
  0
LINE
  5
2ED
  8
SIZE
  6
CONTINUOUS
 62
    30
 10
141.5
 20
-524.41240999999991
 30
0.0
 11
-141.5
 21
-524.41240999999991
 31
0.0
  0
CIRCLE
  5
2EE
  8
SIZE
  6
CONTINUOUS
 62
    30
 10
153.5
 20
-524.41240999999991
 30
0.0
 40
6.0
  0
LINE
  5
2EF
  8
SIZE
  6
CONTINUOUS
 62
    30
 10
153.5
 20
-524.41240999999991
 30
0.0
 11
141.5
 21
-524.41240999999991
 31
0.0
  0
CIRCLE
  5
2F0
  8
SIZE
  6
CONTINUOUS
 62
    30
 10
-153.5
 20
-524.41240999999991
 30
0.0
 40
6.0
  0
LINE
  5
2F1
  8
SIZE
  6
CONTINUOUS
 62
    30
 10
-153.5
 20
-524.41240999999991
 30
0.0
 11
-141.5
 21
-524.41240999999991
 31
0.0
  0
TEXT
  5
2F2
  8
SIZE
  6
CONTINUOUS
 62
    30
 10
-110.5371428571428
 20
-499.41240999999991
 30
0.0
 40
64.0
  1
üá307
 41
0.9
 72
     1
 11
0.0
 21
-499.41240999999991
 31
0.0
  0
LINE
  5
2F3
  8
SIZE
  6
CONTINUOUS
 62
    30
 10
166.0
 20
-40.0
 30
0.0
 11
166.0
 21
-674.53152799999975
 31
0.0
  0
LINE
  5
2F4
  8
SIZE
  6
CONTINUOUS
 62
    30
 10
-166.0
 20
-40.0
 30
0.0
 11
-166.0
 21
-674.53152799999975
 31
0.0
  0
LINE
  5
2F5
  8
SIZE
  6
CONTINUOUS
 62
    30
 10
154.0
 20
-654.53152799999975
 30
0.0
 11
-154.0
 21
-654.53152799999975
 31
0.0
  0
CIRCLE
  5
2F6
  8
SIZE
  6
CONTINUOUS
 62
    30
 10
166.0
 20
-654.53152799999975
 30
0.0
 40
6.0
  0
LINE
  5
2F7
  8
SIZE
  6
CONTINUOUS
 62
    30
 10
166.0
 20
-654.53152799999975
 30
0.0
 11
154.0
 21
-654.53152799999975
 31
0.0
  0
CIRCLE
  5
2F8
  8
SIZE
  6
CONTINUOUS
 62
    30
 10
-166.0
 20
-654.53152799999975
 30
0.0
 40
6.0
  0
LINE
  5
2F9
  8
SIZE
  6
CONTINUOUS
 62
    30
 10
-166.0
 20
-654.53152799999975
 30
0.0
 11
-154.0
 21
-654.53152799999975
 31
0.0
  0
TEXT
  5
2FA
  8
SIZE
  6
CONTINUOUS
 62
    30
 10
-74.05714285714285
 20
-629.53152799999975
 30
0.0
 40
64.0
  1
332
 41
0.9
 72
     1
 11
0.0
 21
-629.53152799999975
 31
0.0
  0
LINE
  5
2FB
  8
SIZE
  6
CONTINUOUS
 62
    30
 10
190.0
 20
-20.0
 30
0.0
 11
190.0
 21
-808.52458999999999
 31
0.0
  0
LINE
  5
2FC
  8
SIZE
  6
CONTINUOUS
 62
    30
 10
-190.0
 20
-20.0
 30
0.0
 11
-190.0
 21
-808.52458999999999
 31
0.0
  0
LINE
  5
2FD
  8
SIZE
  6
CONTINUOUS
 62
    30
 10
178.0
 20
-788.52458999999999
 30
0.0
 11
-178.0
 21
-788.52458999999999
 31
0.0
  0
CIRCLE
  5
2FE
  8
SIZE
  6
CONTINUOUS
 62
    30
 10
190.0
 20
-788.52458999999999
 30
0.0
 40
6.0
  0
LINE
  5
2FF
  8
SIZE
  6
CONTINUOUS
 62
    30
 10
190.0
 20
-788.52458999999999
 30
0.0
 11
178.0
 21
-788.52458999999999
 31
0.0
  0
CIRCLE
  5
300
  8
SIZE
  6
CONTINUOUS
 62
    30
 10
-190.0
 20
-788.52458999999999
 30
0.0
 40
6.0
  0
LINE
  5
301
  8
SIZE
  6
CONTINUOUS
 62
    30
 10
-190.0
 20
-788.52458999999999
 30
0.0
 11
-178.0
 21
-788.52458999999999
 31
0.0
  0
TEXT
  5
302
  8
SIZE
  6
CONTINUOUS
 62
    30
 10
-110.5371428571428
 20
-763.52458999999999
 30
0.0
 40
64.0
  1
üá380
 41
0.9
 72
     1
 11
0.0
 21
-763.52458999999999
 31
0.0
  0
LINE
  5
303
  8
SIZE
  6
CONTINUOUS
 62
    30
 10
210.0
 20
0.0
 30
0.0
 11
416.09255400000001
 21
0.0
 31
0.0
  0
LINE
  5
304
  8
SIZE
  6
CONTINUOUS
 62
    30
 10
41.517730999999984
 20
135.0
 30
0.0
 11
416.09255400000001
 21
135.0
 31
0.0
  0
LINE
  5
305
  8
SIZE
  6
CONTINUOUS
 62
    30
 10
396.09255400000001
 20
12.0
 30
0.0
 11
396.09255400000001
 21
123.0
 31
0.0
  0
TEXT
  5
306
  8
SIZE
  6
CONTINUOUS
 62
    30
 10
370.87354499999992
 20
-159.3016395714285
 30
0.0
 40
64.0
  1
135
 50
90.0
 41
0.9
 72
     1
 11
370.87354499999992
 21
-90.730210999999997
 31
0.0
  0
CIRCLE
  5
307
  8
SIZE
  6
CONTINUOUS
 62
    30
 10
396.09255400000001
 20
0.0
 30
0.0
 40
6.0
  0
LINE
  5
308
  8
SIZE
  6
CONTINUOUS
 62
    30
 10
396.09255400000001
 20
0.0
 30
0.0
 11
396.09255400000001
 21
12.0
 31
0.0
  0
CIRCLE
  5
309
  8
SIZE
  6
CONTINUOUS
 62
    30
 10
396.09255400000001
 20
135.0
 30
0.0
 40
6.0
  0
LINE
  5
30A
  8
SIZE
  6
CONTINUOUS
 62
    30
 10
396.09255400000001
 20
135.0
 30
0.0
 11
396.09255400000001
 21
123.0
 31
0.0
  0
LINE
  5
30B
  8
SIZE
  6
CONTINUOUS
 62
    30
 10
173.5
 20
200.0
 30
0.0
 11
566.00811599999975
 21
200.0
 31
0.0
  0
LINE
  5
30C
  8
SIZE
  6
CONTINUOUS
 62
    30
 10
101.0
 20
208.0
 30
0.0
 11
566.00811599999975
 21
208.0
 31
0.0
  0
LINE
  5
30D
  8
SIZE
  6
CONTINUOUS
 62
    30
 10
546.00811599999986
 20
188.0
 30
0.0
 11
546.00811599999986
 21
176.0
 31
0.0
  0
LINE
  5
30E
  8
SIZE
  6
CONTINUOUS
 62
    30
 10
546.00811599999986
 20
220.0
 30
0.0
 11
546.00811599999986
 21
232.0
 31
0.0
  0
TEXT
  5
30F
  8
SIZE
  6
CONTINUOUS
 62
    30
 10
522.46408899999994
 20
256.72598599999992
 30
0.0
 40
64.0
  1
8
 50
90.0
 41
0.9
 72
     1
 11
522.46408899999994
 21
275.92598599999991
 31
0.0
  0
LINE
  5
310
  8
SIZE
  6
CONTINUOUS
 62
    30
 10
546.00811599999986
 20
200.0
 30
0.0
 11
546.00811599999986
 21
208.0
 31
0.0
  0
LINE
  5
311
  8
SIZE
  6
CONTINUOUS
 62
    30
 10
546.00811599999986
 20
200.0
 30
0.0
 11
546.00811599999986
 21
208.0
 31
0.0
  0
CIRCLE
  5
312
  8
SIZE
  6
CONTINUOUS
 62
    30
 10
546.00811599999986
 20
200.0
 30
0.0
 40
6.0
  0
LINE
  5
313
  8
SIZE
  6
CONTINUOUS
 62
    30
 10
546.00811599999986
 20
200.0
 30
0.0
 11
546.00811599999986
 21
188.0
 31
0.0
  0
CIRCLE
  5
314
  8
SIZE
  6
CONTINUOUS
 62
    30
 10
546.00811599999986
 20
208.0
 30
0.0
 40
6.0
  0
LINE
  5
315
  8
SIZE
  6
CONTINUOUS
 62
    30
 10
546.00811599999986
 20
208.0
 30
0.0
 11
546.00811599999986
 21
220.0
 31
0.0
  0
LINE
  5
316
  8
SIZE
  6
CONTINUOUS
 62
    30
 10
210.0
 20
0.0
 30
0.0
 11
566.00811599999975
 21
0.0
 31
0.0
  0
LINE
  5
317
  8
SIZE
  6
CONTINUOUS
 62
    30
 10
173.5
 20
200.0
 30
0.0
 11
566.00811599999975
 21
200.0
 31
0.0
  0
LINE
  5
318
  8
SIZE
  6
CONTINUOUS
 62
    30
 10
546.00811599999986
 20
12.0
 30
0.0
 11
546.00811599999986
 21
188.0
 31
0.0
  0
CIRCLE
  5
319
  8
SIZE
  6
CONTINUOUS
 62
    30
 10
546.00811599999986
 20
0.0
 30
0.0
 40
6.0
  0
LINE
  5
31A
  8
SIZE
  6
CONTINUOUS
 62
    30
 10
546.00811599999986
 20
0.0
 30
0.0
 11
546.00811599999986
 21
12.0
 31
0.0
  0
CIRCLE
  5
31B
  8
SIZE
  6
CONTINUOUS
 62
    30
 10
546.00811599999986
 20
200.0
 30
0.0
 40
6.0
  0
LINE
  5
31C
  8
SIZE
  6
CONTINUOUS
 62
    30
 10
546.00811599999986
 20
200.0
 30
0.0
 11
546.00811599999986
 21
188.0
 31
0.0
  0
TEXT
  5
31D
  8
SIZE
  6
CONTINUOUS
 62
    30
 10
521.00811599999986
 20
25.94285714285715
 30
0.0
 40
64.0
  1
200
 50
90.0
 41
0.9
 72
     1
 11
521.00811599999986
 21
100.0
 31
0.0
  0
LINE
  5
31E
  8
SIZE
  6
CONTINUOUS
 62
    30
 10
210.0
 20
0.0
 30
0.0
 11
703.59421799999996
 21
0.0
 31
0.0
  0
LINE
  5
31F
  8
SIZE
  6
CONTINUOUS
 62
    30
 10
34.5
 20
229.0
 30
0.0
 11
703.59421799999996
 21
229.0
 31
0.0
  0
LINE
  5
320
  8
SIZE
  6
CONTINUOUS
 62
    30
 10
683.59421799999996
 20
12.0
 30
0.0
 11
683.59421799999996
 21
217.0
 31
0.0
  0
TEXT
  5
321
  8
SIZE
  6
CONTINUOUS
 62
    30
 10
658.67587800000001
 20
40.81428571428571
 30
0.0
 40
64.0
  1
229
 50
90.0
 41
0.9
 72
     1
 11
658.67587800000001
 21
113.5
 31
0.0
  0
CIRCLE
  5
322
  8
SIZE
  6
CONTINUOUS
 62
    30
 10
683.59421799999996
 20
0.0
 30
0.0
 40
6.0
  0
LINE
  5
323
  8
SIZE
  6
CONTINUOUS
 62
    30
 10
683.59421799999996
 20
0.0
 30
0.0
 11
683.59421799999996
 21
12.0
 31
0.0
  0
CIRCLE
  5
324
  8
SIZE
  6
CONTINUOUS
 62
    30
 10
683.59421799999996
 20
229.0
 30
0.0
 40
6.0
  0
LINE
  5
325
  8
SIZE
  6
CONTINUOUS
 62
    30
 10
683.59421799999996
 20
229.0
 30
0.0
 11
683.59421799999996
 21
217.0
 31
0.0
  0
LINE
  5
326
  8
SIZE
  6
CONTINUOUS
 62
    30
 10
0.0
 20
311.47948300000002
 30
0.0
 11
0.0
 21
373.62182000000001
 31
0.0
  0
LINE
  5
327
  8
SIZE
  6
CONTINUOUS
 62
    30
 10
130.0
 20
240.0
 30
0.0
 11
130.0
 21
373.62182000000001
 31
0.0
  0
LINE
  5
328
  8
SIZE
  6
CONTINUOUS
 62
    30
 10
12.0
 20
353.62182000000001
 30
0.0
 11
118.0
 21
353.62182000000001
 31
0.0
  0
LINE
  5
329
  8
SIZE
  6
CONTINUOUS
 62
    30
 10
365.29884199999992
 20
353.62182000000001
 30
0.0
 11
130.0
 21
353.62182000000001
 31
0.0
  0
TEXT
  5
32A
  8
SIZE
  6
CONTINUOUS
 62
    30
 10
203.1559854285714
 20
378.62182000000001
 30
0.0
 40
64.0
  1
130
 41
0.9
 72
     1
 11
271.72741400000001
 21
378.62182000000001
 31
0.0
  0
CIRCLE
  5
32B
  8
SIZE
  6
CONTINUOUS
 62
    30
 10
0.0
 20
353.62182000000001
 30
0.0
 40
6.0
  0
LINE
  5
32C
  8
SIZE
  6
CONTINUOUS
 62
    30
 10
0.0
 20
353.62182000000001
 30
0.0
 11
12.0
 21
353.62182000000001
 31
0.0
  0
CIRCLE
  5
32D
  8
SIZE
  6
CONTINUOUS
 62
    30
 10
130.0
 20
353.62182000000001
 30
0.0
 40
6.0
  0
LINE
  5
32E
  8
SIZE
  6
CONTINUOUS
 62
    30
 10
130.0
 20
353.62182000000001
 30
0.0
 11
118.0
 21
353.62182000000001
 31
0.0
  0
LINE
  5
32F
  8
SIZE
  6
CONTINUOUS
 62
    30
 10
170.5
 20
248.0
 30
0.0
 11
170.5
 21
678.50863400000003
 31
0.0
  0
LINE
  5
330
  8
SIZE
  6
CONTINUOUS
 62
    30
 10
-170.5
 20
248.0
 30
0.0
 11
-170.5
 21
678.50863400000003
 31
0.0
  0
LINE
  5
331
  8
SIZE
  6
CONTINUOUS
 62
    30
 10
158.4999999999998
 20
658.50863400000003
 30
0.0
 11
-158.4999999999998
 21
658.50863400000003
 31
0.0
  0
TEXT
  5
332
  8
SIZE
  6
CONTINUOUS
 62
    30
 10
-61.714285714285701
 20
684.56944399999986
 30
0.0
 40
64.0
  1
341
 41
0.9
 72
     1
 11
0.0
 21
684.56944399999986
 31
0.0
  0
CIRCLE
  5
333
  8
SIZE
  6
CONTINUOUS
 62
    30
 10
170.5
 20
658.50863400000003
 30
0.0
 40
6.0
  0
LINE
  5
334
  8
SIZE
  6
CONTINUOUS
 62
    30
 10
170.5
 20
658.50863400000003
 30
0.0
 11
158.4999999999998
 21
658.50863400000003
 31
0.0
  0
CIRCLE
  5
335
  8
SIZE
  6
CONTINUOUS
 62
    30
 10
-170.5
 20
658.50863400000003
 30
0.0
 40
6.0
  0
LINE
  5
336
  8
SIZE
  6
CONTINUOUS
 62
    30
 10
-170.5
 20
658.50863400000003
 30
0.0
 11
-158.4999999999998
 21
658.50863400000003
 31
0.0
  0
LINE
  5
337
  8
SIZE
  6
CONTINUOUS
 62
    30
 10
0.0
 20
311.47948300000002
 30
0.0
 11
0.0
 21
490.56585599999988
 31
0.0
  0
LINE
  5
338
  8
SIZE
  6
CONTINUOUS
 62
    30
 10
23.0
 20
285.88841500000001
 30
0.0
 11
23.0
 21
490.56585599999988
 31
0.0
  0
LINE
  5
339
  8
SIZE
  6
CONTINUOUS
 62
    30
 10
-12.0
 20
470.56585599999988
 30
0.0
 11
-24.0
 21
470.56585599999988
 31
0.0
  0
LINE
  5
33A
  8
SIZE
  6
CONTINUOUS
 62
    30
 10
35.0
 20
470.56585599999988
 30
0.0
 11
47.0
 21
470.56585599999988
 31
0.0
  0
LINE
  5
33B
  8
SIZE
  6
CONTINUOUS
 62
    30
 10
315.57327099999992
 20
470.56585599999988
 30
0.0
 11
23.0
 21
470.56585599999988
 31
0.0
  0
TEXT
  5
33C
  8
SIZE
  6
CONTINUOUS
 62
    30
 10
197.31612857142849
 20
495.56585599999988
 30
0.0
 40
64.0
  1
23
 41
0.9
 72
     1
 11
243.94470000000001
 21
495.56585599999988
 31
0.0
  0
LINE
  5
33D
  8
SIZE
  6
CONTINUOUS
 62
    30
 10
0.0
 20
470.56585599999988
 30
0.0
 11
23.0
 21
470.56585599999988
 31
0.0
  0
LINE
  5
33E
  8
SIZE
  6
CONTINUOUS
 62
    30
 10
0.0
 20
470.56585599999988
 30
0.0
 11
23.0
 21
470.56585599999988
 31
0.0
  0
CIRCLE
  5
33F
  8
SIZE
  6
CONTINUOUS
 62
    30
 10
0.0
 20
470.56585599999988
 30
0.0
 40
6.0
  0
LINE
  5
340
  8
SIZE
  6
CONTINUOUS
 62
    30
 10
0.0
 20
470.56585599999988
 30
0.0
 11
-12.0
 21
470.56585599999988
 31
0.0
  0
CIRCLE
  5
341
  8
SIZE
  6
CONTINUOUS
 62
    30
 10
23.0
 20
470.56585599999988
 30
0.0
 40
6.0
  0
LINE
  5
342
  8
SIZE
  6
CONTINUOUS
 62
    30
 10
23.0
 20
470.56585599999988
 30
0.0
 11
35.0
 21
470.56585599999988
 31
0.0
  0
LINE
  5
343
  8
SIZE
  6
CONTINUOUS
 62
    30
 10
0.0
 20
311.47948300000002
 30
0.0
 11
0.0
 21
490.56585599999988
 31
0.0
  0
LINE
  5
344
  8
SIZE
  6
CONTINUOUS
 62
    30
 10
-85.5
 20
260.068172
 30
0.0
 11
-85.5
 21
490.56585599999988
 31
0.0
  0
LINE
  5
345
  8
SIZE
  6
CONTINUOUS
 62
    30
 10
-12.0
 20
470.56585599999988
 30
0.0
 11
-73.5
 21
470.56585599999988
 31
0.0
  0
LINE
  5
346
  8
SIZE
  6
CONTINUOUS
 62
    30
 10
-393.90088700000001
 20
470.56585599999988
 30
0.0
 11
-85.5
 21
470.56585599999988
 31
0.0
  0
TEXT
  5
347
  8
SIZE
  6
CONTINUOUS
 62
    30
 10
-368.90088657142849
 20
495.56585599999988
 30
0.0
 40
64.0
  1
85.5
 41
0.9
 72
     1
 11
-281.129458
 21
495.56585599999988
 31
0.0
  0
CIRCLE
  5
348
  8
SIZE
  6
CONTINUOUS
 62
    30
 10
0.0
 20
470.56585599999988
 30
0.0
 40
6.0
  0
LINE
  5
349
  8
SIZE
  6
CONTINUOUS
 62
    30
 10
0.0
 20
470.56585599999988
 30
0.0
 11
-12.0
 21
470.56585599999988
 31
0.0
  0
CIRCLE
  5
34A
  8
SIZE
  6
CONTINUOUS
 62
    30
 10
-85.5
 20
470.56585599999988
 30
0.0
 40
6.0
  0
LINE
  5
34B
  8
SIZE
  6
CONTINUOUS
 62
    30
 10
-85.5
 20
470.56585599999988
 30
0.0
 11
-73.5
 21
470.56585599999988
 31
0.0
  0
LINE
  5
34C
  8
DETAIL
  6
CONTINUOUS
 62
     5
 10
-185.20729700000001
 20
-7.5
 30
0.0
 11
185.20729700000001
 21
-7.5
 31
0.0
  0
LINE
  5
34D
  8
DETAIL
  6
CONTINUOUS
 62
     5
 10
-189.66393500000001
 20
-3.0
 30
0.0
 11
189.66393500000001
 21
-3.0
 31
0.0
  0
LINE
  5
34E
  8
SIZE
  6
CONTINUOUS
 62
    30
 10
-210.0
 20
0.0
 30
0.0
 11
-838.91779499999984
 21
0.0
 31
0.0
  0
LINE
  5
34F
  8
SIZE
  6
CONTINUOUS
 62
    30
 10
-20.0
 20
-15.0
 30
0.0
 11
-838.91779499999984
 21
-15.0
 31
0.0
  0
LINE
  5
350
  8
SIZE
  6
CONTINUOUS
 62
    30
 10
-818.91779499999996
 20
12.0
 30
0.0
 11
-818.91779499999996
 21
24.0
 31
0.0
  0
LINE
  5
351
  8
SIZE
  6
CONTINUOUS
 62
    30
 10
-818.91779499999996
 20
-27.0
 30
0.0
 11
-818.91779499999996
 21
-39.0
 31
0.0
  0
TEXT
  5
352
  8
SIZE
  6
CONTINUOUS
 62
    30
 10
-845.24269800000002
 20
-130.5703861428571
 30
0.0
 40
64.0
  1
15
 50
90.0
 41
0.9
 72
     1
 11
-845.24269800000002
 21
-89.427529000000007
 31
0.0
  0
LINE
  5
353
  8
SIZE
  6
CONTINUOUS
 62
    30
 10
-818.91779499999996
 20
0.0
 30
0.0
 11
-818.91779499999996
 21
-15.0
 31
0.0
  0
LINE
  5
354
  8
SIZE
  6
CONTINUOUS
 62
    30
 10
-818.91779499999996
 20
0.0
 30
0.0
 11
-818.91779499999996
 21
-15.0
 31
0.0
  0
CIRCLE
  5
355
  8
SIZE
  6
CONTINUOUS
 62
    30
 10
-818.91779499999996
 20
0.0
 30
0.0
 40
6.0
  0
LINE
  5
356
  8
SIZE
  6
CONTINUOUS
 62
    30
 10
-818.91779499999996
 20
0.0
 30
0.0
 11
-818.91779499999996
 21
12.0
 31
0.0
  0
CIRCLE
  5
357
  8
SIZE
  6
CONTINUOUS
 62
    30
 10
-818.91779499999996
 20
-15.0
 30
0.0
 40
6.0
  0
LINE
  5
358
  8
SIZE
  6
CONTINUOUS
 62
    30
 10
-818.91779499999996
 20
-15.0
 30
0.0
 11
-818.91779499999996
 21
-27.0
 31
0.0
  0
LINE
  5
359
  8
SIZE
  6
CONTINUOUS
 62
    30
 10
-818.91779499999996
 20
-15.0
 30
0.0
 11
-818.91779499999996
 21
-144.07104799999991
 31
0.0
  0
LINE
  5
35A
  8
SIZE
  6
CONTINUOUS
 62
    30
 10
72.000001999999995
 20
262.94001400000002
 30
0.0
 11
72.000001999999995
 21
552.95481700000005
 31
0.0
  0
LINE
  5
35B
  8
SIZE
  6
CONTINUOUS
 62
    30
 10
-26.000001999999999
 20
262.94001400000002
 30
0.0
 11
-26.000001999999999
 21
552.95481700000005
 31
0.0
  0
LINE
  5
35C
  8
SIZE
  6
CONTINUOUS
 62
    30
 10
60.000002000000002
 20
532.95481700000005
 30
0.0
 11
-14.000002
 21
532.95481700000005
 31
0.0
  0
TEXT
  5
35D
  8
SIZE
  6
CONTINUOUS
 62
    30
 10
-63.948571428571441
 20
554.42622300000005
 30
0.0
 40
64.0
  1
âË98
 41
0.9
 72
     1
 11
23.0
 21
554.42622300000005
 31
0.0
  0
CIRCLE
  5
35E
  8
SIZE
  6
CONTINUOUS
 62
    30
 10
72.000001999999995
 20
532.95481700000005
 30
0.0
 40
6.0
  0
LINE
  5
35F
  8
SIZE
  6
CONTINUOUS
 62
    30
 10
72.000001999999995
 20
532.95481700000005
 30
0.0
 11
60.000002000000002
 21
532.95481700000005
 31
0.0
  0
CIRCLE
  5
360
  8
SIZE
  6
CONTINUOUS
 62
    30
 10
-26.000001999999999
 20
532.95481700000005
 30
0.0
 40
6.0
  0
LINE
  5
361
  8
SIZE
  6
CONTINUOUS
 62
    30
 10
-26.000001999999999
 20
532.95481700000005
 30
0.0
 11
-14.000002
 21
532.95481700000005
 31
0.0
  0
LINE
  5
362
  8
SIZE
  6
CONTINUOUS
 62
    30
 10
-206.0
 20
0.0
 30
0.0
 11
-838.91779499999984
 21
0.0
 31
0.0
  0
LINE
  5
363
  8
SIZE
  6
CONTINUOUS
 62
    30
 10
-40.95264199999999
 20
248.0
 30
0.0
 11
-838.91779499999984
 21
248.0
 31
0.0
  0
LINE
  5
364
  8
SIZE
  6
CONTINUOUS
 62
    30
 10
-818.91779499999996
 20
12.0
 30
0.0
 11
-818.91779499999996
 21
236.0
 31
0.0
  0
CIRCLE
  5
365
  8
SIZE
  6
CONTINUOUS
 62
    30
 10
-818.91779499999996
 20
0.0
 30
0.0
 40
6.0
  0
LINE
  5
366
  8
SIZE
  6
CONTINUOUS
 62
    30
 10
-818.91779499999996
 20
0.0
 30
0.0
 11
-818.91779499999996
 21
12.0
 31
0.0
  0
CIRCLE
  5
367
  8
SIZE
  6
CONTINUOUS
 62
    30
 10
-818.91779499999996
 20
248.0
 30
0.0
 40
6.0
  0
LINE
  5
368
  8
SIZE
  6
CONTINUOUS
 62
    30
 10
-818.91779499999996
 20
248.0
 30
0.0
 11
-818.91779499999996
 21
236.0
 31
0.0
  0
TEXT
  5
369
  8
SIZE
  6
CONTINUOUS
 62
    30
 10
-843.91779499999973
 20
49.94285714285715
 30
0.0
 40
64.0
  1
248
 50
90.0
 41
0.9
 72
     1
 11
-843.91779499999973
 21
124.0
 31
0.0
  0
LINE
  5
36A
  8
DETAIL
  6
CONTINUOUS
 62
     5
 10
-160.4999999999998
 20
229.0
 30
0.0
 11
16.5
 21
229.0
 31
0.0
  0
LINE
  5
36B
  8
DETAIL
  6
CONTINUOUS
 62
     5
 10
-31.622900999999992
 20
137.04745299999979
 30
0.0
 11
-139.3770989999999
 21
137.04745299999979
 31
0.0
  0
LINE
  5
36C
  8
DETAIL
  6
CONTINUOUS
 62
     5
 10
-157.32285999999999
 20
140.04745299999979
 30
0.0
 11
-141.023537
 21
140.04745299999979
 31
0.0
  0
LINE
  5
36D
  8
DETAIL
  6
CONTINUOUS
 62
     5
 10
-141.023537
 20
140.04745299999979
 30
0.0
 11
-139.3770989999999
 21
137.04745299999979
 31
0.0
  0
LINE
  5
36E
  8
DETAIL
  6
CONTINUOUS
 62
     5
 10
-29.976462999999988
 20
140.04745299999979
 30
0.0
 11
-31.622900999999992
 21
137.04745299999979
 31
0.0
  0
LINE
  5
36F
  8
DETAIL
  6
CONTINUOUS
 62
     5
 10
-13.67714
 20
140.04745299999979
 30
0.0
 11
-29.976462999999988
 21
140.04745299999979
 31
0.0
  0
LINE
  5
370
  8
DETAIL
  6
CONTINUOUS
 62
     5
 10
16.5
 20
0.0
 30
0.0
 11
16.5
 21
229.0
 31
0.0
  0
LINE
  5
371
  8
DETAIL
  6
CONTINUOUS
 62
     5
 10
-180.4999999999998
 20
62.746687999999999
 30
0.0
 11
-180.4999999999998
 21
207.5624589999999
 31
0.0
  0
LINE
  5
372
  8
DETAIL
  6
CONTINUOUS
 62
     5
 10
-165.5
 20
47.746687999999992
 30
0.0
 11
-147.83260000000001
 21
47.746687999999992
 31
0.0
  0
ARC
  5
373
  8
DETAIL
  6
CONTINUOUS
 62
     5
 10
-165.5
 20
62.746687999999999
 30
0.0
 40
15.0
 50
180.0
 51
270.0
  0
LINE
  5
374
  8
SIZE
  6
CONTINUOUS
 62
    30
 10
16.5
 20
-20.0
 30
0.0
 11
16.5
 21
-268.93375299999991
 31
0.0
  0
LINE
  5
375
  8
SIZE
  6
CONTINUOUS
 62
    30
 10
-153.5
 20
-20.0
 30
0.0
 11
-153.5
 21
-268.93375299999991
 31
0.0
  0
LINE
  5
377
  8
SIZE
  6
CONTINUOUS
 62
    30
 10
-165.5
 20
-248.93375299999991
 30
0.0
 11
-177.5
 21
-248.93375299999991
 31
0.0
  0
LINE
  5
378
  8
SIZE
  6
CONTINUOUS
 62
    30
 10
16.5
 20
-248.93375299999991
 30
0.0
 11
-153.5
 21
-248.93375299999991
 31
0.0
  0
CIRCLE
  5
379
  8
SIZE
  6
CONTINUOUS
 62
    30
 10
16.5
 20
-248.93375299999991
 30
0.0
 40
6.0
  0
CIRCLE
  5
37B
  8
SIZE
  6
CONTINUOUS
 62
    30
 10
-153.5
 20
-248.93375299999991
 30
0.0
 40
6.0
  0
LINE
  5
37C
  8
SIZE
  6
CONTINUOUS
 62
    30
 10
-153.5
 20
-248.93375299999991
 30
0.0
 11
-165.5
 21
-248.93375299999991
 31
0.0
  0
TEXT
  5
37D
  8
SIZE
  6
CONTINUOUS
 62
    30
 10
-137.0714285714285
 20
-223.93375299999991
 30
0.0
 40
64.0
  1
170
 41
0.9
 72
     1
 11
-68.5
 21
-223.93375299999991
 31
0.0
  0
LINE
  5
37E
  8
SIZE
  6
CONTINUOUS
 62
    30
 10
-153.5
 20
-20.0
 30
0.0
 11
-153.5
 21
-268.93375299999991
 31
0.0
  0
LINE
  5
37F
  8
SIZE
  6
CONTINUOUS
 62
    30
 10
-180.4999999999998
 20
42.746687999999992
 30
0.0
 11
-180.4999999999998
 21
-268.93375299999991
 31
0.0
  0
LINE
  5
380
  8
SIZE
  6
CONTINUOUS
 62
    30
 10
-141.5
 20
-248.93375299999991
 30
0.0
 11
-129.4999999999998
 21
-248.93375299999991
 31
0.0
  0
LINE
  5
381
  8
SIZE
  6
CONTINUOUS
 62
    30
 10
-192.5
 20
-248.93375299999991
 30
0.0
 11
-204.49999999999989
 21
-248.93375299999991
 31
0.0
  0
LINE
  5
382
  8
SIZE
  6
CONTINUOUS
 62
    30
 10
-354.93516699999998
 20
-248.93375299999991
 30
0.0
 11
-180.4999999999998
 21
-248.93375299999991
 31
0.0
  0
TEXT
  5
383
  8
SIZE
  6
CONTINUOUS
 62
    30
 10
-329.93516642857139
 20
-223.93375299999991
 30
0.0
 40
64.0
  1
27
 41
0.9
 72
     1
 11
-283.30659500000002
 21
-223.93375299999991
 31
0.0
  0
LINE
  5
384
  8
SIZE
  6
CONTINUOUS
 62
    30
 10
-153.5
 20
-248.93375299999991
 30
0.0
 11
-180.4999999999998
 21
-248.93375299999991
 31
0.0
  0
LINE
  5
385
  8
SIZE
  6
CONTINUOUS
 62
    30
 10
-153.5
 20
-248.93375299999991
 30
0.0
 11
-180.4999999999998
 21
-248.93375299999991
 31
0.0
  0
CIRCLE
  5
386
  8
SIZE
  6
CONTINUOUS
 62
    30
 10
-153.5
 20
-248.93375299999991
 30
0.0
 40
6.0
  0
LINE
  5
387
  8
SIZE
  6
CONTINUOUS
 62
    30
 10
-153.5
 20
-248.93375299999991
 30
0.0
 11
-141.5
 21
-248.93375299999991
 31
0.0
  0
CIRCLE
  5
388
  8
SIZE
  6
CONTINUOUS
 62
    30
 10
-180.4999999999998
 20
-248.93375299999991
 30
0.0
 40
6.0
  0
LINE
  5
389
  8
SIZE
  6
CONTINUOUS
 62
    30
 10
-180.4999999999998
 20
-248.93375299999991
 30
0.0
 11
-192.5
 21
-248.93375299999991
 31
0.0
  0
TEXT
  5
38A
  8
ETC
  6
CONTINUOUS
 62
    61
 10
624.59352450078916
 20
588.52499855357371
 30
0.0
 40
50.0
  1
VD-20ZP7
 41
0.9
  0
TEXT
  5
38B
  8
ETC
  6
CONTINUOUS
 62
    61
 10
488.72931471450249
 20
775.43387384888945
 30
0.0
 40
64.0
  1
VD-20ZP7_2
 41
0.9
  0
TEXT
  5
38C
  8
ETC
  6
CONTINUOUS
 62
    61
 10
480.81360771450238
 20
675.98809184888944
 30
0.0
 40
64.0
  1
èÀïCÉ¯
 41
0.9
  0
LINE
  5
38D
  8
DETAIL
  6
CONTINUOUS
 62
     5
 39
50.0
 10
-190.0
 20
0.0
 30
0.0
 11
190.0
 21
0.0
 31
0.0
  0
LINE
  5
38E
  8
BASIS
  6
DASHDOT
 62
     6
 10
21.517730999999991
 20
135.0
 30
0.0
 11
-193.93466100000001
 21
135.0
 31
0.0
  0
LINE
  5
38F
  8
OUTLINE
  6
CONTINUOUS
 62
     3
 10
153.5
 20
200.0
 30
0.0
 11
-153.5
 21
200.0
 31
0.0
  0
LINE
  5
390
  8
OUTLINE
  6
CONTINUOUS
 62
     3
 39
50.0
 10
-190.0
 20
0.0
 30
0.0
 11
190.0
 21
0.0
 31
0.0
  0
LINE
  5
392
  8
OUTLINE
  6
CONTINUOUS
 62
     3
 10
-153.5
 20
0.0
 30
0.0
 11
-153.5
 21
200.0
 31
0.0
  0
LINE
  5
397
  8
OUTLINE
  6
CONTINUOUS
 62
     3
 10
153.5
 20
0.0
 30
0.0
 11
153.5
 21
200.0
 31
0.0
  0
POINT
  5
39B
  8
ARRANGE
  6
CONTINUOUS
 62
     1
 10
0.0
 20
0.0
 30
0.0
  0
ENDSEC
  0
EOF
