  0
SECTION
  2
HEADER
  9
$ACADVER
  1
AC1009
  9
$DWGCODEPAGE
  3
dos932
  9
$INSBASE
 10
0.0
 20
0.0
 30
0.0
  9
$EXTMIN
 10
-834.315474406254
 20
-927.33763534032914
 30
-0.0015258207003583
  9
$EXTMAX
 10
1139.7628901174321
 20
941.11634143758056
 30
0.0000000349246037
  9
$LIMMIN
 10
-2970.0
 20
-2100.0
  9
$LIMMAX
 10
2970.0
 20
2100.0
  9
$ORTHOMODE
 70
     1
  9
$REGENMODE
 70
     1
  9
$FILLMODE
 70
     1
  9
$QTEXTMODE
 70
     0
  9
$MIRRTEXT
 70
     0
  9
$LTSCALE
 40
20.0
  9
$ATTMODE
 70
     1
  9
$TEXTSIZE
 40
64.0
  9
$TRACEWID
 40
0.05
  9
$TEXTSTYLE
  7
STANDARD
  9
$CLAYER
  8
SIZE
  9
$CELTYPE
  6
CONTINUOUS
  9
$CECOLOR
 62
     7
  9
$DIMSCALE
 40
1.0
  9
$DIMASZ
 40
12.0
  9
$DIMEXO
 40
20.0
  9
$DIMDLI
 40
200.0
  9
$DIMRND
 40
0.0
  9
$DIMDLE
 40
0.0
  9
$DIMEXE
 40
20.0
  9
$DIMTP
 40
0.0
  9
$DIMTM
 40
0.0
  9
$DIMTXT
 40
64.0
  9
$DIMCEN
 40
0.09
  9
$DIMTSZ
 40
0.0
  9
$DIMTOL
 70
     0
  9
$DIMLIM
 70
     0
  9
$DIMTIH
 70
     0
  9
$DIMTOH
 70
     0
  9
$DIMSE1
 70
     0
  9
$DIMSE2
 70
     0
  9
$DIMTAD
 70
     1
  9
$DIMZIN
 70
     8
  9
$DIMBLK
  1

  9
$DIMASO
 70
     1
  9
$DIMSHO
 70
     0
  9
$DIMPOST
  1

  9
$DIMAPOST
  1

  9
$DIMALT
 70
     0
  9
$DIMALTD
 70
     2
  9
$DIMALTF
 40
25.399999999999999
  9
$DIMLFAC
 40
1.0
  9
$DIMTOFL
 70
     1
  9
$DIMTVP
 40
0.0
  9
$DIMTIX
 70
     1
  9
$DIMSOXD
 70
     0
  9
$DIMSAH
 70
     0
  9
$DIMBLK1
  1

  9
$DIMBLK2
  1

  9
$DIMSTYLE
  2
STANDARD
  9
$DIMCLRD
 70
     7
  9
$DIMCLRE
 70
     7
  9
$DIMCLRT
 70
     7
  9
$DIMTFAC
 40
1.0
  9
$DIMGAP
 40
25.0
  9
$LUNITS
 70
     2
  9
$LUPREC
 70
     4
  9
$SKETCHINC
 40
0.1
  9
$FILLETRAD
 40
3.0
  9
$AUNITS
 70
     1
  9
$AUPREC
 70
     3
  9
$MENU
  1
ACAD
  9
$ELEVATION
 40
0.0
  9
$PELEVATION
 40
0.0
  9
$THICKNESS
 40
0.0
  9
$LIMCHECK
 70
     0
  9
$CHAMFERA
 40
0.0
  9
$CHAMFERB
 40
0.0
  9
$SKPOLY
 70
     0
  9
$TDCREATE
 40
2453019.62301037
  9
$TDUPDATE
 40
2459025.516908067
  9
$TDINDWG
 40
1.7138238542
  9
$TDUSRTIMER
 40
1.7138238542
  9
$USRTIMER
 70
     1
  9
$ANGBASE
 50
0.0
  9
$ANGDIR
 70
     0
  9
$PDMODE
 70
     3
  9
$PDSIZE
 40
-2.0
  9
$PLINEWID
 40
0.0
  9
$SPLFRAME
 70
     0
  9
$SPLINETYPE
 70
     6
  9
$SPLINESEGS
 70
     8
  9
$SURFTAB1
 70
     6
  9
$SURFTAB2
 70
     6
  9
$SURFTYPE
 70
     6
  9
$SURFU
 70
     6
  9
$SURFV
 70
     6
  9
$UCSNAME
  2

  9
$UCSORG
 10
0.0
 20
0.0
 30
0.0
  9
$UCSXDIR
 10
1.0
 20
0.0
 30
0.0
  9
$UCSYDIR
 10
0.0
 20
1.0
 30
0.0
  9
$PUCSNAME
  2

  9
$PUCSORG
 10
0.0
 20
0.0
 30
0.0
  9
$PUCSXDIR
 10
1.0
 20
0.0
 30
0.0
  9
$PUCSYDIR
 10
0.0
 20
1.0
 30
0.0
  9
$USERI1
 70
     0
  9
$USERI2
 70
     0
  9
$USERI3
 70
     0
  9
$USERI4
 70
     0
  9
$USERI5
 70
     0
  9
$USERR1
 40
20.0
  9
$USERR2
 40
0.0
  9
$USERR3
 40
0.0
  9
$USERR4
 40
0.0
  9
$USERR5
 40
0.0
  9
$WORLDVIEW
 70
     1
  9
$SHADEDGE
 70
     3
  9
$SHADEDIF
 70
    70
  9
$TILEMODE
 70
     1
  9
$MAXACTVP
 70
    48
  9
$PINSBASE
 10
0.0
 20
0.0
 30
0.0
  9
$PLIMCHECK
 70
     0
  9
$PEXTMIN
 10
-100000000000000000000.0
 20
-100000000000000000000.0
 30
-100000000000000000000.0
  9
$PEXTMAX
 10
100000000000000000000.0
 20
100000000000000000000.0
 30
100000000000000000000.0
  9
$PLIMMIN
 10
0.0
 20
0.0
  9
$PLIMMAX
 10
12.0
 20
9.0
  9
$UNITMODE
 70
     0
  9
$VISRETAIN
 70
     0
  9
$PLINEGEN
 70
     0
  9
$PSLTSCALE
 70
     0
  9
$TREEDEPTH
 70
  3020
  9
$ATTDIA
 70
     0
  9
$ATTREQ
 70
     1
  9
$BLIPMODE
 70
     1
  9
$COORDS
 70
     1
  9
$DRAGMODE
 70
     2
  9
$OSMODE
 70
     0
  9
$HANDLING
 70
     0
  9
$HANDSEED
  5
EE32
  0
ENDSEC
  0
SECTION
  2
TABLES
  0
TABLE
  2
LTYPE
 70
     3
  0
LTYPE
  2
CONTINUOUS
 70
     0
  3
実線
 72
    65
 73
     0
 40
0.0
  0
LTYPE
  2
DASHDOT
 70
     0
  3
____ _ ____ _ ____ _ ____ _ ____ _ ____ _ ____
 72
    65
 73
     4
 40
5.5
 49
4.0
 49
-0.6
 49
0.3
 49
-0.6
  0
LTYPE
  2
DIVIDE
 70
     0
  3
Divide ____ . . ____ . . ____ . . ____ . . ____
 72
    65
 73
     6
 40
1.25
 49
0.5
 49
-0.25
 49
0.0
 49
-0.25
 49
0.0
 49
-0.25
  0
ENDTAB
  0
TABLE
  2
LAYER
 70
    12
  0
LAYER
  2
0
 70
     0
 62
     7
  6
CONTINUOUS
  0
LAYER
  2
BASIS
 70
     0
 62
     6
  6
DASHDOT
  0
LAYER
  2
OUTLINE
 70
     0
 62
     3
  6
CONTINUOUS
  0
LAYER
  2
DETAIL
 70
     0
 62
     5
  6
CONTINUOUS
  0
LAYER
  2
SIZE
 70
     0
 62
    30
  6
CONTINUOUS
  0
LAYER
  2
ARRANGE
 70
     0
 62
     1
  6
CONTINUOUS
  0
LAYER
  2
DEFPOINTS
 70
     0
 62
     7
  6
CONTINUOUS
  0
LAYER
  2
ETC
 70
     0
 62
    61
  6
CONTINUOUS
  0
LAYER
  2
FIX
 70
     0
 62
    11
  6
CONTINUOUS
  0
LAYER
  2
NOTE
 70
     0
 62
     4
  6
CONTINUOUS
  0
LAYER
  2
SERVICESPACE
 70
    64
 62
     2
  6
DASHDOT
  0
LAYER
  2
SYMBOLLINE
 70
    64
 62
    15
  6
CONTINUOUS
  0
ENDTAB
  0
TABLE
  2
STYLE
 70
     1
  0
STYLE
  2
STANDARD
 70
     0
 40
64.0
 41
0.9
 50
0.0
 71
     0
 42
64.0
  3
SIMPLEX.shx
  4
BIGFONT.shx
  0
ENDTAB
  0
TABLE
  2
APPID
 70
    19
  0
APPID
  2
ACAD
 70
     0
  0
APPID
  2
AUTOCAD_POSTSCRIPT_FIGURE
 70
     0
  0
APPID
  2
ACAD_EXEMPT_FROM_CAD_STANDARDS
 70
     0
  0
APPID
  2
ACAD_PSEXT
 70
     0
  0
APPID
  2
ACAUTHENVIRON
 70
     0
  0
APPID
  2
GENIUS_GENOENT_13
 70
     0
  0
APPID
  2
GENIUS_GENCFG_13
 70
     0
  0
APPID
  2
GENIUS_GENCFG0_13
 70
     0
  0
APPID
  2
GENIUS_GENCFG1_13
 70
     0
  0
APPID
  2
GENIUS_GENCFG2_13
 70
     0
  0
APPID
  2
GENIUS_GENCFG3_13
 70
     0
  0
APPID
  2
GENIUS_GENCFG4_13
 70
     0
  0
APPID
  2
GENIUS_GEVCFG0_13
 70
     0
  0
APPID
  2
CONTENTBLOCKICON
 70
     0
  0
APPID
  2
CONTENTBLOCKDESCRIPTION
 70
     0
  0
APPID
  2
ACAD_NAV_VCDISPLAY
 70
     0
  0
APPID
  2
ACAD_MLEADERVER
 70
     0
  0
APPID
  2
ACDBDYNAMICBLOCKTRUENAME
 70
     0
  0
APPID
  2
ACDBDYNAMICBLOCKGUID
 70
     0
  0
ENDTAB
  0
TABLE
  2
DIMSTYLE
 70
     1
  0
DIMSTYLE
  2
STANDARD
 70
     0
  3

  4

  5
_ORIGIN
  6

  7

 40
1.0
 41
12.0
 42
20.0
 43
200.0
 44
20.0
 45
0.0
 46
0.0
 47
0.0
 48
0.0
140
64.0
141
0.09
142
0.0
143
25.399999999999999
144
1.0
145
0.0
146
1.0
147
25.0
 71
     0
 72
     0
 73
     0
 74
     0
 75
     0
 76
     0
 77
     1
 78
     8
170
     0
171
     2
172
     1
173
     0
174
     1
175
     0
176
     7
177
     7
178
     7
  0
ENDTAB
  0
TABLE
  2
VIEW
 70
     1
  0
VIEW
  2
ALL
 70
     0
 40
4282.6198079999986
 10
0.0
 20
41.309904000000003
 41
5940.0
 11
0.0
 21
0.0
 31
1.0
 12
0.0
 22
0.0
 32
0.0
 42
50.0
 43
0.0
 44
0.0
 50
0.0
 71
     0
  0
ENDTAB
  0
TABLE
  2
UCS
 70
     0
  0
ENDTAB
  0
TABLE
  2
VPORT
 70
     1
  0
VPORT
  2
*ACTIVE
 70
     0
 10
0.0
 20
0.0
 11
1.0
 21
1.0
 12
152.72370785558911
 22
6.8893530486257077
 13
0.0
 23
0.0
 14
1.0
 24
1.0
 15
0.0
 25
0.0
 16
0.0
 26
0.0
 36
1.0
 17
0.0
 27
0.0
 37
0.0
 40
1880.841516955443
 41
1.747787610619469
 42
50.0
 43
0.0
 44
0.0
 50
0.0
 51
0.0
 71
     0
 72
  1000
 73
     1
 74
     3
 75
     0
 76
     0
 77
     0
 78
     0
  0
ENDTAB
  0
ENDSEC
  0
SECTION
  2
BLOCKS
  0
BLOCK
  8
0
  2
_ORIGIN
 70
     0
 10
0.0
 20
0.0
 30
0.0
  3
_ORIGIN
  1
_ORIGIN
  0
CIRCLE
  8
0
  6
CONTINUOUS
 62
     7
 10
0.0
 20
0.0
 30
0.0
 40
0.5
  0
LINE
  8
0
  6
CONTINUOUS
 62
     7
 10
0.0
 20
0.0
 30
0.0
 11
-1.0
 21
0.0
 31
0.0
  0
ENDBLK
  8
0
  0
ENDSEC
  0
SECTION
  2
ENTITIES
  0
TEXT
  8
ETC
  6
CONTINUOUS
 62
    61
 10
371.58841887062141
 20
851.30064031694019
 30
0.0
 40
64.0
  1
VD-20ZXP13-C_1
 41
0.9
  0
TEXT
  8
ETC
  6
CONTINUOUS
 62
    61
 10
369.22124087062139
 20
746.51937484126756
 30
0.0
 40
64.0
  1
換気扇
 41
0.9
  0
TEXT
  8
ETC
  6
CONTINUOUS
 62
    61
 10
453.58218221410237
 20
663.45192059253122
 30
0.0
 40
40.0
  1
VD-20ZXP13-C
 41
0.9
  0
TEXT
  8
ETC
  6
CONTINUOUS
 62
    61
 10
453.58218221410237
 20
597.45192059253122
 30
0.0
 40
40.0
  1
VD-20ZLXP13-CS
 41
0.9
  0
LINE
  8
OUTLINE
  6
CONTINUOUS
 62
     3
 10
-172.0
 20
190.0
 30
0.0
 11
172.0
 21
190.0
 31
0.0
  0
LINE
  8
OUTLINE
  6
CONTINUOUS
 62
     3
 10
-5.5
 20
-190.0
 30
0.0
 11
172.0
 21
-190.0
 31
0.0
  0
POINT
  8
ARRANGE
  6
CONTINUOUS
 62
     1
 10
0.0
 20
0.0
 30
0.0
  0
CIRCLE
  8
ARRANGE
  6
CONTINUOUS
 62
     1
 10
0.0
 20
0.0
 30
0.0
 40
40.0
  0
LINE
  8
BASIS
  6
DASHDOT
 62
     6
 10
-205.53087599999981
 20
0.0
 30
0.0
 11
206.95267299999981
 21
0.0
 31
0.0
  0
CIRCLE
  8
DETAIL
  6
CONTINUOUS
 62
     5
 10
23.0
 20
2.0
 30
0.0
 40
49.0
  0
LINE
  8
DETAIL
  6
CONTINUOUS
 62
     5
 10
-172.0
 20
190.0
 30
0.0
 11
172.0
 21
190.0
 31
0.0
  0
LINE
  8
DETAIL
  6
CONTINUOUS
 62
     5
 10
-5.5
 20
-190.0
 30
0.0
 11
172.0
 21
-190.0
 31
0.0
  0
TEXT
  8
SIZE
  6
CONTINUOUS
 62
    30
 10
-110.5371428571429
 20
876.97078523554524
 30
0.0
 40
64.0
  1
□380
 41
0.9
 72
     1
 11
0.0
 21
876.97078523554524
 31
0.0
  0
LINE
  8
SIZE
  6
CONTINUOUS
 62
    30
 10
178.0
 20
851.97078523554546
 30
0.0
 11
-178.0
 21
851.97078523554546
 31
0.0
  0
TEXT
  8
SIZE
  6
CONTINUOUS
 62
    30
 10
-72.685714285714283
 20
757.86725023554527
 30
0.0
 40
64.0
  1
349
 41
0.9
 72
     1
 11
0.0
 21
757.86725023554527
 31
0.0
  0
LINE
  8
SIZE
  6
CONTINUOUS
 62
    30
 10
162.5
 20
732.86725023554527
 30
0.0
 11
-162.5
 21
732.86725023554527
 31
0.0
  0
TEXT
  8
SIZE
  6
CONTINUOUS
 62
    30
 10
-61.714285714285708
 20
629.66731823554483
 30
0.0
 40
64.0
  1
341
 41
0.9
 72
     1
 11
0.0
 21
629.66731823554483
 31
0.0
  0
LINE
  8
SIZE
  6
CONTINUOUS
 62
    30
 10
158.5
 20
604.66731823554483
 30
0.0
 11
-158.5
 21
604.66731823554483
 31
0.0
  0
TEXT
  8
SIZE
  6
CONTINUOUS
 62
    30
 10
-76.652535095139598
 20
501.9793793682129
 30
0.0
 40
64.0
  1
332
 41
0.9
 72
     1
 11
-2.595392237996748
 21
501.9793793682129
 31
0.0
  0
LINE
  8
SIZE
  6
CONTINUOUS
 62
    30
 10
154.0
 20
461.25050907882292
 30
0.0
 11
-154.0
 21
461.25050907882292
 31
0.0
  0
TEXT
  8
SIZE
  6
CONTINUOUS
 62
    30
 10
-76.652535095139598
 20
365.89637936821282
 30
0.0
 40
64.0
  1
200
 41
0.9
 72
     1
 11
-2.595392237996748
 21
365.89637936821282
 31
0.0
  0
LINE
  8
SIZE
  6
CONTINUOUS
 62
    30
 10
88.0
 20
325.16750907882209
 30
0.0
 11
-88.0
 21
325.16750907882209
 31
0.0
  0
LINE
  8
DETAIL
  6
CONTINUOUS
 62
     5
 10
-5.5
 20
-174.5
 30
0.0
 11
174.5
 21
-174.5
 31
0.0
  0
LINE
  8
DETAIL
  6
CONTINUOUS
 62
     5
 10
153.5
 20
153.5
 30
0.0
 11
-153.5
 21
153.5
 31
0.0
  0
LINE
  8
DETAIL
  6
CONTINUOUS
 62
     5
 10
-153.5
 20
-153.5
 30
0.0
 11
153.5
 21
-153.5
 31
0.0
  0
LINE
  8
DETAIL
  6
CONTINUOUS
 62
     5
 10
-179.0
 20
-156.4999999999998
 30
0.0
 11
6.5
 21
-156.4999999999998
 31
0.0
  0
LINE
  8
DETAIL
  6
CONTINUOUS
 62
     5
 10
-174.5
 20
174.5
 30
0.0
 11
174.5
 21
174.5
 31
0.0
  0
LINE
  8
OUTLINE
  6
CONTINUOUS
 62
     3
 10
-190.0
 20
-172.0
 30
0.0
 11
-190.0
 21
172.0
 31
0.0
  0
LINE
  8
DETAIL
  6
CONTINUOUS
 62
     5
 10
-190.0
 20
-172.0
 30
0.0
 11
-190.0
 21
172.0
 31
0.0
  0
TEXT
  8
SIZE
  6
CONTINUOUS
 62
    30
 10
-769.88442304281944
 20
-110.5371428571429
 30
0.0
 40
64.0
  1
□307
 50
90.0
 41
0.9
 72
     1
 11
-769.88442304281944
 21
0.0
 31
0.0
  0
LINE
  8
SIZE
  6
CONTINUOUS
 62
    30
 10
-744.54127404282008
 20
141.5
 30
0.0
 11
-744.54127404282008
 21
-141.5
 31
0.0
  0
LINE
  8
DETAIL
  6
CONTINUOUS
 62
     5
 10
-174.5
 20
-70.0
 30
0.0
 11
-174.5
 21
70.0
 31
0.0
  0
TEXT
  8
SIZE
  6
CONTINUOUS
 62
    30
 10
462.29745185228688
 20
-74.05714285714285
 30
0.0
 40
64.0
  1
200
 50
90.0
 41
0.9
 72
     1
 11
462.29745185228688
 21
0.0
 31
0.0
  0
LINE
  8
SIZE
  6
CONTINUOUS
 62
    30
 10
497.33458304281982
 20
88.0
 30
0.0
 11
497.33458304281982
 21
-88.0
 31
0.0
  0
LINE
  8
BASIS
  6
DASHDOT
 62
     6
 10
0.0
 20
-234.13516899999991
 30
0.0
 11
0.0
 21
199.0700709999999
 31
0.0
  0
LINE
  8
DETAIL
  6
CONTINUOUS
 62
     5
 10
-153.5
 20
153.5
 30
0.0
 11
-153.5
 21
-153.5
 31
0.0
  0
LINE
  8
OUTLINE
  6
CONTINUOUS
 62
     3
 10
-172.0
 20
-190.0
 30
0.0
 11
-166.0
 21
-190.0
 31
0.0
  0
LINE
  8
SIZE
  6
CONTINUOUS
 62
    30
 10
-166.0
 20
140.0
 30
0.0
 11
-166.0
 21
481.2505090788211
 31
0.0
  0
LINE
  8
SIZE
  6
CONTINUOUS
 62
    30
 10
-100.0
 20
206.0
 30
0.0
 11
-100.0
 21
345.16750907882277
 31
0.0
  0
LINE
  8
SIZE
  6
CONTINUOUS
 62
    30
 10
-161.5
 20
-288.5
 30
0.0
 11
-161.5
 21
-927.1203113095944
 31
0.0
  0
LINE
  8
SIZE
  6
CONTINUOUS
 62
    30
 10
-9.7112299999998868
 20
-288.10827399999988
 30
0.0
 11
-9.7112299999998868
 21
-927.1203113095944
 31
0.0
  0
LINE
  8
SIZE
  6
CONTINUOUS
 62
    30
 10
-166.0
 20
461.25050907882292
 30
0.0
 11
-154.0
 21
461.25050907882292
 31
0.0
  0
CIRCLE
  8
SIZE
  6
CONTINUOUS
 62
    30
 10
-166.0
 20
461.25050907882292
 30
0.0
 40
6.0
  0
LINE
  8
SIZE
  6
CONTINUOUS
 62
    30
 10
-100.0
 20
325.16750907882209
 30
0.0
 11
-88.0
 21
325.16750907882209
 31
0.0
  0
CIRCLE
  8
SIZE
  6
CONTINUOUS
 62
    30
 10
-100.0
 20
325.16750907882209
 30
0.0
 40
6.0
  0
LINE
  8
SIZE
  6
CONTINUOUS
 62
    30
 10
-165.71122999999989
 20
-907.1203113095944
 30
0.0
 11
-421.44879500000002
 21
-907.1203113095944
 31
0.0
  0
TEXT
  8
SIZE
  6
CONTINUOUS
 62
    30
 10
-413.84630557142867
 20
-882.1203113095944
 30
0.0
 40
64.0
  1
φ152
 41
0.9
 72
     1
 11
-304.95487700000012
 21
-882.1203113095944
 31
0.0
  0
LINE
  8
SIZE
  6
CONTINUOUS
 62
    30
 10
-427.32630499999999
 20
-907.1203113095944
 30
0.0
 11
-161.5
 21
-907.1203113095944
 31
0.0
  0
LINE
  8
SIZE
  6
CONTINUOUS
 62
    30
 10
-21.71122999999989
 20
-907.1203113095944
 30
0.0
 11
-149.5
 21
-907.1203113095944
 31
0.0
  0
LINE
  8
SIZE
  6
CONTINUOUS
 62
    30
 10
-161.5
 20
-907.1203113095944
 30
0.0
 11
-149.5
 21
-907.1203113095944
 31
0.0
  0
CIRCLE
  8
SIZE
  6
CONTINUOUS
 62
    30
 10
-161.5
 20
-907.1203113095944
 30
0.0
 40
6.0
  0
LINE
  8
SIZE
  6
CONTINUOUS
 62
    30
 10
-9.7112299999998868
 20
-907.1203113095944
 30
0.0
 11
-21.71122999999989
 21
-907.1203113095944
 31
0.0
  0
CIRCLE
  8
SIZE
  6
CONTINUOUS
 62
    30
 10
-9.7112299999998868
 20
-907.1203113095944
 30
0.0
 40
6.0
  0
LINE
  8
SIZE
  6
CONTINUOUS
 62
    30
 10
-185.5
 20
-238.5
 30
0.0
 11
-649.17572204281987
 21
-238.5
 31
0.0
  0
LINE
  8
SIZE
  6
CONTINUOUS
 62
    30
 10
-177.5
 20
-295.5
 30
0.0
 11
-649.17572204281987
 21
-295.5
 31
0.0
  0
LINE
  8
SIZE
  6
CONTINUOUS
 62
    30
 10
-181.5
 20
-268.5
 30
0.0
 11
-520.49742304281972
 21
-268.5
 31
0.0
  0
LINE
  8
SIZE
  6
CONTINUOUS
 62
    30
 10
-177.5
 20
-295.5
 30
0.0
 11
-520.49742304281972
 21
-295.5
 31
0.0
  0
LINE
  8
SIZE
  6
CONTINUOUS
 62
    30
 10
-177.5
 20
-295.5
 30
0.0
 11
-764.54127404282008
 21
-295.5
 31
0.0
  0
LINE
  8
SIZE
  6
CONTINUOUS
 62
    30
 10
-173.5
 20
-153.5
 30
0.0
 11
-764.54127404282008
 21
-153.5
 31
0.0
  0
LINE
  8
SIZE
  6
CONTINUOUS
 62
    30
 10
-173.5
 20
-153.5
 30
0.0
 11
-764.54127404282008
 21
-153.5
 31
0.0
  0
LINE
  8
SIZE
  6
CONTINUOUS
 62
    30
 10
210.68088199999971
 20
-100.0
 30
0.0
 11
517.33458304281976
 21
-100.0
 31
0.0
  0
TEXT
  8
SIZE
  6
CONTINUOUS
 62
    30
 10
-653.78950704282011
 20
-415.78610942857142
 30
0.0
 40
64.0
  1
57
 50
90.0
 41
0.9
 72
     1
 11
-653.78950704282011
 21
-369.15753799999987
 31
0.0
  0
TEXT
  8
SIZE
  6
CONTINUOUS
 62
    30
 10
-526.27541204281988
 20
-414.99669242857141
 30
0.0
 40
64.0
  1
27
 50
90.0
 41
0.9
 72
     1
 11
-526.27541204281988
 21
-368.36812099999997
 31
0.0
  0
TEXT
  8
SIZE
  6
CONTINUOUS
 62
    30
 10
-769.88442304281944
 20
-451.67499257142862
 30
0.0
 40
64.0
  1
142
 50
90.0
 41
0.9
 72
     1
 11
-769.88442304281944
 21
-383.10356400000001
 31
0.0
  0
LINE
  8
SIZE
  6
CONTINUOUS
 62
    30
 10
-744.54127404282008
 20
-278.0
 30
0.0
 11
-744.54127404282008
 21
-467.57983499999989
 31
0.0
  0
LINE
  8
SIZE
  6
CONTINUOUS
 62
    30
 10
-629.17572204281987
 20
-280.0
 30
0.0
 11
-629.17572204281987
 21
-429.19194499999992
 31
0.0
  0
LINE
  8
SIZE
  6
CONTINUOUS
 62
    30
 10
-500.49742304281972
 20
-284.0
 30
0.0
 11
-500.49742304281972
 21
-426.63275299999992
 31
0.0
  0
LINE
  8
SIZE
  6
CONTINUOUS
 62
    30
 10
-744.54127404282008
 20
-153.5
 30
0.0
 11
-744.54127404282008
 21
-165.5
 31
0.0
  0
LINE
  8
SIZE
  6
CONTINUOUS
 62
    30
 10
-744.54127404282008
 20
-165.5
 30
0.0
 11
-744.54127404282008
 21
-283.49999999999989
 31
0.0
  0
LINE
  8
SIZE
  6
CONTINUOUS
 62
    30
 10
-744.54127404282008
 20
-295.5
 30
0.0
 11
-744.54127404282008
 21
-283.49999999999989
 31
0.0
  0
CIRCLE
  8
SIZE
  6
CONTINUOUS
 62
    30
 10
-744.54127404282008
 20
-295.5
 30
0.0
 40
6.0
  0
CIRCLE
  8
SIZE
  6
CONTINUOUS
 62
    30
 10
-744.54127404282008
 20
-153.5
 30
0.0
 40
6.0
  0
LINE
  8
SIZE
  6
CONTINUOUS
 62
    30
 10
-744.54127404282008
 20
-153.5
 30
0.0
 11
-744.54127404282008
 21
-141.5
 31
0.0
  0
CIRCLE
  8
SIZE
  6
CONTINUOUS
 62
    30
 10
-744.54127404282008
 20
-153.5
 30
0.0
 40
6.0
  0
LINE
  8
SIZE
  6
CONTINUOUS
 62
    30
 10
-629.17572204281987
 20
-295.5
 30
0.0
 11
-629.17572204281987
 21
-238.5
 31
0.0
  0
LINE
  8
SIZE
  6
CONTINUOUS
 62
    30
 10
-629.17572204281987
 20
-295.5
 30
0.0
 11
-629.17572204281987
 21
-238.5
 31
0.0
  0
LINE
  8
SIZE
  6
CONTINUOUS
 62
    30
 10
-629.17572204281987
 20
-295.5
 30
0.0
 11
-629.17572204281987
 21
-307.5
 31
0.0
  0
CIRCLE
  8
SIZE
  6
CONTINUOUS
 62
    30
 10
-629.17572204281987
 20
-295.5
 30
0.0
 40
6.0
  0
LINE
  8
SIZE
  6
CONTINUOUS
 62
    30
 10
-629.17572204281987
 20
-307.5
 30
0.0
 11
-629.17572204281987
 21
-319.5
 31
0.0
  0
CIRCLE
  8
SIZE
  6
CONTINUOUS
 62
    30
 10
-629.17572204281987
 20
-238.5
 30
0.0
 40
6.0
  0
LINE
  8
SIZE
  6
CONTINUOUS
 62
    30
 10
-500.49742304281972
 20
-256.49999999999989
 30
0.0
 11
-500.49742304281972
 21
-244.4999999999998
 31
0.0
  0
LINE
  8
SIZE
  6
CONTINUOUS
 62
    30
 10
-500.49742304281972
 20
-268.5
 30
0.0
 11
-500.49742304281972
 21
-256.49999999999989
 31
0.0
  0
CIRCLE
  8
SIZE
  6
CONTINUOUS
 62
    30
 10
-500.49742304281972
 20
-268.5
 30
0.0
 40
6.0
  0
LINE
  8
SIZE
  6
CONTINUOUS
 62
    30
 10
-500.49742304281972
 20
-295.5
 30
0.0
 11
-500.49742304281972
 21
-307.5
 31
0.0
  0
CIRCLE
  8
SIZE
  6
CONTINUOUS
 62
    30
 10
-500.49742304281972
 20
-295.5
 30
0.0
 40
6.0
  0
LINE
  8
SIZE
  6
CONTINUOUS
 62
    30
 10
-500.49742304281972
 20
-295.5
 30
0.0
 11
-500.49742304281972
 21
-268.5
 31
0.0
  0
LINE
  8
SIZE
  6
CONTINUOUS
 62
    30
 10
-500.49742304281972
 20
-295.5
 30
0.0
 11
-500.49742304281972
 21
-268.5
 31
0.0
  0
LINE
  8
SIZE
  6
CONTINUOUS
 62
    30
 10
-500.49742304281972
 20
-307.5
 30
0.0
 11
-500.49742304281972
 21
-319.5
 31
0.0
  0
LINE
  8
SIZE
  6
CONTINUOUS
 62
    30
 10
497.33458304281982
 20
-100.0
 30
0.0
 11
497.33458304281982
 21
-88.0
 31
0.0
  0
CIRCLE
  8
SIZE
  6
CONTINUOUS
 62
    30
 10
497.33458304281982
 20
-100.0
 30
0.0
 40
6.0
  0
LINE
  8
SIZE
  6
CONTINUOUS
 62
    30
 10
-157.5
 20
-315.5
 30
0.0
 11
-157.5
 21
-785.43861930959463
 31
0.0
  0
LINE
  8
SIZE
  6
CONTINUOUS
 62
    30
 10
-13.5
 20
-315.5
 30
0.0
 11
-13.5
 21
-785.43861930959463
 31
0.0
  0
TEXT
  8
NOTE
  6
CONTINUOUS
 62
     4
 10
-144.8150524123721
 20
-447.4725872330082
 30
0.0
 40
64.0
  1
EA
 41
0.9
  0
LINE
  8
SIZE
  6
CONTINUOUS
 62
    30
 10
-157.71122999999989
 20
-765.43861930959463
 30
0.0
 11
-420.86528300000009
 21
-765.43861930959463
 31
0.0
  0
TEXT
  8
SIZE
  6
CONTINUOUS
 62
    30
 10
-415.84846814285709
 20
-740.43861930959463
 30
0.0
 40
64.0
  1
φ144
 41
0.9
 72
     1
 11
-305.58561099999997
 21
-740.43861930959463
 31
0.0
  0
LINE
  8
SIZE
  6
CONTINUOUS
 62
    30
 10
-429.32846799999987
 20
-765.43861930959463
 30
0.0
 11
-157.5
 21
-765.43861930959463
 31
0.0
  0
LINE
  8
SIZE
  6
CONTINUOUS
 62
    30
 10
-25.5
 20
-765.43861930959463
 30
0.0
 11
-145.5
 21
-765.43861930959463
 31
0.0
  0
LINE
  8
SIZE
  6
CONTINUOUS
 62
    30
 10
-157.5
 20
-765.43861930959463
 30
0.0
 11
-145.5
 21
-765.43861930959463
 31
0.0
  0
CIRCLE
  8
SIZE
  6
CONTINUOUS
 62
    30
 10
-157.5
 20
-765.43861930959463
 30
0.0
 40
6.0
  0
LINE
  8
SIZE
  6
CONTINUOUS
 62
    30
 10
-13.5
 20
-765.43861930959463
 30
0.0
 11
-25.5
 21
-765.43861930959463
 31
0.0
  0
CIRCLE
  8
SIZE
  6
CONTINUOUS
 62
    30
 10
-13.5
 20
-765.43861930959463
 30
0.0
 40
6.0
  0
LINE
  8
NOTE
  6
CONTINUOUS
 62
     4
 10
-100.0
 20
-186.0
 30
0.0
 11
-100.0
 21
-146.0
 31
0.0
  0
CIRCLE
  8
FIX
  6
CONTINUOUS
 62
    11
 10
-100.0
 20
-166.0
 30
0.0
 40
2.5
  0
CIRCLE
  8
FIX
  6
CONTINUOUS
 62
    11
 10
-100.0
 20
-166.0
 30
0.0
 40
2.5
  0
LINE
  8
BASIS
  6
DASHDOT
 62
     6
 10
-85.5
 20
-321.49999999999977
 30
0.0
 11
-85.5
 21
-127.5986809999999
 31
0.0
  0
LINE
  8
DETAIL
  6
CONTINUOUS
 62
     5
 10
-165.5
 20
-238.5
 30
0.0
 11
-165.5
 21
-156.4999999999998
 31
0.0
  0
LINE
  8
DETAIL
  6
CONTINUOUS
 62
     5
 10
-170.5
 20
-174.5
 30
0.0
 11
-170.5
 21
-156.4999999999998
 31
0.0
  0
LINE
  8
DETAIL
  6
CONTINUOUS
 62
     5
 10
-5.5
 20
-238.5
 30
0.0
 11
-5.5
 21
-156.4999999999998
 31
0.0
  0
LINE
  8
OUTLINE
  6
CONTINUOUS
 62
     3
 10
-166.0
 20
-190.0
 30
0.0
 11
-5.5
 21
-190.0
 31
0.0
  0
LINE
  8
DETAIL
  6
CONTINUOUS
 62
     5
 10
-157.5
 20
-295.5
 30
0.0
 11
-13.5
 21
-295.5
 31
0.0
  0
LINE
  8
NOTE
  6
CONTINUOUS
 62
     4
 10
-80.0
 20
-166.0
 30
0.0
 11
-120.0
 21
-166.0
 31
0.0
  0
LINE
  8
DETAIL
  6
CONTINUOUS
 62
     5
 10
-165.5
 20
-238.5
 30
0.0
 11
-5.5
 21
-238.5
 31
0.0
  0
LINE
  8
DETAIL
  6
CONTINUOUS
 62
     5
 10
-161.5
 20
-268.5
 30
0.0
 11
-9.5
 21
-268.5
 31
0.0
  0
LINE
  8
DETAIL
  6
CONTINUOUS
 62
     5
 10
-161.5
 20
-268.5
 30
0.0
 11
-161.5
 21
-238.5
 31
0.0
  0
LINE
  8
DETAIL
  6
CONTINUOUS
 62
     5
 10
-157.5
 20
-295.5
 30
0.0
 11
-157.5
 21
-268.5
 31
0.0
  0
ARC
  8
OUTLINE
  6
CONTINUOUS
 62
     3
 10
-172.0
 20
-172.0
 30
0.0
 40
18.0
 50
180.0
 51
270.0
  0
ARC
  8
DETAIL
  6
CONTINUOUS
 62
     5
 10
-172.0
 20
-172.0
 30
0.0
 40
18.0
 50
180.0
 51
270.0
  0
LINE
  8
DETAIL
  6
CONTINUOUS
 62
     5
 10
-171.9999980000002
 20
-190.0
 30
0.0
 11
-165.5
 21
-190.0
 31
0.0
  0
LINE
  8
DETAIL
  6
CONTINUOUS
 62
     5
 10
-170.5
 20
-174.5
 30
0.0
 11
-165.5
 21
-174.5
 31
0.0
  0
LINE
  8
DETAIL
  6
CONTINUOUS
 62
     5
 10
-9.5
 20
-268.5
 30
0.0
 11
-9.5
 21
-238.5
 31
0.0
  0
LINE
  8
DETAIL
  6
CONTINUOUS
 62
     5
 10
-13.5
 20
-295.5
 30
0.0
 11
-13.5
 21
-268.5
 31
0.0
  0
LINE
  8
NOTE
  6
CONTINUOUS
 62
     4
 10
-170.5
 20
-120.0
 30
0.0
 11
-170.5
 21
-80.0
 31
0.0
  0
LINE
  8
DETAIL
  6
CONTINUOUS
 62
     5
 10
-155.25
 20
-130.0
 30
0.0
 11
-155.25
 21
-70.0
 31
0.0
  0
LINE
  8
DETAIL
  6
CONTINUOUS
 62
     5
 10
-185.75
 20
-130.0
 30
0.0
 11
-185.75
 21
-70.0
 31
0.0
  0
LINE
  8
NOTE
  6
CONTINUOUS
 62
     4
 10
-166.0
 20
-80.0
 30
0.0
 11
-166.0
 21
-120.0
 31
0.0
  0
LINE
  8
DETAIL
  6
CONTINUOUS
 62
     5
 10
-149.5
 20
-153.5
 30
0.0
 11
-179.0
 21
-153.5
 31
0.0
  0
LINE
  8
NOTE
  6
CONTINUOUS
 62
     4
 10
-150.5
 20
-100.0
 30
0.0
 11
-190.5
 21
-100.0
 31
0.0
  0
LINE
  8
DETAIL
  6
CONTINUOUS
 62
     5
 10
-155.25
 20
-130.0
 30
0.0
 11
-185.75
 21
-130.0
 31
0.0
  0
ARC
  8
DETAIL
  6
CONTINUOUS
 62
     5
 10
-170.5
 20
-103.5
 30
0.0
 40
7.5
 50
180.0
 51
0.0
  0
ARC
  8
DETAIL
  6
CONTINUOUS
 62
     5
 10
-170.5
 20
-96.5
 30
0.0
 40
7.5
 50
0.0
 51
180.0
  0
CIRCLE
  8
FIX
  6
CONTINUOUS
 62
    11
 10
-170.5
 20
-100.0
 30
0.0
 40
7.5
  0
LINE
  8
NOTE
  6
CONTINUOUS
 62
     4
 10
-146.0
 20
-100.0
 30
0.0
 11
-186.0
 21
-100.0
 31
0.0
  0
LINE
  8
DETAIL
  6
CONTINUOUS
 62
     5
 10
-178.0
 20
-103.5
 30
0.0
 11
-178.0
 21
-96.5
 31
0.0
  0
LINE
  8
DETAIL
  6
CONTINUOUS
 62
     5
 10
-179.0
 20
-156.4999999999998
 30
0.0
 11
-179.0
 21
-153.5
 31
0.0
  0
LINE
  8
DETAIL
  6
CONTINUOUS
 62
     5
 10
-174.5
 20
-153.5
 30
0.0
 11
-174.5
 21
-130.0
 31
0.0
  0
LINE
  8
DETAIL
  6
CONTINUOUS
 62
     5
 10
-163.0
 20
-103.5
 30
0.0
 11
-163.0
 21
-96.5
 31
0.0
  0
CIRCLE
  8
FIX
  6
CONTINUOUS
 62
    11
 10
-166.0
 20
-100.0
 30
0.0
 40
2.5
  0
LINE
  8
DETAIL
  6
CONTINUOUS
 62
     5
 10
-155.25
 20
-70.0
 30
0.0
 11
-185.75
 21
-70.0
 31
0.0
  0
LINE
  8
DETAIL
  6
CONTINUOUS
 62
     5
 10
-155.25
 20
-70.0
 30
0.0
 11
-153.5
 21
-70.0
 31
0.0
  0
TEXT
  8
NOTE
  6
CONTINUOUS
 62
     4
 10
337.03639882172411
 20
269.70267953763317
 30
0.0
 40
64.0
  1
AH 4
 41
0.9
  0
LINE
  8
NOTE
  6
CONTINUOUS
 62
     4
 10
317.49922313180201
 20
234.5108125376332
 30
0.0
 11
558.16883101125495
 21
234.5108125376332
 31
0.0
  0
LINE
  8
SIZE
  6
CONTINUOUS
 62
    30
 10
-190.0
 20
192.0
 30
0.0
 11
-190.0
 21
871.97078523554524
 31
0.0
  0
LINE
  8
SIZE
  6
CONTINUOUS
 62
    30
 10
-173.5
 20
153.5
 30
0.0
 11
-764.54127404282008
 21
153.5
 31
0.0
  0
LINE
  8
SIZE
  6
CONTINUOUS
 62
    30
 10
210.68088199999971
 20
100.0
 30
0.0
 11
517.33458304281976
 21
100.0
 31
0.0
  0
LINE
  8
SIZE
  6
CONTINUOUS
 62
    30
 10
-744.54127404282008
 20
153.5
 30
0.0
 11
-744.54127404282008
 21
141.5
 31
0.0
  0
CIRCLE
  8
SIZE
  6
CONTINUOUS
 62
    30
 10
-744.54127404282008
 20
153.5
 30
0.0
 40
6.0
  0
LINE
  8
SIZE
  6
CONTINUOUS
 62
    30
 10
497.33458304281982
 20
100.0
 30
0.0
 11
497.33458304281982
 21
88.0
 31
0.0
  0
CIRCLE
  8
SIZE
  6
CONTINUOUS
 62
    30
 10
497.33458304281982
 20
100.0
 30
0.0
 40
6.0
  0
LINE
  8
SIZE
  6
CONTINUOUS
 62
    30
 10
-174.5
 20
194.5
 30
0.0
 11
-174.5
 21
752.86725023554527
 31
0.0
  0
LINE
  8
SIZE
  6
CONTINUOUS
 62
    30
 10
-170.5
 20
140.0
 30
0.0
 11
-170.5
 21
624.66731823554483
 31
0.0
  0
LINE
  8
NOTE
  6
CONTINUOUS
 62
     4
 10
170.5
 20
100.0
 30
0.0
 11
317.49922313180201
 21
234.5108125376332
 31
0.0
  0
ARC
  8
DETAIL
  6
CONTINUOUS
 62
     5
 10
-100.0
 20
164.5
 30
0.0
 40
2.5
 50
180.0
 51
0.0
  0
CIRCLE
  8
FIX
  6
CONTINUOUS
 62
    11
 10
-100.0
 20
166.0
 30
0.0
 40
2.5
  0
LINE
  8
NOTE
  6
CONTINUOUS
 62
     4
 10
-100.0
 20
146.0
 30
0.0
 11
-100.0
 21
186.0
 31
0.0
  0
LINE
  8
DETAIL
  6
CONTINUOUS
 62
     5
 10
-174.5
 20
130.0
 30
0.0
 11
-174.5
 21
174.5
 31
0.0
  0
LINE
  8
NOTE
  6
CONTINUOUS
 62
     4
 10
-170.5
 20
120.0
 30
0.0
 11
-170.5
 21
80.0
 31
0.0
  0
LINE
  8
DETAIL
  6
CONTINUOUS
 62
     5
 10
-185.75
 20
130.0
 30
0.0
 11
-185.75
 21
70.0
 31
0.0
  0
LINE
  8
DETAIL
  6
CONTINUOUS
 62
     5
 10
-155.25
 20
130.0
 30
0.0
 11
-155.25
 21
70.0
 31
0.0
  0
LINE
  8
NOTE
  6
CONTINUOUS
 62
     4
 10
-166.0
 20
120.0
 30
0.0
 11
-166.0
 21
80.0
 31
0.0
  0
LINE
  8
DETAIL
  6
CONTINUOUS
 62
     5
 10
-155.25
 20
70.0
 30
0.0
 11
-185.75
 21
70.0
 31
0.0
  0
LINE
  8
DETAIL
  6
CONTINUOUS
 62
     5
 10
-155.25
 20
70.0
 30
0.0
 11
-153.5
 21
70.0
 31
0.0
  0
CIRCLE
  8
FIX
  6
CONTINUOUS
 62
    11
 10
-170.5
 20
100.0
 30
0.0
 40
7.5
  0
LINE
  8
NOTE
  6
CONTINUOUS
 62
     4
 10
-150.5
 20
100.0
 30
0.0
 11
-190.5
 21
100.0
 31
0.0
  0
ARC
  8
DETAIL
  6
CONTINUOUS
 62
     5
 10
-170.5
 20
96.5
 30
0.0
 40
7.5
 50
180.0
 51
0.0
  0
ARC
  8
DETAIL
  6
CONTINUOUS
 62
     5
 10
-170.5
 20
103.5
 30
0.0
 40
7.5
 50
0.0
 51
180.0
  0
LINE
  8
DETAIL
  6
CONTINUOUS
 62
     5
 10
-155.25
 20
130.0
 30
0.0
 11
-185.75
 21
130.0
 31
0.0
  0
LINE
  8
NOTE
  6
CONTINUOUS
 62
     4
 10
-146.0
 20
100.0
 30
0.0
 11
-186.0
 21
100.0
 31
0.0
  0
LINE
  8
NOTE
  6
CONTINUOUS
 62
     4
 10
170.5
 20
100.0
 30
0.0
 11
192.4678899999999
 21
133.42770999999991
 31
0.0
  0
LINE
  8
NOTE
  6
CONTINUOUS
 62
     4
 10
206.23860599999989
 20
117.965301
 30
0.0
 11
170.5
 21
100.0
 31
0.0
  0
LINE
  8
DETAIL
  6
CONTINUOUS
 62
     5
 10
-178.0
 20
103.5
 30
0.0
 11
-178.0
 21
96.5
 31
0.0
  0
LINE
  8
DETAIL
  6
CONTINUOUS
 62
     5
 10
-163.0
 20
103.5
 30
0.0
 11
-163.0
 21
96.5
 31
0.0
  0
LINE
  8
DETAIL
  6
CONTINUOUS
 62
     5
 10
-155.25
 20
130.0
 30
0.0
 11
-153.5
 21
130.0
 31
0.0
  0
CIRCLE
  8
FIX
  6
CONTINUOUS
 62
    11
 10
-166.0
 20
100.0
 30
0.0
 40
2.5
  0
LINE
  8
NOTE
  6
CONTINUOUS
 62
     4
 10
-120.0
 20
166.0
 30
0.0
 11
-80.0
 21
166.0
 31
0.0
  0
ARC
  8
OUTLINE
  6
CONTINUOUS
 62
     3
 10
-172.0
 20
172.0
 30
0.0
 40
18.0
 50
90.0
 51
180.0
  0
ARC
  8
DETAIL
  6
CONTINUOUS
 62
     5
 10
-172.0
 20
172.0
 30
0.0
 40
18.0
 50
90.0
 51
180.0
  0
LINE
  8
DETAIL
  6
CONTINUOUS
 62
     5
 10
-102.5
 20
167.5
 30
0.0
 11
-102.5
 21
164.5
 31
0.0
  0
LINE
  8
DETAIL
  6
CONTINUOUS
 62
     5
 10
-97.5
 20
167.5
 30
0.0
 11
-97.5
 21
164.5
 31
0.0
  0
ARC
  8
DETAIL
  6
CONTINUOUS
 62
     5
 10
-100.0
 20
167.5
 30
0.0
 40
2.5
 50
0.0
 51
180.0
  0
CIRCLE
  8
SIZE
  6
CONTINUOUS
 62
    30
 10
-170.5
 20
604.66731823554483
 30
0.0
 40
6.0
  0
LINE
  8
SIZE
  6
CONTINUOUS
 62
    30
 10
-170.5
 20
604.66731823554483
 30
0.0
 11
-158.5
 21
604.66731823554483
 31
0.0
  0
LINE
  8
SIZE
  6
CONTINUOUS
 62
    30
 10
-174.5
 20
732.86725023554527
 30
0.0
 11
-162.5
 21
732.86725023554527
 31
0.0
  0
CIRCLE
  8
SIZE
  6
CONTINUOUS
 62
    30
 10
-174.5
 20
732.86725023554527
 30
0.0
 40
6.0
  0
LINE
  8
SIZE
  6
CONTINUOUS
 62
    30
 10
-190.0
 20
851.97078523554546
 30
0.0
 11
-178.0
 21
851.97078523554546
 31
0.0
  0
CIRCLE
  8
SIZE
  6
CONTINUOUS
 62
    30
 10
-190.0
 20
851.97078523554546
 30
0.0
 40
6.0
  0
LINE
  8
OUTLINE
  6
CONTINUOUS
 62
     3
 10
190.0
 20
-172.0
 30
0.0
 11
190.0
 21
172.0
 31
0.0
  0
LINE
  8
DETAIL
  6
CONTINUOUS
 62
     5
 10
190.0
 20
-172.0
 30
0.0
 11
190.0
 21
172.0
 31
0.0
  0
TEXT
  8
SIZE
  6
CONTINUOUS
 62
    30
 10
761.25055246619195
 20
-72.685714285714283
 30
0.0
 40
64.0
  1
349
 50
90.0
 41
0.9
 72
     1
 11
761.25055246619195
 21
0.0
 31
0.0
  0
LINE
  8
SIZE
  6
CONTINUOUS
 62
    30
 10
788.92418046619196
 20
162.5
 30
0.0
 11
788.92418046619196
 21
-162.5
 31
0.0
  0
TEXT
  8
SIZE
  6
CONTINUOUS
 62
    30
 10
635.63964846619183
 20
-74.05714285714285
 30
0.0
 40
64.0
  1
332
 50
90.0
 41
0.9
 72
     1
 11
635.63964846619183
 21
0.0
 31
0.0
  0
LINE
  8
SIZE
  6
CONTINUOUS
 62
    30
 10
659.54726946619212
 20
154.0
 30
0.0
 11
659.54726946619212
 21
-154.0
 31
0.0
  0
LINE
  8
DETAIL
  6
CONTINUOUS
 62
     5
 10
174.5
 20
-70.0
 30
0.0
 11
174.5
 21
70.0
 31
0.0
  0
LINE
  8
DETAIL
  6
CONTINUOUS
 62
     5
 10
153.5
 20
153.5
 30
0.0
 11
153.5
 21
-153.5
 31
0.0
  0
LINE
  8
SIZE
  6
CONTINUOUS
 62
    30
 10
166.0
 20
140.0
 30
0.0
 11
166.0
 21
481.2505090788211
 31
0.0
  0
LINE
  8
SIZE
  6
CONTINUOUS
 62
    30
 10
100.0
 20
206.0
 30
0.0
 11
100.0
 21
345.16750907882277
 31
0.0
  0
LINE
  8
SIZE
  6
CONTINUOUS
 62
    30
 10
166.0
 20
461.25050907882292
 30
0.0
 11
154.0
 21
461.25050907882292
 31
0.0
  0
CIRCLE
  8
SIZE
  6
CONTINUOUS
 62
    30
 10
166.0
 20
461.25050907882292
 30
0.0
 40
6.0
  0
LINE
  8
SIZE
  6
CONTINUOUS
 62
    30
 10
100.0
 20
325.16750907882209
 30
0.0
 11
88.0
 21
325.16750907882209
 31
0.0
  0
CIRCLE
  8
SIZE
  6
CONTINUOUS
 62
    30
 10
100.0
 20
325.16750907882209
 30
0.0
 40
6.0
  0
LINE
  8
SIZE
  6
CONTINUOUS
 62
    30
 10
194.5
 20
-174.5
 30
0.0
 11
808.92418046619196
 21
-174.5
 31
0.0
  0
LINE
  8
SIZE
  6
CONTINUOUS
 62
    30
 10
140.0
 20
-166.0
 30
0.0
 11
679.54726946619212
 21
-166.0
 31
0.0
  0
TEXT
  8
NOTE
  6
CONTINUOUS
 62
     4
 10
211.93636400000011
 20
-374.51113099999998
 30
0.0
 40
64.0
  1
EL
 41
0.9
  0
LINE
  8
NOTE
  6
CONTINUOUS
 62
     4
 10
200.571203
 20
-401.81120700000002
 30
0.0
 11
345.90682699999979
 21
-401.81120700000002
 31
0.0
  0
LINE
  8
NOTE
  6
CONTINUOUS
 62
     4
 10
130.0
 20
-118.0
 30
0.0
 11
200.571203
 21
-401.81120700000002
 31
0.0
  0
LINE
  8
NOTE
  6
CONTINUOUS
 62
     4
 10
100.0
 20
-186.0
 30
0.0
 11
100.0
 21
-146.0
 31
0.0
  0
CIRCLE
  8
FIX
  6
CONTINUOUS
 62
    11
 10
100.0
 20
-166.0
 30
0.0
 40
2.5
  0
ARC
  8
DETAIL
  6
CONTINUOUS
 62
     5
 10
100.0
 20
-164.5
 30
0.0
 40
2.5
 50
0.0
 51
180.0
  0
LINE
  8
DETAIL
  6
CONTINUOUS
 62
     5
 10
174.5
 20
-174.5
 30
0.0
 11
174.5
 21
-130.0
 31
0.0
  0
LINE
  8
NOTE
  6
CONTINUOUS
 62
     4
 10
80.0
 20
-166.0
 30
0.0
 11
120.0
 21
-166.0
 31
0.0
  0
ARC
  8
DETAIL
  6
CONTINUOUS
 62
     5
 10
100.0
 20
-167.5
 30
0.0
 40
2.5
 50
180.0
 51
0.0
  0
LINE
  8
DETAIL
  6
CONTINUOUS
 62
     5
 10
102.5
 20
-164.5
 30
0.0
 11
102.5
 21
-167.5
 31
0.0
  0
LINE
  8
DETAIL
  6
CONTINUOUS
 62
     5
 10
97.5
 20
-164.5
 30
0.0
 11
97.5
 21
-167.5
 31
0.0
  0
ARC
  8
OUTLINE
  6
CONTINUOUS
 62
     3
 10
172.0
 20
-172.0
 30
0.0
 40
18.0
 50
270.0
 51
0.0
  0
ARC
  8
DETAIL
  6
CONTINUOUS
 62
     5
 10
172.0
 20
-172.0
 30
0.0
 40
18.0
 50
270.0
 51
0.0
  0
LINE
  8
NOTE
  6
CONTINUOUS
 62
     4
 10
110.0
 20
-118.0
 30
0.0
 11
150.0
 21
-118.0
 31
0.0
  0
LINE
  8
DETAIL
  6
CONTINUOUS
 62
     5
 10
6.5
 20
-156.4999999999998
 30
0.0
 11
6.5
 21
-153.5
 31
0.0
  0
LINE
  8
NOTE
  6
CONTINUOUS
 62
     4
 10
170.5
 20
-120.0
 30
0.0
 11
170.5
 21
-80.0
 31
0.0
  0
LINE
  8
DETAIL
  6
CONTINUOUS
 62
     5
 10
185.75
 20
-130.0
 30
0.0
 11
185.75
 21
-70.0
 31
0.0
  0
LINE
  8
DETAIL
  6
CONTINUOUS
 62
     5
 10
155.25
 20
-130.0
 30
0.0
 11
155.25
 21
-70.0
 31
0.0
  0
LINE
  8
NOTE
  6
CONTINUOUS
 62
     4
 10
166.0
 20
-120.0
 30
0.0
 11
166.0
 21
-80.0
 31
0.0
  0
LINE
  8
NOTE
  6
CONTINUOUS
 62
     4
 10
150.5
 20
-100.0
 30
0.0
 11
190.5
 21
-100.0
 31
0.0
  0
CIRCLE
  8
FIX
  6
CONTINUOUS
 62
    11
 10
170.5
 20
-100.0
 30
0.0
 40
7.5
  0
ARC
  8
DETAIL
  6
CONTINUOUS
 62
     5
 10
170.5
 20
-96.5
 30
0.0
 40
7.5
 50
0.0
 51
180.0
  0
ARC
  8
DETAIL
  6
CONTINUOUS
 62
     5
 10
170.5
 20
-103.5
 30
0.0
 40
7.5
 50
180.0
 51
0.0
  0
LINE
  8
DETAIL
  6
CONTINUOUS
 62
     5
 10
155.25
 20
-130.0
 30
0.0
 11
185.75
 21
-130.0
 31
0.0
  0
LINE
  8
NOTE
  6
CONTINUOUS
 62
     4
 10
146.0
 20
-100.0
 30
0.0
 11
186.0
 21
-100.0
 31
0.0
  0
CIRCLE
  8
DETAIL
  6
CONTINUOUS
 62
     5
 10
130.0
 20
-118.0
 30
0.0
 40
9.5
  0
LINE
  8
NOTE
  6
CONTINUOUS
 62
     4
 10
130.0
 20
-138.0
 30
0.0
 11
130.0
 21
-98.0
 31
0.0
  0
LINE
  8
DETAIL
  6
CONTINUOUS
 62
     5
 10
163.0
 20
-103.5
 30
0.0
 11
163.0
 21
-96.5
 31
0.0
  0
LINE
  8
DETAIL
  6
CONTINUOUS
 62
     5
 10
155.25
 20
-130.0
 30
0.0
 11
153.5
 21
-130.0
 31
0.0
  0
CIRCLE
  8
FIX
  6
CONTINUOUS
 62
    11
 10
166.0
 20
-100.0
 30
0.0
 40
2.5
  0
LINE
  8
NOTE
  6
CONTINUOUS
 62
     4
 10
130.0
 20
-118.0
 30
0.0
 11
131.2248890000001
 21
-157.98124100000001
 31
0.0
  0
LINE
  8
NOTE
  6
CONTINUOUS
 62
     4
 10
151.05140599999999
 20
-152.012326
 30
0.0
 11
130.0
 21
-118.0
 31
0.0
  0
LINE
  8
DETAIL
  6
CONTINUOUS
 62
     5
 10
178.0
 20
-103.5
 30
0.0
 11
178.0
 21
-96.5
 31
0.0
  0
LINE
  8
DETAIL
  6
CONTINUOUS
 62
     5
 10
155.25
 20
-70.0
 30
0.0
 11
185.75
 21
-70.0
 31
0.0
  0
LINE
  8
DETAIL
  6
CONTINUOUS
 62
     5
 10
155.25
 20
-70.0
 30
0.0
 11
153.5
 21
-70.0
 31
0.0
  0
LINE
  8
SIZE
  6
CONTINUOUS
 62
    30
 10
788.92418046619196
 20
-174.5
 30
0.0
 11
788.92418046619196
 21
-162.5
 31
0.0
  0
LINE
  8
SIZE
  6
CONTINUOUS
 62
    30
 10
659.54726946619212
 20
-166.0
 30
0.0
 11
659.54726946619212
 21
-154.0
 31
0.0
  0
CIRCLE
  8
SIZE
  6
CONTINUOUS
 62
    30
 10
659.54726946619212
 20
-166.0
 30
0.0
 40
6.0
  0
CIRCLE
  8
SIZE
  6
CONTINUOUS
 62
    30
 10
788.92418046619196
 20
-174.5
 30
0.0
 40
6.0
  0
LINE
  8
SIZE
  6
CONTINUOUS
 62
    30
 10
190.0
 20
192.0
 30
0.0
 11
190.0
 21
871.97078523554524
 31
0.0
  0
LINE
  8
SIZE
  6
CONTINUOUS
 62
    30
 10
194.5
 20
174.5
 30
0.0
 11
808.92418046619196
 21
174.5
 31
0.0
  0
LINE
  8
SIZE
  6
CONTINUOUS
 62
    30
 10
140.0
 20
166.0
 30
0.0
 11
679.54726946619212
 21
166.0
 31
0.0
  0
TEXT
  8
NOTE
  6
CONTINUOUS
 62
     4
 10
-758.27357357142864
 20
287.12567300000001
 30
0.0
 40
64.0
  1
8-φ5×8
 41
0.9
  0
LINE
  8
NOTE
  6
CONTINUOUS
 62
     4
 10
-793.67251099999976
 20
260.59441800000008
 30
0.0
 11
-397.00835499999988
 21
260.59441800000008
 31
0.0
  0
LINE
  8
SIZE
  6
CONTINUOUS
 62
    30
 10
174.5
 20
194.5
 30
0.0
 11
174.5
 21
752.86725023554527
 31
0.0
  0
LINE
  8
SIZE
  6
CONTINUOUS
 62
    30
 10
170.5
 20
140.0
 30
0.0
 11
170.5
 21
624.66731823554483
 31
0.0
  0
LINE
  8
NOTE
  6
CONTINUOUS
 62
     4
 10
-100.0
 20
166.0
 30
0.0
 11
-397.00835499999988
 21
260.59441800000008
 31
0.0
  0
LINE
  8
NOTE
  6
CONTINUOUS
 62
     4
 10
100.0
 20
146.0
 30
0.0
 11
100.0
 21
186.0
 31
0.0
  0
CIRCLE
  8
FIX
  6
CONTINUOUS
 62
    11
 10
100.0
 20
166.0
 30
0.0
 40
2.5
  0
ARC
  8
DETAIL
  6
CONTINUOUS
 62
     5
 10
100.0
 20
164.5
 30
0.0
 40
2.5
 50
180.0
 51
0.0
  0
LINE
  8
DETAIL
  6
CONTINUOUS
 62
     5
 10
174.5
 20
130.0
 30
0.0
 11
174.5
 21
174.5
 31
0.0
  0
LINE
  8
NOTE
  6
CONTINUOUS
 62
     4
 10
170.5
 20
120.0
 30
0.0
 11
170.5
 21
80.0
 31
0.0
  0
LINE
  8
DETAIL
  6
CONTINUOUS
 62
     5
 10
155.25
 20
130.0
 30
0.0
 11
155.25
 21
70.0
 31
0.0
  0
LINE
  8
DETAIL
  6
CONTINUOUS
 62
     5
 10
185.75
 20
130.0
 30
0.0
 11
185.75
 21
70.0
 31
0.0
  0
LINE
  8
NOTE
  6
CONTINUOUS
 62
     4
 10
166.0
 20
120.0
 30
0.0
 11
166.0
 21
80.0
 31
0.0
  0
LINE
  8
DETAIL
  6
CONTINUOUS
 62
     5
 10
155.25
 20
70.0
 30
0.0
 11
185.75
 21
70.0
 31
0.0
  0
LINE
  8
DETAIL
  6
CONTINUOUS
 62
     5
 10
155.25
 20
70.0
 30
0.0
 11
153.5
 21
70.0
 31
0.0
  0
LINE
  8
NOTE
  6
CONTINUOUS
 62
     4
 10
150.5
 20
100.0
 30
0.0
 11
190.5
 21
100.0
 31
0.0
  0
LINE
  8
DETAIL
  6
CONTINUOUS
 62
     5
 10
155.25
 20
130.0
 30
0.0
 11
185.75
 21
130.0
 31
0.0
  0
ARC
  8
DETAIL
  6
CONTINUOUS
 62
     5
 10
170.5
 20
103.5
 30
0.0
 40
7.5
 50
0.0
 51
180.0
  0
ARC
  8
DETAIL
  6
CONTINUOUS
 62
     5
 10
170.5
 20
96.5
 30
0.0
 40
7.5
 50
180.0
 51
0.0
  0
CIRCLE
  8
FIX
  6
CONTINUOUS
 62
    11
 10
170.5
 20
100.0
 30
0.0
 40
7.5
  0
LINE
  8
NOTE
  6
CONTINUOUS
 62
     4
 10
146.0
 20
100.0
 30
0.0
 11
186.0
 21
100.0
 31
0.0
  0
LINE
  8
DETAIL
  6
CONTINUOUS
 62
     5
 10
155.25
 20
130.0
 30
0.0
 11
153.5
 21
130.0
 31
0.0
  0
LINE
  8
DETAIL
  6
CONTINUOUS
 62
     5
 10
163.0
 20
103.5
 30
0.0
 11
163.0
 21
96.5
 31
0.0
  0
CIRCLE
  8
FIX
  6
CONTINUOUS
 62
    11
 10
166.0
 20
100.0
 30
0.0
 40
2.5
  0
LINE
  8
DETAIL
  6
CONTINUOUS
 62
     5
 10
178.0
 20
103.5
 30
0.0
 11
178.0
 21
96.5
 31
0.0
  0
LINE
  8
NOTE
  6
CONTINUOUS
 62
     4
 10
120.0
 20
166.0
 30
0.0
 11
80.0
 21
166.0
 31
0.0
  0
LINE
  8
NOTE
  6
CONTINUOUS
 62
     4
 10
-100.0
 20
166.0
 30
0.0
 11
-139.95068499999979
 21
167.98564500000001
 31
0.0
  0
LINE
  8
NOTE
  6
CONTINUOUS
 62
     4
 10
-133.60548499999999
 20
187.69496199999961
 30
0.0
 11
-100.0
 21
166.0
 31
0.0
  0
ARC
  8
DETAIL
  6
CONTINUOUS
 62
     5
 10
100.0
 20
167.5
 30
0.0
 40
2.5
 50
0.0
 51
180.0
  0
LINE
  8
DETAIL
  6
CONTINUOUS
 62
     5
 10
97.5
 20
167.5
 30
0.0
 11
97.5
 21
164.5
 31
0.0
  0
LINE
  8
DETAIL
  6
CONTINUOUS
 62
     5
 10
102.5
 20
167.5
 30
0.0
 11
102.5
 21
164.5
 31
0.0
  0
ARC
  8
OUTLINE
  6
CONTINUOUS
 62
     3
 10
172.0
 20
172.0
 30
0.0
 40
18.0
 50
0.0
 51
90.0
  0
ARC
  8
DETAIL
  6
CONTINUOUS
 62
     5
 10
172.0
 20
172.0
 30
0.0
 40
18.0
 50
0.0
 51
90.0
  0
CIRCLE
  8
SIZE
  6
CONTINUOUS
 62
    30
 10
170.5
 20
604.66731823554483
 30
0.0
 40
6.0
  0
LINE
  8
SIZE
  6
CONTINUOUS
 62
    30
 10
170.5
 20
604.66731823554483
 30
0.0
 11
158.5
 21
604.66731823554483
 31
0.0
  0
LINE
  8
SIZE
  6
CONTINUOUS
 62
    30
 10
174.5
 20
732.86725023554527
 30
0.0
 11
162.5
 21
732.86725023554527
 31
0.0
  0
CIRCLE
  8
SIZE
  6
CONTINUOUS
 62
    30
 10
174.5
 20
732.86725023554527
 30
0.0
 40
6.0
  0
LINE
  8
SIZE
  6
CONTINUOUS
 62
    30
 10
788.92418046619196
 20
174.5
 30
0.0
 11
788.92418046619196
 21
162.5
 31
0.0
  0
LINE
  8
SIZE
  6
CONTINUOUS
 62
    30
 10
659.54726946619212
 20
166.0
 30
0.0
 11
659.54726946619212
 21
154.0
 31
0.0
  0
CIRCLE
  8
SIZE
  6
CONTINUOUS
 62
    30
 10
659.54726946619212
 20
166.0
 30
0.0
 40
6.0
  0
CIRCLE
  8
SIZE
  6
CONTINUOUS
 62
    30
 10
788.92418046619196
 20
174.5
 30
0.0
 40
6.0
  0
LINE
  8
SIZE
  6
CONTINUOUS
 62
    30
 10
190.0
 20
851.97078523554546
 30
0.0
 11
178.0
 21
851.97078523554546
 31
0.0
  0
CIRCLE
  8
SIZE
  6
CONTINUOUS
 62
    30
 10
190.0
 20
851.97078523554546
 30
0.0
 40
6.0
  0
LINE
  8
SIZE
  6
CONTINUOUS
 62
    30
 10
-85.5
 20
-341.49999999999977
 30
0.0
 11
-85.5
 21
-648.68771647656365
 31
0.0
  0
LINE
  8
SIZE
  6
CONTINUOUS
 62
    30
 10
0.0
 20
-254.13516899999991
 30
0.0
 11
0.0
 21
-648.68771647656365
 31
0.0
  0
LINE
  8
SIZE
  6
CONTINUOUS
 62
    30
 10
-12.0
 20
-628.68771647656365
 30
0.0
 11
-73.5
 21
-628.68771647656365
 31
0.0
  0
LINE
  8
SIZE
  6
CONTINUOUS
 62
    30
 10
-85.5
 20
-628.68771647656365
 30
0.0
 11
-327.15570602242411
 21
-628.68771647656365
 31
0.0
  0
CIRCLE
  8
SIZE
  6
CONTINUOUS
 62
    30
 10
0.0
 20
-628.68771647656365
 30
0.0
 40
6.0
  0
LINE
  8
SIZE
  6
CONTINUOUS
 62
    30
 10
0.0
 20
-628.68771647656365
 30
0.0
 11
-12.0
 21
-628.68771647656365
 31
0.0
  0
CIRCLE
  8
SIZE
  6
CONTINUOUS
 62
    30
 10
-85.5
 20
-628.68771647656365
 30
0.0
 40
6.0
  0
LINE
  8
SIZE
  6
CONTINUOUS
 62
    30
 10
-85.5
 20
-628.68771647656365
 30
0.0
 11
-73.5
 21
-628.68771647656365
 31
0.0
  0
TEXT
  8
SIZE
  6
CONTINUOUS
 62
    30
 10
-302.15570602242423
 20
-603.68771647656365
 30
0.0
 40
64.0
  1
86
 41
0.9
 72
     1
 11
-256.8985631652813
 21
-603.68771647656365
 31
0.0
  0
POINT
  8
DEFPOINTS
  6
CONTINUOUS
 62
    30
 10
-85.5
 20
-321.49999999999977
 30
0.0
  0
POINT
  8
DEFPOINTS
  6
CONTINUOUS
 62
    30
 10
0.0
 20
-234.13516899999991
 30
0.0
  0
POINT
  8
DEFPOINTS
  6
CONTINUOUS
 62
    30
 10
0.0
 20
-628.68771647656365
 30
0.0
  0
LINE
  8
SIZE
  6
CONTINUOUS
 62
    30
 10
-153.5
 20
-173.5
 30
0.0
 11
-153.5
 21
-509.41254150585428
 31
0.0
  0
LINE
  8
SIZE
  6
CONTINUOUS
 62
    30
 10
-179.0
 20
-173.5
 30
0.0
 11
-179.0
 21
-509.41254150585428
 31
0.0
  0
LINE
  8
SIZE
  6
CONTINUOUS
 62
    30
 10
-141.5
 20
-489.41254150585428
 30
0.0
 11
-129.5
 21
-489.41254150585428
 31
0.0
  0
LINE
  8
SIZE
  6
CONTINUOUS
 62
    30
 10
-191.0
 20
-489.41254150585428
 30
0.0
 11
-346.25714285714281
 21
-489.41254150585428
 31
0.0
  0
LINE
  8
SIZE
  6
CONTINUOUS
 62
    30
 10
-153.5
 20
-489.41254150585428
 30
0.0
 11
-179.0
 21
-489.41254150585428
 31
0.0
  0
CIRCLE
  8
SIZE
  6
CONTINUOUS
 62
    30
 10
-153.5
 20
-489.41254150585428
 30
0.0
 40
6.0
  0
LINE
  8
SIZE
  6
CONTINUOUS
 62
    30
 10
-153.5
 20
-489.41254150585428
 30
0.0
 11
-141.5
 21
-489.41254150585428
 31
0.0
  0
CIRCLE
  8
SIZE
  6
CONTINUOUS
 62
    30
 10
-179.0
 20
-489.41254150585428
 30
0.0
 40
6.0
  0
LINE
  8
SIZE
  6
CONTINUOUS
 62
    30
 10
-179.0
 20
-489.41254150585428
 30
0.0
 11
-191.0
 21
-489.41254150585428
 31
0.0
  0
TEXT
  8
SIZE
  6
CONTINUOUS
 62
    30
 10
-321.25714285714292
 20
-464.41254150585428
 30
0.0
 40
64.0
  1
26
 41
0.9
 72
     1
 11
-276.0
 21
-464.41254150585428
 31
0.0
  0
POINT
  8
DEFPOINTS
  6
CONTINUOUS
 62
    30
 10
-153.5
 20
-153.5
 30
0.0
  0
POINT
  8
DEFPOINTS
  6
CONTINUOUS
 62
    30
 10
-179.0
 20
-153.5
 30
0.0
  0
POINT
  8
DEFPOINTS
  6
CONTINUOUS
 62
    30
 10
-179.0
 20
-489.41254150585428
 30
0.0
  0
LINE
  8
SIZE
  6
CONTINUOUS
 62
    30
 10
-177.5
 20
-295.49999999999852
 30
0.0
 11
-408.82134457329079
 21
-295.49999999999852
 31
0.0
  0
LINE
  8
SIZE
  6
CONTINUOUS
 62
    30
 10
-141.5
 20
-341.49999999999852
 30
0.0
 11
-408.82134457329079
 21
-341.49999999999852
 31
0.0
  0
LINE
  8
SIZE
  6
CONTINUOUS
 62
    30
 10
-388.82134457329079
 20
-283.49999999999852
 30
0.0
 11
-388.82134457329079
 21
-271.49999999999841
 31
0.0
  0
LINE
  8
SIZE
  6
CONTINUOUS
 62
    30
 10
-388.82134457329079
 20
-353.49999999999841
 30
0.0
 11
-388.82134457329079
 21
-590.49428571428427
 31
0.0
  0
LINE
  8
SIZE
  6
CONTINUOUS
 62
    30
 10
-388.82134457329079
 20
-295.49999999999852
 30
0.0
 11
-388.82134457329079
 21
-341.49999999999852
 31
0.0
  0
CIRCLE
  8
SIZE
  6
CONTINUOUS
 62
    30
 10
-388.82134457329079
 20
-295.49999999999852
 30
0.0
 40
6.0
  0
LINE
  8
SIZE
  6
CONTINUOUS
 62
    30
 10
-388.82134457329079
 20
-295.49999999999852
 30
0.0
 11
-388.82134457329079
 21
-283.49999999999852
 31
0.0
  0
CIRCLE
  8
SIZE
  6
CONTINUOUS
 62
    30
 10
-388.82134457329079
 20
-341.49999999999852
 30
0.0
 40
6.0
  0
LINE
  8
SIZE
  6
CONTINUOUS
 62
    30
 10
-388.82134457329079
 20
-341.49999999999852
 30
0.0
 11
-388.82134457329079
 21
-353.49999999999841
 31
0.0
  0
TEXT
  8
SIZE
  6
CONTINUOUS
 62
    30
 10
-413.82134457329079
 20
-592.3742857142845
 30
0.0
 40
64.0
  1
（46）
 50
90.0
 41
0.9
 72
     1
 11
-413.82134457329079
 21
-477.99714285714163
 31
0.0
  0
POINT
  8
DEFPOINTS
  6
CONTINUOUS
 62
    30
 10
-157.5
 20
-295.49999999999852
 30
0.0
  0
POINT
  8
DEFPOINTS
  6
CONTINUOUS
 62
    30
 10
-121.5
 20
-341.49999999999852
 30
0.0
  0
POINT
  8
DEFPOINTS
  6
CONTINUOUS
 62
    30
 10
-388.82134457329079
 20
-341.49999999999852
 30
0.0
  0
ARC
  8
DETAIL
  6
DIVIDE
 62
     5
 10
-83.399508465857252
 20
-274.59526749501742
 30
0.0
 40
76.992796329957727
 50
195.75446391423529
 51
240.33962114941059
  0
ARC
  8
DETAIL
  6
DIVIDE
 62
     5
 10
-159.60049153414229
 20
-274.59526749501742
 30
0.0
 40
76.992796329957727
 50
299.66037885058938
 51
344.24553608576463
  0
LINE
  8
SIZE
  6
CONTINUOUS
 62
    30
 10
402.78931538636652
 20
441.21907299210721
 30
0.0
 11
62.898710376785857
 21
48.142094775480018
 31
0.0
  0
LINE
  8
SIZE
  6
CONTINUOUS
 62
    30
 10
-16.898710376785861
 20
-44.142094775480018
 30
0.0
 11
-24.747637008284531
 21
-53.219228173934987
 31
0.0
  0
TEXT
  8
SIZE
  6
CONTINUOUS
 62
    30
 10
263.11354062036702
 20
317.90850002797652
 30
0.0
 40
64.0
  1
φ98
 50
49.150283182979543
 41
0.9
 72
     1
 11
319.9846204417413
 21
383.67881516649658
 31
0.0
  0
LINE
  8
SIZE
  6
CONTINUOUS
 62
    30
 10
-9.0497837452867316
 20
-35.064961377024929
 30
0.0
 11
55.049783745286732
 21
39.064961377024929
 31
0.0
  0
CIRCLE
  8
SIZE
  6
CONTINUOUS
 62
    30
 10
-9.0497837452867316
 20
-35.064961377024929
 30
0.0
 40
6.0
  0
LINE
  8
SIZE
  6
CONTINUOUS
 62
    30
 10
-9.0497837452867316
 20
-35.064961377024929
 30
0.0
 11
-16.898710376785861
 21
-44.142094775480018
 31
0.0
  0
CIRCLE
  8
SIZE
  6
CONTINUOUS
 62
    30
 10
55.049783745286732
 20
39.064961377024929
 30
0.0
 40
6.0
  0
LINE
  8
SIZE
  6
CONTINUOUS
 62
    30
 10
55.049783745286732
 20
39.064961377024929
 30
0.0
 11
62.898710376785857
 21
48.142094775480018
 31
0.0
  0
POINT
  8
DEFPOINTS
  6
CONTINUOUS
 62
    30
 10
55.049783745286732
 20
39.064961377024929
 30
0.0
  0
POINT
  8
DEFPOINTS
  6
CONTINUOUS
 62
    30
 10
-9.0497837452867316
 20
-35.064961377024929
 30
0.0
  0
LINE
  8
OUTLINE
  6
CONTINUOUS
 62
     3
 10
-165.5
 20
-238.5
 30
0.0
 11
-165.5
 21
-190.0
 31
0.0
  0
LINE
  8
OUTLINE
  6
CONTINUOUS
 62
     3
 10
-5.5
 20
-238.5
 30
0.0
 11
-5.5
 21
-190.0
 31
0.0
  0
LINE
  8
OUTLINE
  6
CONTINUOUS
 62
     3
 10
-157.5
 20
-295.5
 30
0.0
 11
-13.5
 21
-295.5
 31
0.0
  0
LINE
  8
OUTLINE
  6
CONTINUOUS
 62
     3
 10
-165.5
 20
-238.5
 30
0.0
 11
-5.5
 21
-238.5
 31
0.0
  0
LINE
  8
OUTLINE
  6
CONTINUOUS
 62
     3
 10
-161.5
 20
-268.5
 30
0.0
 11
-9.5
 21
-268.5
 31
0.0
  0
LINE
  8
OUTLINE
  6
CONTINUOUS
 62
     3
 10
-161.5
 20
-268.5
 30
0.0
 11
-161.5
 21
-238.5
 31
0.0
  0
LINE
  8
OUTLINE
  6
CONTINUOUS
 62
     3
 10
-157.5
 20
-295.5
 30
0.0
 11
-157.5
 21
-268.5
 31
0.0
  0
LINE
  8
OUTLINE
  6
CONTINUOUS
 62
     3
 10
-9.5
 20
-268.5
 30
0.0
 11
-9.5
 21
-238.5
 31
0.0
  0
LINE
  8
OUTLINE
  6
CONTINUOUS
 62
     3
 10
-13.5
 20
-295.5
 30
0.0
 11
-13.5
 21
-268.5
 31
0.0
  0
ENDSEC
  0
EOF
