  0
SECTION
  2
HEADER
  9
$ACADVER
  1
AC1009
  9
$INSBASE
 10
0.0
 20
0.0
 30
0.0
  9
$EXTMIN
 10
-1156.484999999999
 20
-493.82761900000003
 30
0.0
  9
$EXTMAX
 10
1258.271
 20
1099.0360000000001
 30
50.0
  9
$LIMMIN
 10
-2970.0
 20
-2100.0
  9
$LIMMAX
 10
2970.0
 20
2100.0
  9
$ORTHOMODE
 70
     1
  9
$REGENMODE
 70
     0
  9
$FILLMODE
 70
     1
  9
$QTEXTMODE
 70
     0
  9
$MIRRTEXT
 70
     0
  9
$DRAGMODE
 70
     2
  9
$LTSCALE
 40
20.0
  9
$OSMODE
 70
   175
  9
$ATTMODE
 70
     1
  9
$TEXTSIZE
 40
64.0
  9
$TRACEWID
 40
0.05
  9
$TEXTSTYLE
  7
STANDARD
  9
$CLAYER
  8
DETAIL
  9
$CELTYPE
  6
DASHDOT
  9
$CECOLOR
 62
     5
  9
$DIMSCALE
 40
1.0
  9
$DIMASZ
 40
12.0
  9
$DIMEXO
 40
20.0
  9
$DIMDLI
 40
200.0
  9
$DIMRND
 40
0.0
  9
$DIMDLE
 40
0.0
  9
$DIMEXE
 40
20.0
  9
$DIMTP
 40
0.0
  9
$DIMTM
 40
0.0
  9
$DIMTXT
 40
64.0
  9
$DIMCEN
 40
0.09
  9
$DIMTSZ
 40
0.0
  9
$DIMTOL
 70
     0
  9
$DIMLIM
 70
     0
  9
$DIMTIH
 70
     0
  9
$DIMTOH
 70
     0
  9
$DIMSE1
 70
     0
  9
$DIMSE2
 70
     0
  9
$DIMTAD
 70
     1
  9
$DIMZIN
 70
     8
  9
$DIMBLK
  1
DOT1
  9
$DIMASO
 70
     1
  9
$DIMSHO
 70
     0
  9
$DIMPOST
  1

  9
$DIMAPOST
  1

  9
$DIMALT
 70
     0
  9
$DIMALTD
 70
     2
  9
$DIMALTF
 40
25.399999999999999
  9
$DIMLFAC
 40
1.0
  9
$DIMTOFL
 70
     1
  9
$DIMTVP
 40
0.0
  9
$DIMTIX
 70
     1
  9
$DIMSOXD
 70
     0
  9
$DIMSAH
 70
     1
  9
$DIMBLK1
  1
ORIGIN
  9
$DIMBLK2
  1
ORIGIN
  9
$DIMSTYLE
  2
STANDARD
  9
$DIMCLRD
 70
     0
  9
$DIMCLRE
 70
     0
  9
$DIMCLRT
 70
     0
  9
$DIMTFAC
 40
1.0
  9
$DIMGAP
 40
0.09
  9
$LUNITS
 70
     2
  9
$LUPREC
 70
     4
  9
$SKETCHINC
 40
0.1
  9
$FILLETRAD
 40
5.0
  9
$AUNITS
 70
     1
  9
$AUPREC
 70
     3
  9
$MENU
  1
ACAD
  9
$ELEVATION
 40
0.0
  9
$PELEVATION
 40
0.0
  9
$THICKNESS
 40
50.0
  9
$LIMCHECK
 70
     0
  9
$BLIPMODE
 70
     0
  9
$CHAMFERA
 40
0.0
  9
$CHAMFERB
 40
0.0
  9
$SKPOLY
 70
     0
  9
$TDCREATE
 40
2452321.3961996529
  9
$TDUPDATE
 40
2453779.4045838648
  9
$TDINDWG
 40
0.2301533681
  9
$TDUSRTIMER
 40
0.2301533681
  9
$USRTIMER
 70
     1
  9
$ANGBASE
 50
0.0
  9
$ANGDIR
 70
     0
  9
$PDMODE
 70
     3
  9
$PDSIZE
 40
-2.0
  9
$PLINEWID
 40
0.0
  9
$COORDS
 70
     2
  9
$SPLFRAME
 70
     0
  9
$SPLINETYPE
 70
     6
  9
$SPLINESEGS
 70
     8
  9
$ATTDIA
 70
     0
  9
$ATTREQ
 70
     1
  9
$HANDLING
 70
 22529
  9
$HANDSEED
  5
690
  9
$SURFTAB1
 70
     6
  9
$SURFTAB2
 70
     6
  9
$SURFTYPE
 70
     6
  9
$SURFU
 70
     6
  9
$SURFV
 70
     6
  9
$UCSNAME
  2

  9
$UCSORG
 10
0.0
 20
0.0
 30
0.0
  9
$UCSXDIR
 10
1.0
 20
0.0
 30
0.0
  9
$UCSYDIR
 10
0.0
 20
1.0
 30
0.0
  9
$PUCSNAME
  2

  9
$PUCSORG
 10
0.0
 20
0.0
 30
0.0
  9
$PUCSXDIR
 10
1.0
 20
0.0
 30
0.0
  9
$PUCSYDIR
 10
0.0
 20
1.0
 30
0.0
  9
$USERI1
 70
     0
  9
$USERI2
 70
     0
  9
$USERI3
 70
     0
  9
$USERI4
 70
     0
  9
$USERI5
 70
     0
  9
$USERR1
 40
20.0
  9
$USERR2
 40
0.0
  9
$USERR3
 40
0.0
  9
$USERR4
 40
0.0
  9
$USERR5
 40
0.0
  9
$WORLDVIEW
 70
     1
  9
$SHADEDGE
 70
     3
  9
$SHADEDIF
 70
    70
  9
$TILEMODE
 70
     1
  9
$MAXACTVP
 70
    64
  9
$PLIMCHECK
 70
     0
  9
$PEXTMIN
 10
1.0000000000000000E+020
 20
1.0000000000000000E+020
 30
1.0000000000000000E+020
  9
$PEXTMAX
 10
-1.0000000000000000E+020
 20
-1.0000000000000000E+020
 30
-1.0000000000000000E+020
  9
$PLIMMIN
 10
0.0
 20
0.0
  9
$PLIMMAX
 10
12.0
 20
9.0
  9
$UNITMODE
 70
     0
  9
$VISRETAIN
 70
     1
  9
$PLINEGEN
 70
     0
  9
$PSLTSCALE
 70
     1
  0
ENDSEC
  0
SECTION
  2
TABLES
  0
TABLE
  2
VPORT
 70
     6
  0
VPORT
  2
*ACTIVE
 70
     0
 10
0.0
 20
0.0
 11
1.0
 21
1.0
 12
-18.55271541470028
 22
140.5777088936629
 13
0.0
 23
0.0
 14
1.0
 24
1.0
 15
0.0
 25
0.0
 16
0.0
 26
0.0
 36
1.0
 17
0.0
 27
0.0
 37
0.0
 40
2164.6867363023011
 41
1.447268106734434
 42
50.0
 43
0.0
 44
0.0
 50
0.0
 51
0.0
 71
     0
 72
   100
 73
     1
 74
     0
 75
     0
 76
     0
 77
     0
 78
     0
  0
ENDTAB
  0
TABLE
  2
LTYPE
 70
     2
  0
LTYPE
  2
CONTINUOUS
 70
     0
  3
Ä└É³
 72
    65
 73
     0
 40
0.0
  0
LTYPE
  2
DASHDOT
 70
     0
  3
____ _ ____ _ ____ _ ____ _ ____ _ ____ _ ____
 72
    65
 73
     4
 40
5.5
 49
4.0
 49
-0.6
 49
0.3
 49
-0.6
  0
ENDTAB
  0
TABLE
  2
LAYER
 70
    12
  0
LAYER
  2
0
 70
     0
 62
     7
  6
CONTINUOUS
  0
LAYER
  2
SIZE
 70
     0
 62
    30
  6
CONTINUOUS
  0
LAYER
  2
BASIS
 70
     0
 62
     6
  6
DASHDOT
  0
LAYER
  2
OUTLINE
 70
     0
 62
     3
  6
CONTINUOUS
  0
LAYER
  2
DETAIL
 70
     0
 62
     5
  6
CONTINUOUS
  0
LAYER
  2
ARRANGE
 70
     0
 62
     1
  6
CONTINUOUS
  0
LAYER
  2
DEFPOINTS
 70
     0
 62
     7
  6
CONTINUOUS
  0
LAYER
  2
ETC
 70
     0
 62
    61
  6
CONTINUOUS
  0
LAYER
  2
FIX
 70
     0
 62
    11
  6
CONTINUOUS
  0
LAYER
  2
NOTE
 70
     0
 62
     4
  6
CONTINUOUS
  0
LAYER
  2
SERVICESPACE
 70
     0
 62
     2
  6
DASHDOT
  0
LAYER
  2
SYMBOLLINE
 70
     0
 62
    15
  6
CONTINUOUS
  0
ENDTAB
  0
TABLE
  2
STYLE
 70
     1
  0
STYLE
  2
STANDARD
 70
     0
 40
64.0
 41
0.9
 50
0.0
 71
     0
 42
64.0
  3
SIMPLEX.shx
  4
BIGFONT.shx
  0
ENDTAB
  0
TABLE
  2
VIEW
 70
     1
  0
VIEW
  2
ALL
 70
     0
 40
4282.6198079999967
 10
0.0
 20
41.309903999999989
 41
5940.0
 11
0.0
 21
0.0
 31
1.0
 12
0.0
 22
0.0
 32
0.0
 42
50.0
 43
0.0
 44
0.0
 50
0.0
 71
     0
  0
ENDTAB
  0
TABLE
  2
UCS
 70
     0
  0
ENDTAB
  0
TABLE
  2
APPID
 70
     1
  0
APPID
  2
ACAD
 70
     0
  0
ENDTAB
  0
TABLE
  2
DIMSTYLE
 70
     1
  0
DIMSTYLE
  2
STANDARD
 70
     0
  3

  4

  5

  6

  7

 40
1.0
 41
0.18
 42
0.0625
 43
0.38
 44
0.18
 45
0.0
 46
0.0
 47
0.0
 48
0.0
140
0.18
141
0.09
142
0.0
143
25.399999999999999
144
1.0
145
0.0
146
1.0
147
0.09
 71
     0
 72
     0
 73
     1
 74
     1
 75
     0
 76
     0
 77
     0
 78
     0
170
     0
171
     2
172
     0
173
     0
174
     0
175
     0
176
     0
177
     0
178
     0
  0
ENDTAB
  0
ENDSEC
  0
SECTION
  2
BLOCKS
  0
BLOCK
  8
0
  2
$MODEL_SPACE
 70
     0
 10
0.0
 20
0.0
 30
0.0
  3
$MODEL_SPACE
  1

  0
ENDBLK
  5
479
  8
0
  0
BLOCK
 67
     1
  8
0
  2
$PAPER_SPACE
 70
     0
 10
0.0
 20
0.0
 30
0.0
  3
$PAPER_SPACE
  1

  0
ENDBLK
  5
475
 67
     1
  8
0
  0
BLOCK
  8
0
  2
DOT1
 70
     0
 10
0.0
 20
0.0
 30
0.0
  3
DOT1
  1

  0
CIRCLE
  5
494
  8
SIZE
  6
CONTINUOUS
 62
     7
 10
0.0
 20
0.0
 30
0.0
 40
3.0
  0
ENDBLK
  5
495
  8
0
  0
BLOCK
  8
0
  2
_ORIGIN
 70
     0
 10
0.0
 20
0.0
 30
0.0
  3
_ORIGIN
  1

  0
CIRCLE
  5
498
  8
0
  6
CONTINUOUS
 62
     7
 10
0.0
 20
0.0
 30
0.0
 40
0.5
  0
LINE
  5
499
  8
0
  6
CONTINUOUS
 62
     7
 10
0.0
 20
0.0
 30
0.0
 11
-1.0
 21
0.0
 31
0.0
  0
ENDBLK
  5
49A
  8
0
  0
ENDSEC
  0
SECTION
  2
ENTITIES
  0
LINE
  5
49B
  8
BASIS
  6
DASHDOT
 62
     6
 10
0.0
 20
-46.14115799999999
 30
0.0
 11
0.0
 21
280.0
 31
0.0
  0
LINE
  5
49C
  8
DETAIL
  6
CONTINUOUS
 62
     5
 10
237.0
 20
0.0
 30
0.0
 11
-237.0
 21
0.0
 31
0.0
  0
LINE
  5
49D
  8
DETAIL
  6
CONTINUOUS
 62
     5
 10
193.0
 20
0.0
 30
0.0
 11
193.0
 21
200.0
 31
0.0
  0
LINE
  5
49E
  8
DETAIL
  6
CONTINUOUS
 62
     5
 10
-193.0
 20
0.0
 30
0.0
 11
-193.0
 21
200.0
 31
0.0
  0
LINE
  5
49F
  8
DETAIL
  6
CONTINUOUS
 62
     5
 10
51.5
 20
208.0
 30
0.0
 11
51.5
 21
227.0
 31
0.0
  0
LINE
  5
4A0
  8
DETAIL
  6
CONTINUOUS
 62
     5
 10
-236.66393500000001
 20
-3.0
 30
0.0
 11
236.66393500000001
 21
-3.0
 31
0.0
  0
LINE
  5
4A1
  8
DETAIL
  6
CONTINUOUS
 62
     5
 10
-232.20729700000001
 20
-7.5
 30
0.0
 11
232.20729700000001
 21
-7.5
 31
0.0
  0
LINE
  5
4A2
  8
DETAIL
  6
CONTINUOUS
 62
     5
 10
-237.0
 20
-0.8571229999999998
 30
0.0
 11
-237.0
 21
0.0
 31
0.0
  0
ARC
  5
4A3
  8
DETAIL
  6
CONTINUOUS
 62
     5
 10
-229.99999700000001
 20
-0.8571229999999998
 30
0.0
 40
7.0
 50
180.0
 51
258.07308499999999
  0
ARC
  5
4A4
  8
DETAIL
  6
CONTINUOUS
 62
     5
 10
-113.98603
 20
483.46498399999979
 30
0.0
 40
505.02072999999967
 50
256.55064800000002
 51
260.75801999999999
  0
LINE
  5
4A5
  8
DETAIL
  6
CONTINUOUS
 62
     5
 10
-195.094582
 20
-15.0
 30
0.0
 11
0.0
 21
-15.0
 31
0.0
  0
ARC
  5
4A6
  8
DETAIL
  6
CONTINUOUS
 62
     5
 10
113.98603
 20
483.46498399999979
 30
0.0
 40
505.02072999999967
 50
279.24197999999973
 51
283.44935199999992
  0
LINE
  5
4A7
  8
DETAIL
  6
CONTINUOUS
 62
     5
 10
195.094582
 20
-15.0
 30
0.0
 11
0.0
 21
-15.0
 31
0.0
  0
LINE
  5
4A8
  8
DETAIL
  6
CONTINUOUS
 62
     5
 10
237.0
 20
-0.8571229999999998
 30
0.0
 11
237.0
 21
0.0
 31
0.0
  0
ARC
  5
4A9
  8
DETAIL
  6
CONTINUOUS
 62
     5
 10
229.99999700000001
 20
-0.8571229999999998
 30
0.0
 40
7.0
 50
281.92691500000001
 51
0.0
  0
TEXT
  5
4AA
  8
NOTE
  6
CONTINUOUS
 62
     4
 10
302.97387199999991
 20
413.61201699999981
 30
0.0
 40
64.0
  1
AH 4-âË15ü~22(4ô_Æ¦éÞ)
 41
0.9
  0
LINE
  5
4AB
  8
NOTE
  6
CONTINUOUS
 62
     4
 10
280.41516999999982
 20
363.68602099999998
 30
0.0
 11
1258.271
 21
363.68602099999998
 31
0.0
  0
LINE
  5
4AC
  8
NOTE
  6
CONTINUOUS
 62
     4
 10
-205.0
 20
-20.0
 30
0.0
 11
-205.0
 21
20.0
 31
0.0
  0
LINE
  5
4AD
  8
NOTE
  6
CONTINUOUS
 62
     4
 10
-185.0
 20
0.0
 30
0.0
 11
-225.0
 21
0.0
 31
0.0
  0
CIRCLE
  5
4AE
  8
FIX
  6
CONTINUOUS
 62
    11
 10
-205.0
 20
0.0
 30
0.0
 40
2.5
  0
CIRCLE
  5
4AF
  8
FIX
  6
CONTINUOUS
 62
    11
 10
-150.0
 20
0.0
 30
0.0
 40
2.5
  0
LINE
  5
4B0
  8
NOTE
  6
CONTINUOUS
 62
     4
 10
-150.0
 20
-20.0
 30
0.0
 11
-150.0
 21
20.0
 31
0.0
  0
LINE
  5
4B1
  8
NOTE
  6
CONTINUOUS
 62
     4
 10
-130.0
 20
0.0
 30
0.0
 11
-170.0
 21
0.0
 31
0.0
  0
CIRCLE
  5
4B2
  8
FIX
  6
CONTINUOUS
 62
    11
 10
205.0
 20
0.0
 30
0.0
 40
2.5
  0
CIRCLE
  5
4B3
  8
FIX
  6
CONTINUOUS
 62
    11
 10
150.0
 20
0.0
 30
0.0
 40
2.5
  0
LINE
  5
4B4
  8
NOTE
  6
CONTINUOUS
 62
     4
 10
150.0
 20
-20.0
 30
0.0
 11
150.0
 21
20.0
 31
0.0
  0
LINE
  5
4B5
  8
NOTE
  6
CONTINUOUS
 62
     4
 10
130.0
 20
0.0
 30
0.0
 11
170.0
 21
0.0
 31
0.0
  0
LINE
  5
4B6
  8
NOTE
  6
CONTINUOUS
 62
     4
 10
205.0
 20
-20.0
 30
0.0
 11
205.0
 21
20.0
 31
0.0
  0
LINE
  5
4B7
  8
NOTE
  6
CONTINUOUS
 62
     4
 10
185.0
 20
0.0
 30
0.0
 11
225.0
 21
0.0
 31
0.0
  0
TEXT
  5
4B8
  8
NOTE
  6
CONTINUOUS
 62
     4
 10
296.93595899999991
 20
-150.19053500000001
 30
0.0
 40
64.0
  1
8-âË5ü~8
 41
0.9
  0
LINE
  5
4B9
  8
NOTE
  6
CONTINUOUS
 62
     4
 10
287.05333599999989
 20
-183.15480600000001
 30
0.0
 11
676.0328549999997
 21
-183.15480600000001
 31
0.0
  0
LINE
  5
4BA
  8
NOTE
  6
CONTINUOUS
 62
     4
 10
204.9885249999999
 20
0.025614
 30
0.0
 11
287.05333599999989
 21
-183.15480600000001
 31
0.0
  0
LINE
  5
4BB
  8
NOTE
  6
CONTINUOUS
 62
     4
 10
211.87625499999999
 20
-39.322103999999982
 30
0.0
 11
204.9860129999999
 21
0.079984
 31
0.0
  0
LINE
  5
4BC
  8
NOTE
  6
CONTINUOUS
 62
     4
 10
204.9860129999999
 20
0.079984
 30
0.0
 11
230.65418199999999
 21
-30.598103999999989
 31
0.0
  0
LINE
  5
4BD
  8
SIZE
  6
CONTINUOUS
 62
    30
 10
150.0
 20
-40.0
 30
0.0
 11
150.0
 21
-219.60762099999999
 31
0.0
  0
LINE
  5
4BE
  8
SIZE
  6
CONTINUOUS
 62
    30
 10
-150.0
 20
-40.0
 30
0.0
 11
-150.0
 21
-219.60762099999999
 31
0.0
  0
LINE
  5
4BF
  8
SIZE
  6
CONTINUOUS
 62
    30
 10
138.0
 20
-199.60762099999999
 30
0.0
 11
-138.0
 21
-199.60762099999999
 31
0.0
  0
TEXT
  5
4C0
  8
SIZE
  6
CONTINUOUS
 62
    30
 10
-74.05714285714285
 20
-173.06835000000001
 30
0.0
 40
64.0
  1
300
 41
0.9
 72
     1
 11
0.0
 21
-173.06835000000001
 31
0.0
  0
CIRCLE
  5
4C1
  8
SIZE
  6
CONTINUOUS
 62
    30
 10
150.0
 20
-199.60762099999999
 30
0.0
 40
6.0
  0
LINE
  5
4C2
  8
SIZE
  6
CONTINUOUS
 62
    30
 10
150.0
 20
-199.60762099999999
 30
0.0
 11
138.0
 21
-199.60762099999999
 31
0.0
  0
CIRCLE
  5
4C3
  8
SIZE
  6
CONTINUOUS
 62
    30
 10
-150.0
 20
-199.60762099999999
 30
0.0
 40
6.0
  0
LINE
  5
4C4
  8
SIZE
  6
CONTINUOUS
 62
    30
 10
-150.0
 20
-199.60762099999999
 30
0.0
 11
-138.0
 21
-199.60762099999999
 31
0.0
  0
LINE
  5
4C5
  8
SIZE
  6
CONTINUOUS
 62
    30
 10
205.0
 20
-40.0
 30
0.0
 11
205.0
 21
-349.91167199999973
 31
0.0
  0
LINE
  5
4C6
  8
SIZE
  6
CONTINUOUS
 62
    30
 10
-205.0
 20
-40.0
 30
0.0
 11
-205.0
 21
-349.91167199999973
 31
0.0
  0
LINE
  5
4C7
  8
SIZE
  6
CONTINUOUS
 62
    30
 10
193.0
 20
-329.91167200000001
 30
0.0
 11
-193.0
 21
-329.91167200000001
 31
0.0
  0
TEXT
  5
4C8
  8
SIZE
  6
CONTINUOUS
 62
    30
 10
-77.235328571428553
 20
-304.40619600000002
 30
0.0
 40
64.0
  1
410
 41
0.9
 72
     1
 11
-8.6638999999999982
 21
-304.40619600000002
 31
0.0
  0
CIRCLE
  5
4C9
  8
SIZE
  6
CONTINUOUS
 62
    30
 10
205.0
 20
-329.91167200000001
 30
0.0
 40
6.0
  0
LINE
  5
4CA
  8
SIZE
  6
CONTINUOUS
 62
    30
 10
205.0
 20
-329.91167200000001
 30
0.0
 11
193.0
 21
-329.91167200000001
 31
0.0
  0
CIRCLE
  5
4CB
  8
SIZE
  6
CONTINUOUS
 62
    30
 10
-205.0
 20
-329.91167200000001
 30
0.0
 40
6.0
  0
LINE
  5
4CC
  8
SIZE
  6
CONTINUOUS
 62
    30
 10
-205.0
 20
-329.91167200000001
 30
0.0
 11
-193.0
 21
-329.91167200000001
 31
0.0
  0
LINE
  5
4CD
  8
SIZE
  6
CONTINUOUS
 62
    30
 10
237.0
 20
-20.0
 30
0.0
 11
237.0
 21
-493.82761900000003
 31
0.0
  0
LINE
  5
4CE
  8
SIZE
  6
CONTINUOUS
 62
    30
 10
-237.0
 20
-20.0
 30
0.0
 11
-237.0
 21
-493.82761900000003
 31
0.0
  0
LINE
  5
4CF
  8
SIZE
  6
CONTINUOUS
 62
    30
 10
225.0
 20
-473.82761900000003
 30
0.0
 11
-225.0
 21
-473.82761900000003
 31
0.0
  0
TEXT
  5
4D0
  8
SIZE
  6
CONTINUOUS
 62
    30
 10
-113.2702584285714
 20
-450.33713299999999
 30
0.0
 40
64.0
  1
üá474
 41
0.9
 72
     1
 11
-1.3616870000000001
 21
-450.33713299999999
 31
0.0
  0
CIRCLE
  5
4D1
  8
SIZE
  6
CONTINUOUS
 62
    30
 10
237.0
 20
-473.82761900000003
 30
0.0
 40
6.0
  0
LINE
  5
4D2
  8
SIZE
  6
CONTINUOUS
 62
    30
 10
237.0
 20
-473.82761900000003
 30
0.0
 11
225.0
 21
-473.82761900000003
 31
0.0
  0
CIRCLE
  5
4D3
  8
SIZE
  6
CONTINUOUS
 62
    30
 10
-237.0
 20
-473.82761900000003
 30
0.0
 40
6.0
  0
LINE
  5
4D4
  8
SIZE
  6
CONTINUOUS
 62
    30
 10
-237.0
 20
-473.82761900000003
 30
0.0
 11
-225.0
 21
-473.82761900000003
 31
0.0
  0
CIRCLE
  5
4D5
  8
ARRANGE
  6
CONTINUOUS
 62
     1
 10
0.0
 20
0.0
 30
0.0
 40
40.0
  0
LINE
  5
4D6
  8
DETAIL
  6
CONTINUOUS
 62
     5
 10
-46.5
 20
200.0
 30
0.0
 11
-46.5
 21
227.0
 31
0.0
  0
LINE
  5
4D7
  8
DETAIL
  6
CONTINUOUS
 62
     5
 10
193.0
 20
193.0
 30
0.0
 11
95.0
 21
193.0
 31
0.0
  0
LINE
  5
4D8
  8
SIZE
  6
CONTINUOUS
 62
    30
 10
677.77799400000004
 20
196.0
 30
0.0
 11
677.77799400000004
 21
320.31191599999988
 31
0.0
  0
LINE
  5
4D9
  8
DETAIL
  6
CONTINUOUS
 62
     5
 10
-278.0
 20
215.0
 30
0.0
 11
-194.7499999999998
 21
215.0
 31
0.0
  0
LINE
  5
4DA
  8
DETAIL
  6
CONTINUOUS
 62
     5
 10
-278.0
 20
55.0
 30
0.0
 11
-193.0
 21
55.0
 31
0.0
  0
LINE
  5
4DB
  8
DETAIL
  6
CONTINUOUS
 62
     5
 10
-335.0
 20
207.0
 30
0.0
 11
-308.0
 21
207.0
 31
0.0
  0
LINE
  5
4DC
  8
DETAIL
  6
CONTINUOUS
 62
     5
 10
-335.0
 20
63.0
 30
0.0
 11
-308.0
 21
63.0
 31
0.0
  0
LINE
  5
4DD
  8
DETAIL
  6
CONTINUOUS
 62
     5
 10
-308.0
 20
59.0
 30
0.0
 11
-278.0
 21
59.0
 31
0.0
  0
LINE
  5
4DE
  8
DETAIL
  6
CONTINUOUS
 62
     5
 10
-308.0
 20
211.0
 30
0.0
 11
-278.0
 21
211.0
 31
0.0
  0
LINE
  5
4DF
  8
DETAIL
  6
CONTINUOUS
 62
     5
 10
-308.0
 20
59.0
 30
0.0
 11
-308.0
 21
211.0
 31
0.0
  0
LINE
  5
4E0
  8
DETAIL
  6
CONTINUOUS
 62
     5
 10
-278.0
 20
55.0
 30
0.0
 11
-278.0
 21
215.0
 31
0.0
  0
LINE
  5
4E1
  8
DETAIL
  6
CONTINUOUS
 62
     5
 10
-198.25
 20
229.0
 30
0.0
 11
-198.25
 21
215.0
 31
0.0
  0
LINE
  5
4E2
  8
DETAIL
  6
CONTINUOUS
 62
     5
 10
-198.25
 20
229.0
 30
0.0
 11
-193.0
 21
229.0
 31
0.0
  0
LINE
  5
4E3
  8
DETAIL
  6
CONTINUOUS
 62
     5
 10
-194.7499999999998
 20
229.0
 30
0.0
 11
-194.7499999999998
 21
0.0
 31
0.0
  0
LINE
  5
4E4
  8
DETAIL
  6
CONTINUOUS
 62
     5
 10
-193.0
 20
0.0
 30
0.0
 11
-193.0
 21
229.0
 31
0.0
  0
LINE
  5
4E5
  8
NOTE
  6
CONTINUOUS
 62
     4
 10
70.0
 20
208.0
 30
0.0
 11
280.41516999999982
 21
363.68602099999998
 31
0.0
  0
LINE
  5
4E6
  8
NOTE
  6
CONTINUOUS
 62
     4
 10
107.032833
 20
223.11850799999991
 30
0.0
 11
70.0
 21
208.0
 31
0.0
  0
LINE
  5
4E7
  8
NOTE
  6
CONTINUOUS
 62
     4
 10
70.0
 20
208.0
 30
0.0
 11
94.512119999999996
 21
239.60942900000001
 31
0.0
  0
LINE
  5
4E8
  8
DETAIL
  6
CONTINUOUS
 62
     5
 10
-155.0
 20
208.0
 30
0.0
 11
-105.0
 21
208.0
 31
0.0
  0
TEXT
  5
4E9
  8
NOTE
  6
CONTINUOUS
 62
     4
 10
-666.46554800000001
 20
384.60652499999992
 30
0.0
 40
64.0
  1
EL âË19
 41
0.9
  0
LINE
  5
4EA
  8
NOTE
  6
CONTINUOUS
 62
     4
 10
-671.61143700000002
 20
358.15720099999982
 30
0.0
 11
-379.71628399999992
 21
358.15720099999982
 31
0.0
  0
LINE
  5
4EB
  8
NOTE
  6
CONTINUOUS
 62
     4
 10
-157.5
 20
180.0
 30
0.0
 11
-157.5
 21
220.0
 31
0.0
  0
LINE
  5
4EC
  8
NOTE
  6
CONTINUOUS
 62
     4
 10
-137.5
 20
200.0
 30
0.0
 11
-177.5
 21
200.0
 31
0.0
  0
LINE
  5
4ED
  8
DETAIL
  6
CONTINUOUS
 62
     5
 10
-155.0
 20
193.0
 30
0.0
 11
-193.0
 21
193.0
 31
0.0
  0
LINE
  5
4EE
  8
DETAIL
  6
CONTINUOUS
 62
     5
 10
45.0
 20
193.0
 30
0.0
 11
-105.0
 21
193.0
 31
0.0
  0
LINE
  5
4EF
  8
DETAIL
  6
CONTINUOUS
 62
     5
 10
193.0
 20
200.0
 30
0.0
 11
95.0
 21
200.0
 31
0.0
  0
LINE
  5
4F0
  8
SIZE
  6
CONTINUOUS
 62
    30
 10
-335.0
 20
227.0
 30
0.0
 11
-335.0
 21
782.69705499999975
 31
0.0
  0
LINE
  5
4F1
  8
SIZE
  6
CONTINUOUS
 62
    30
 10
-308.0
 20
231.0
 30
0.0
 11
-308.0
 21
782.69705499999975
 31
0.0
  0
LINE
  5
4F2
  8
SIZE
  6
CONTINUOUS
 62
    30
 10
-347.0
 20
762.69705499999998
 30
0.0
 11
-359.0
 21
762.69705499999998
 31
0.0
  0
LINE
  5
4F3
  8
SIZE
  6
CONTINUOUS
 62
    30
 10
-296.0
 20
762.69705499999998
 30
0.0
 11
-284.0
 21
762.69705499999998
 31
0.0
  0
TEXT
  5
4F4
  8
SIZE
  6
CONTINUOUS
 62
    30
 10
-462.11717942857138
 20
788.90890999999999
 30
0.0
 40
64.0
  1
27
 41
0.9
 72
     1
 11
-415.48860799999989
 21
788.90890999999999
 31
0.0
  0
LINE
  5
4F5
  8
SIZE
  6
CONTINUOUS
 62
    30
 10
-335.0
 20
762.69705499999998
 30
0.0
 11
-308.0
 21
762.69705499999998
 31
0.0
  0
LINE
  5
4F6
  8
SIZE
  6
CONTINUOUS
 62
    30
 10
-335.0
 20
762.69705499999998
 30
0.0
 11
-308.0
 21
762.69705499999998
 31
0.0
  0
CIRCLE
  5
4F7
  8
SIZE
  6
CONTINUOUS
 62
    30
 10
-335.0
 20
762.69705499999998
 30
0.0
 40
6.0
  0
LINE
  5
4F8
  8
SIZE
  6
CONTINUOUS
 62
    30
 10
-335.0
 20
762.69705499999998
 30
0.0
 11
-347.0
 21
762.69705499999998
 31
0.0
  0
CIRCLE
  5
4F9
  8
SIZE
  6
CONTINUOUS
 62
    30
 10
-308.0
 20
762.69705499999998
 30
0.0
 40
6.0
  0
LINE
  5
4FA
  8
SIZE
  6
CONTINUOUS
 62
    30
 10
-308.0
 20
762.69705499999998
 30
0.0
 11
-296.0
 21
762.69705499999998
 31
0.0
  0
LINE
  5
4FB
  8
SIZE
  6
CONTINUOUS
 62
    30
 10
-335.0
 20
227.0
 30
0.0
 11
-335.0
 21
904.24771599999997
 31
0.0
  0
LINE
  5
4FC
  8
SIZE
  6
CONTINUOUS
 62
    30
 10
-278.0
 20
235.0
 30
0.0
 11
-278.0
 21
904.24771599999997
 31
0.0
  0
LINE
  5
4FD
  8
SIZE
  6
CONTINUOUS
 62
    30
 10
-347.0
 20
884.24771599999985
 30
0.0
 11
-359.0
 21
884.24771599999985
 31
0.0
  0
TEXT
  5
4FE
  8
SIZE
  6
CONTINUOUS
 62
    30
 10
-461.1306044285713
 20
909.30193199999985
 30
0.0
 40
64.0
  1
57
 41
0.9
 72
     1
 11
-414.50203299999993
 21
909.30193199999985
 31
0.0
  0
LINE
  5
4FF
  8
SIZE
  6
CONTINUOUS
 62
    30
 10
-335.0
 20
884.24771599999985
 30
0.0
 11
-278.0
 21
884.24771599999985
 31
0.0
  0
LINE
  5
500
  8
SIZE
  6
CONTINUOUS
 62
    30
 10
-335.0
 20
884.24771599999985
 30
0.0
 11
-278.0
 21
884.24771599999985
 31
0.0
  0
CIRCLE
  5
501
  8
SIZE
  6
CONTINUOUS
 62
    30
 10
-335.0
 20
884.24771599999985
 30
0.0
 40
6.0
  0
LINE
  5
502
  8
SIZE
  6
CONTINUOUS
 62
    30
 10
-335.0
 20
884.24771599999985
 30
0.0
 11
-347.0
 21
884.24771599999985
 31
0.0
  0
CIRCLE
  5
503
  8
SIZE
  6
CONTINUOUS
 62
    30
 10
-278.0
 20
884.24771599999985
 30
0.0
 40
6.0
  0
LINE
  5
504
  8
SIZE
  6
CONTINUOUS
 62
    30
 10
-338.0
 20
884.24771599999985
 30
0.0
 11
-475.84805399999988
 21
884.24771599999985
 31
0.0
  0
LINE
  5
505
  8
SIZE
  6
CONTINUOUS
 62
    30
 10
-338.0
 20
762.69705499999998
 30
0.0
 11
-478.65073899999987
 21
762.69705499999998
 31
0.0
  0
LINE
  5
506
  8
SIZE
  6
CONTINUOUS
 62
    30
 10
-193.0
 20
249.0
 30
0.0
 11
-193.0
 21
1030.0360000000001
 31
0.0
  0
LINE
  5
507
  8
SIZE
  6
CONTINUOUS
 62
    30
 10
-335.0
 20
227.0
 30
0.0
 11
-335.0
 21
1030.0360000000001
 31
0.0
  0
LINE
  5
508
  8
SIZE
  6
CONTINUOUS
 62
    30
 10
-181.0
 20
1010.0359999999999
 30
0.0
 11
-169.0
 21
1010.0359999999999
 31
0.0
  0
LINE
  5
509
  8
SIZE
  6
CONTINUOUS
 62
    30
 10
-193.0
 20
1010.0359999999999
 30
0.0
 11
-335.0
 21
1010.0359999999999
 31
0.0
  0
CIRCLE
  5
50A
  8
SIZE
  6
CONTINUOUS
 62
    30
 10
-193.0
 20
1010.0359999999999
 30
0.0
 40
6.0
  0
LINE
  5
50B
  8
SIZE
  6
CONTINUOUS
 62
    30
 10
-193.0
 20
1010.0359999999999
 30
0.0
 11
-181.0
 21
1010.0359999999999
 31
0.0
  0
CIRCLE
  5
50C
  8
SIZE
  6
CONTINUOUS
 62
    30
 10
-335.0
 20
1010.0359999999999
 30
0.0
 40
6.0
  0
TEXT
  5
50D
  8
SIZE
  6
CONTINUOUS
 62
    30
 10
-332.5714285714285
 20
1035.0360000000001
 30
0.0
 40
64.0
  1
142
 41
0.9
 72
     1
 11
-264.0
 21
1035.0360000000001
 31
0.0
  0
LINE
  5
50E
  8
SIZE
  6
CONTINUOUS
 62
    30
 10
-698.81374800000003
 20
207.0
 30
0.0
 11
-698.81374800000003
 21
458.80121799999989
 31
0.0
  0
LINE
  5
50F
  8
SIZE
  6
CONTINUOUS
 62
    30
 10
-826.08040200000005
 20
211.0
 30
0.0
 11
-826.08040200000005
 21
461.51754699999992
 31
0.0
  0
LINE
  5
510
  8
SIZE
  6
CONTINUOUS
 62
    30
 10
-950.87585800000022
 20
215.0
 30
0.0
 11
-950.87585800000022
 21
462.87571200000002
 31
0.0
  0
TEXT
  5
511
  8
NOTE
  6
CONTINUOUS
 62
     4
 10
-497.10746899999998
 20
83.469680000000025
 30
0.0
 40
64.0
  1
EA
 41
0.9
  0
LINE
  5
512
  8
SIZE
  6
CONTINUOUS
 62
    30
 10
-193.0
 20
249.0
 30
0.0
 11
-193.0
 21
1030.0360000000001
 31
0.0
  0
LINE
  5
513
  8
SIZE
  6
CONTINUOUS
 62
    30
 10
193.0
 20
220.0
 30
0.0
 11
193.0
 21
1030.0360000000001
 31
0.0
  0
LINE
  5
514
  8
SIZE
  6
CONTINUOUS
 62
    30
 10
-181.0
 20
1010.0359999999999
 30
0.0
 11
181.0
 21
1010.0359999999999
 31
0.0
  0
CIRCLE
  5
515
  8
SIZE
  6
CONTINUOUS
 62
    30
 10
-193.0
 20
1010.0359999999999
 30
0.0
 40
6.0
  0
LINE
  5
516
  8
SIZE
  6
CONTINUOUS
 62
    30
 10
-193.0
 20
1010.0359999999999
 30
0.0
 11
-181.0
 21
1010.0359999999999
 31
0.0
  0
CIRCLE
  5
517
  8
SIZE
  6
CONTINUOUS
 62
    30
 10
193.0
 20
1010.0359999999999
 30
0.0
 40
6.0
  0
LINE
  5
518
  8
SIZE
  6
CONTINUOUS
 62
    30
 10
193.0
 20
1010.0359999999999
 30
0.0
 11
181.0
 21
1010.0359999999999
 31
0.0
  0
TEXT
  5
519
  8
SIZE
  6
CONTINUOUS
 62
    30
 10
-109.1657142857142
 20
1035.0360000000001
 30
0.0
 40
64.0
  1
üá386
 41
0.9
 72
     1
 11
0.0
 21
1035.0360000000001
 31
0.0
  0
LINE
  5
51A
  8
SIZE
  6
CONTINUOUS
 62
    30
 10
51.500002000000002
 20
246.94001399999991
 30
0.0
 11
51.500002000000002
 21
787.76696399999969
 31
0.0
  0
LINE
  5
51B
  8
SIZE
  6
CONTINUOUS
 62
    30
 10
-46.5
 20
246.94001399999991
 30
0.0
 11
-46.5
 21
787.76696399999969
 31
0.0
  0
LINE
  5
51C
  8
SIZE
  6
CONTINUOUS
 62
    30
 10
39.500002000000002
 20
767.76696399999969
 30
0.0
 11
-34.5
 21
767.76696399999969
 31
0.0
  0
LINE
  5
51D
  8
SIZE
  6
CONTINUOUS
 62
    30
 10
385.68835699999988
 20
767.76696399999969
 30
0.0
 11
51.500002000000002
 21
767.76696399999969
 31
0.0
  0
TEXT
  5
51E
  8
SIZE
  6
CONTINUOUS
 62
    30
 10
198.3112135714286
 20
792.76696399999958
 30
0.0
 40
64.0
  1
âË98
 41
0.9
 72
     1
 11
285.25978500000002
 21
792.76696399999958
 31
0.0
  0
CIRCLE
  5
51F
  8
SIZE
  6
CONTINUOUS
 62
    30
 10
51.500002000000002
 20
767.76696399999969
 30
0.0
 40
6.0
  0
LINE
  5
520
  8
SIZE
  6
CONTINUOUS
 62
    30
 10
51.500002000000002
 20
767.76696399999969
 30
0.0
 11
39.500002000000002
 21
767.76696399999969
 31
0.0
  0
CIRCLE
  5
521
  8
SIZE
  6
CONTINUOUS
 62
    30
 10
-46.5
 20
767.76696399999969
 30
0.0
 40
6.0
  0
LINE
  5
522
  8
SIZE
  6
CONTINUOUS
 62
    30
 10
-46.5
 20
767.76696399999969
 30
0.0
 11
-34.5
 21
767.76696399999969
 31
0.0
  0
LINE
  5
523
  8
SIZE
  6
CONTINUOUS
 62
    30
 10
0.0
 20
300.0
 30
0.0
 11
0.0
 21
520.53252599999985
 31
0.0
  0
LINE
  5
524
  8
SIZE
  6
CONTINUOUS
 62
    30
 10
-157.5
 20
240.0
 30
0.0
 11
-157.5
 21
520.53252599999985
 31
0.0
  0
LINE
  5
525
  8
SIZE
  6
CONTINUOUS
 62
    30
 10
-12.0
 20
500.53252599999979
 30
0.0
 11
-145.5
 21
500.53252599999979
 31
0.0
  0
LINE
  5
526
  8
SIZE
  6
CONTINUOUS
 62
    30
 10
-613.54724399999998
 20
500.53252599999979
 30
0.0
 11
-157.5
 21
500.53252599999979
 31
0.0
  0
TEXT
  5
527
  8
SIZE
  6
CONTINUOUS
 62
    30
 10
-588.54724371428574
 20
525.53252599999985
 30
0.0
 40
64.0
  1
157.5
 41
0.9
 72
     1
 11
-478.83295800000002
 21
525.53252599999985
 31
0.0
  0
CIRCLE
  5
528
  8
SIZE
  6
CONTINUOUS
 62
    30
 10
0.0
 20
500.53252599999979
 30
0.0
 40
6.0
  0
LINE
  5
529
  8
SIZE
  6
CONTINUOUS
 62
    30
 10
0.0
 20
500.53252599999979
 30
0.0
 11
-12.0
 21
500.53252599999979
 31
0.0
  0
CIRCLE
  5
52A
  8
SIZE
  6
CONTINUOUS
 62
    30
 10
-157.5
 20
500.53252599999979
 30
0.0
 40
6.0
  0
LINE
  5
52B
  8
SIZE
  6
CONTINUOUS
 62
    30
 10
-157.5
 20
500.53252599999979
 30
0.0
 11
-145.5
 21
500.53252599999979
 31
0.0
  0
LINE
  5
52C
  8
SIZE
  6
CONTINUOUS
 62
    30
 10
51.500002000000002
 20
767.76696399999969
 30
0.0
 11
373.717601
 21
767.76696399999969
 31
0.0
  0
LINE
  5
52D
  8
SIZE
  6
CONTINUOUS
 62
    30
 10
-157.5
 20
500.53252599999979
 30
0.0
 11
-598.24864400000001
 21
500.53252599999979
 31
0.0
  0
LINE
  5
52E
  8
NOTE
  6
CONTINUOUS
 62
     4
 10
-157.5
 20
200.0
 30
0.0
 11
-379.71628399999992
 21
358.15720099999982
 31
0.0
  0
LINE
  5
52F
  8
NOTE
  6
CONTINUOUS
 62
     4
 10
-182.63082800000001
 20
231.11979299999999
 30
0.0
 11
-157.5
 21
200.0
 31
0.0
  0
LINE
  5
530
  8
NOTE
  6
CONTINUOUS
 62
     4
 10
-157.5
 20
200.0
 30
0.0
 11
-194.82383200000001
 21
214.38511700000001
 31
0.0
  0
LINE
  5
531
  8
SIZE
  6
CONTINUOUS
 62
    30
 10
0.0
 20
300.0
 30
0.0
 11
0.0
 21
520.53252599999985
 31
0.0
  0
LINE
  5
532
  8
SIZE
  6
CONTINUOUS
 62
    30
 10
2.5
 20
274.506574
 30
0.0
 11
2.5
 21
520.53252599999985
 31
0.0
  0
LINE
  5
533
  8
SIZE
  6
CONTINUOUS
 62
    30
 10
-12.0
 20
500.53252599999979
 30
0.0
 11
-24.0
 21
500.53252599999979
 31
0.0
  0
LINE
  5
534
  8
SIZE
  6
CONTINUOUS
 62
    30
 10
14.5
 20
500.53252599999979
 30
0.0
 11
26.5
 21
500.53252599999979
 31
0.0
  0
LINE
  5
535
  8
SIZE
  6
CONTINUOUS
 62
    30
 10
365.85531800000001
 20
500.53252599999979
 30
0.0
 11
2.5
 21
500.53252599999979
 31
0.0
  0
TEXT
  5
536
  8
SIZE
  6
CONTINUOUS
 62
    30
 10
220.1696038571427
 20
525.53252599999985
 30
0.0
 40
64.0
  1
2.5
 41
0.9
 72
     1
 11
280.51246099999992
 21
525.53252599999985
 31
0.0
  0
LINE
  5
537
  8
SIZE
  6
CONTINUOUS
 62
    30
 10
0.0
 20
500.53252599999979
 30
0.0
 11
2.5
 21
500.53252599999979
 31
0.0
  0
LINE
  5
538
  8
SIZE
  6
CONTINUOUS
 62
    30
 10
0.0
 20
500.53252599999979
 30
0.0
 11
2.5
 21
500.53252599999979
 31
0.0
  0
CIRCLE
  5
539
  8
SIZE
  6
CONTINUOUS
 62
    30
 10
0.0
 20
500.53252599999979
 30
0.0
 40
6.0
  0
LINE
  5
53A
  8
SIZE
  6
CONTINUOUS
 62
    30
 10
0.0
 20
500.53252599999979
 30
0.0
 11
-12.0
 21
500.53252599999979
 31
0.0
  0
CIRCLE
  5
53B
  8
SIZE
  6
CONTINUOUS
 62
    30
 10
2.5
 20
500.53252599999979
 30
0.0
 40
6.0
  0
LINE
  5
53C
  8
SIZE
  6
CONTINUOUS
 62
    30
 10
2.5
 20
500.53252599999979
 30
0.0
 11
14.5
 21
500.53252599999979
 31
0.0
  0
LINE
  5
53D
  8
SIZE
  6
CONTINUOUS
 62
    30
 10
2.0
 20
500.53252599999979
 30
0.0
 11
348.899832
 21
500.53252599999979
 31
0.0
  0
LINE
  5
53E
  8
SIZE
  6
CONTINUOUS
 62
    30
 10
215.094582
 20
-15.0
 30
0.0
 11
832.46904199999972
 21
-15.0
 31
0.0
  0
LINE
  5
53F
  8
SIZE
  6
CONTINUOUS
 62
    30
 10
257.0
 20
0.0
 30
0.0
 11
832.46904199999972
 21
0.0
 31
0.0
  0
LINE
  5
540
  8
SIZE
  6
CONTINUOUS
 62
    30
 10
812.46904199999983
 20
-27.0
 30
0.0
 11
812.46904199999983
 21
-39.0
 31
0.0
  0
LINE
  5
541
  8
SIZE
  6
CONTINUOUS
 62
    30
 10
812.46904199999983
 20
12.0
 30
0.0
 11
812.46904199999983
 21
24.0
 31
0.0
  0
TEXT
  5
542
  8
SIZE
  6
CONTINUOUS
 62
    30
 10
791.48665499999981
 20
-124.605328142857
 30
0.0
 40
64.0
  1
15
 50
90.0
 41
0.9
 72
     1
 11
791.48665499999981
 21
-83.462470999999965
 31
0.0
  0
LINE
  5
543
  8
SIZE
  6
CONTINUOUS
 62
    30
 10
812.46904199999983
 20
-15.0
 30
0.0
 11
812.46904199999983
 21
0.0
 31
0.0
  0
LINE
  5
544
  8
SIZE
  6
CONTINUOUS
 62
    30
 10
812.46904199999983
 20
-15.0
 30
0.0
 11
812.46904199999983
 21
0.0
 31
0.0
  0
CIRCLE
  5
545
  8
SIZE
  6
CONTINUOUS
 62
    30
 10
812.46904199999983
 20
-15.0
 30
0.0
 40
6.0
  0
LINE
  5
546
  8
SIZE
  6
CONTINUOUS
 62
    30
 10
812.46904199999983
 20
-15.0
 30
0.0
 11
812.46904199999983
 21
-27.0
 31
0.0
  0
CIRCLE
  5
547
  8
SIZE
  6
CONTINUOUS
 62
    30
 10
812.46904199999983
 20
0.0
 30
0.0
 40
6.0
  0
LINE
  5
548
  8
SIZE
  6
CONTINUOUS
 62
    30
 10
812.46904199999983
 20
0.0
 30
0.0
 11
812.46904199999983
 21
12.0
 31
0.0
  0
LINE
  5
549
  8
SIZE
  6
CONTINUOUS
 62
    30
 10
257.0
 20
0.0
 30
0.0
 11
832.46904199999972
 21
0.0
 31
0.0
  0
LINE
  5
54A
  8
SIZE
  6
CONTINUOUS
 62
    30
 10
66.5
 20
232.0
 30
0.0
 11
832.46904199999972
 21
232.0
 31
0.0
  0
LINE
  5
54B
  8
SIZE
  6
CONTINUOUS
 62
    30
 10
812.46904199999983
 20
12.0
 30
0.0
 11
812.46904199999983
 21
220.0
 31
0.0
  0
TEXT
  5
54C
  8
SIZE
  6
CONTINUOUS
 62
    30
 10
780.53332799999998
 20
41.942865142857009
 30
0.0
 40
64.0
  1
232
 50
90.0
 41
0.9
 72
     1
 11
780.53332799999998
 21
116.0000079999998
 31
0.0
  0
CIRCLE
  5
54D
  8
SIZE
  6
CONTINUOUS
 62
    30
 10
812.46904199999983
 20
0.0
 30
0.0
 40
6.0
  0
LINE
  5
54E
  8
SIZE
  6
CONTINUOUS
 62
    30
 10
812.46904199999983
 20
0.0
 30
0.0
 11
812.46904199999983
 21
12.0
 31
0.0
  0
CIRCLE
  5
54F
  8
SIZE
  6
CONTINUOUS
 62
    30
 10
812.46904199999983
 20
232.0
 30
0.0
 40
6.0
  0
LINE
  5
550
  8
SIZE
  6
CONTINUOUS
 62
    30
 10
812.46904199999983
 20
232.0
 30
0.0
 11
812.46904199999983
 21
220.0
 31
0.0
  0
LINE
  5
551
  8
SIZE
  6
CONTINUOUS
 62
    30
 10
257.0
 20
0.0
 30
0.0
 11
697.77799400000004
 21
0.0
 31
0.0
  0
LINE
  5
552
  8
SIZE
  6
CONTINUOUS
 62
    30
 10
213.0
 20
200.0
 30
0.0
 11
697.77799400000004
 21
200.0
 31
0.0
  0
LINE
  5
553
  8
SIZE
  6
CONTINUOUS
 62
    30
 10
677.77799400000004
 20
12.0
 30
0.0
 11
677.77799400000004
 21
188.0
 31
0.0
  0
TEXT
  5
554
  8
SIZE
  6
CONTINUOUS
 62
    30
 10
652.74452699999995
 20
25.94285714285715
 30
0.0
 40
64.0
  1
200
 50
90.0
 41
0.9
 72
     1
 11
652.74452699999995
 21
100.0
 31
0.0
  0
CIRCLE
  5
555
  8
SIZE
  6
CONTINUOUS
 62
    30
 10
677.77799400000004
 20
0.0
 30
0.0
 40
6.0
  0
LINE
  5
556
  8
SIZE
  6
CONTINUOUS
 62
    30
 10
677.77799400000004
 20
0.0
 30
0.0
 11
677.77799400000004
 21
12.0
 31
0.0
  0
CIRCLE
  5
557
  8
SIZE
  6
CONTINUOUS
 62
    30
 10
677.77799400000004
 20
200.0
 30
0.0
 40
6.0
  0
LINE
  5
558
  8
SIZE
  6
CONTINUOUS
 62
    30
 10
677.77799400000004
 20
200.0
 30
0.0
 11
677.77799400000004
 21
188.0
 31
0.0
  0
LINE
  5
559
  8
SIZE
  6
CONTINUOUS
 62
    30
 10
812.46904199999983
 20
-17.0
 30
0.0
 11
812.46904199999983
 21
-125.797977
 31
0.0
  0
LINE
  5
55A
  8
SIZE
  6
CONTINUOUS
 62
    30
 10
-257.0
 20
0.0
 30
0.0
 11
-1086.2850000000001
 21
0.0
 31
0.0
  0
LINE
  5
55B
  8
SIZE
  6
CONTINUOUS
 62
    30
 10
-218.25
 20
229.0
 30
0.0
 11
-1086.2850000000001
 21
229.0
 31
0.0
  0
LINE
  5
55C
  8
SIZE
  6
CONTINUOUS
 62
    30
 10
-1066.2850000000001
 20
12.0
 30
0.0
 11
-1066.2850000000001
 21
217.0
 31
0.0
  0
TEXT
  5
55D
  8
SIZE
  6
CONTINUOUS
 62
    30
 10
-1092.484999999999
 20
40.81428571428571
 30
0.0
 40
64.0
  1
229
 50
90.0
 41
0.9
 72
     1
 11
-1092.484999999999
 21
113.5
 31
0.0
  0
CIRCLE
  5
55E
  8
SIZE
  6
CONTINUOUS
 62
    30
 10
-1066.2850000000001
 20
0.0
 30
0.0
 40
6.0
  0
LINE
  5
55F
  8
SIZE
  6
CONTINUOUS
 62
    30
 10
-1066.2850000000001
 20
0.0
 30
0.0
 11
-1066.2850000000001
 21
12.0
 31
0.0
  0
CIRCLE
  5
560
  8
SIZE
  6
CONTINUOUS
 62
    30
 10
-1066.2850000000001
 20
229.0
 30
0.0
 40
6.0
  0
LINE
  5
561
  8
SIZE
  6
CONTINUOUS
 62
    30
 10
-1066.2850000000001
 20
229.0
 30
0.0
 11
-1066.2850000000001
 21
217.0
 31
0.0
  0
LINE
  5
562
  8
SIZE
  6
CONTINUOUS
 62
    30
 10
-298.0
 20
55.0
 30
0.0
 11
-970.87585799999988
 21
55.0
 31
0.0
  0
LINE
  5
563
  8
SIZE
  6
CONTINUOUS
 62
    30
 10
-298.0
 20
215.0
 30
0.0
 11
-970.87585799999988
 21
215.0
 31
0.0
  0
LINE
  5
564
  8
SIZE
  6
CONTINUOUS
 62
    30
 10
-950.87585800000022
 20
67.0
 30
0.0
 11
-950.87585800000022
 21
203.0
 31
0.0
  0
LINE
  5
565
  8
SIZE
  6
CONTINUOUS
 62
    30
 10
-950.87585800000022
 20
480.4621570000001
 30
0.0
 11
-950.87585800000022
 21
215.0
 31
0.0
  0
TEXT
  5
566
  8
SIZE
  6
CONTINUOUS
 62
    30
 10
-975.87585800000022
 20
249.19929942857129
 30
0.0
 40
64.0
  1
üá160
 50
90.0
 41
0.9
 72
     1
 11
-975.87585800000022
 21
354.25072799999992
 31
0.0
  0
CIRCLE
  5
567
  8
SIZE
  6
CONTINUOUS
 62
    30
 10
-950.87585800000022
 20
55.0
 30
0.0
 40
6.0
  0
LINE
  5
568
  8
SIZE
  6
CONTINUOUS
 62
    30
 10
-950.87585800000022
 20
55.0
 30
0.0
 11
-950.87585800000022
 21
67.0
 31
0.0
  0
CIRCLE
  5
569
  8
SIZE
  6
CONTINUOUS
 62
    30
 10
-950.87585800000022
 20
215.0
 30
0.0
 40
6.0
  0
LINE
  5
56A
  8
SIZE
  6
CONTINUOUS
 62
    30
 10
-950.87585800000022
 20
215.0
 30
0.0
 11
-950.87585800000022
 21
203.0
 31
0.0
  0
LINE
  5
56B
  8
SIZE
  6
CONTINUOUS
 62
    30
 10
-328.0
 20
59.0
 30
0.0
 11
-846.08040199999971
 21
59.0
 31
0.0
  0
LINE
  5
56C
  8
SIZE
  6
CONTINUOUS
 62
    30
 10
-328.0
 20
211.0
 30
0.0
 11
-846.08040199999971
 21
211.0
 31
0.0
  0
LINE
  5
56D
  8
SIZE
  6
CONTINUOUS
 62
    30
 10
-826.08040200000005
 20
71.0
 30
0.0
 11
-826.08040200000005
 21
199.0
 31
0.0
  0
LINE
  5
56E
  8
SIZE
  6
CONTINUOUS
 62
    30
 10
-826.08040200000005
 20
469.14769999999987
 30
0.0
 11
-826.08040200000005
 21
211.0
 31
0.0
  0
TEXT
  5
56F
  8
SIZE
  6
CONTINUOUS
 62
    30
 10
-851.08040200000005
 20
237.8848434285714
 30
0.0
 40
64.0
  1
âË152
 50
90.0
 41
0.9
 72
     1
 11
-851.08040200000005
 21
346.77627200000001
 31
0.0
  0
CIRCLE
  5
570
  8
SIZE
  6
CONTINUOUS
 62
    30
 10
-826.08040200000005
 20
59.0
 30
0.0
 40
6.0
  0
LINE
  5
571
  8
SIZE
  6
CONTINUOUS
 62
    30
 10
-826.08040200000005
 20
59.0
 30
0.0
 11
-826.08040200000005
 21
71.0
 31
0.0
  0
CIRCLE
  5
572
  8
SIZE
  6
CONTINUOUS
 62
    30
 10
-826.08040200000005
 20
211.0
 30
0.0
 40
6.0
  0
LINE
  5
573
  8
SIZE
  6
CONTINUOUS
 62
    30
 10
-826.08040200000005
 20
211.0
 30
0.0
 11
-826.08040200000005
 21
199.0
 31
0.0
  0
LINE
  5
574
  8
SIZE
  6
CONTINUOUS
 62
    30
 10
-355.0
 20
207.0
 30
0.0
 11
-718.81374800000003
 21
207.0
 31
0.0
  0
LINE
  5
575
  8
SIZE
  6
CONTINUOUS
 62
    30
 10
-355.0
 20
63.0
 30
0.0
 11
-718.81374800000003
 21
63.0
 31
0.0
  0
LINE
  5
576
  8
SIZE
  6
CONTINUOUS
 62
    30
 10
-698.81374800000003
 20
195.0
 30
0.0
 11
-698.81374800000003
 21
75.0
 31
0.0
  0
LINE
  5
577
  8
SIZE
  6
CONTINUOUS
 62
    30
 10
-698.81374800000003
 20
470.51912900000002
 30
0.0
 11
-698.81374800000003
 21
207.0
 31
0.0
  0
TEXT
  5
578
  8
SIZE
  6
CONTINUOUS
 62
    30
 10
-723.81374800000003
 20
236.51341485714281
 30
0.0
 40
64.0
  1
âË144
 50
90.0
 41
0.9
 72
     1
 11
-723.81374800000003
 21
346.77627200000001
 31
0.0
  0
CIRCLE
  5
579
  8
SIZE
  6
CONTINUOUS
 62
    30
 10
-698.81374800000003
 20
207.0
 30
0.0
 40
6.0
  0
LINE
  5
57A
  8
SIZE
  6
CONTINUOUS
 62
    30
 10
-698.81374800000003
 20
207.0
 30
0.0
 11
-698.81374800000003
 21
195.0
 31
0.0
  0
CIRCLE
  5
57B
  8
SIZE
  6
CONTINUOUS
 62
    30
 10
-698.81374800000003
 20
63.0
 30
0.0
 40
6.0
  0
LINE
  5
57C
  8
SIZE
  6
CONTINUOUS
 62
    30
 10
-698.81374800000003
 20
63.0
 30
0.0
 11
-698.81374800000003
 21
75.0
 31
0.0
  0
LINE
  5
57D
  8
SIZE
  6
CONTINUOUS
 62
    30
 10
-257.0
 20
0.0
 30
0.0
 11
-640.23859200000004
 21
0.0
 31
0.0
  0
LINE
  5
57E
  8
SIZE
  6
CONTINUOUS
 62
    30
 10
-386.14140099999992
 20
135.0
 30
0.0
 11
-640.23859200000004
 21
135.0
 31
0.0
  0
LINE
  5
57F
  8
SIZE
  6
CONTINUOUS
 62
    30
 10
-620.23859200000004
 20
12.0
 30
0.0
 11
-620.23859200000004
 21
123.0
 31
0.0
  0
TEXT
  5
580
  8
SIZE
  6
CONTINUOUS
 62
    30
 10
-643.39904999999999
 20
-163.77496357142849
 30
0.0
 40
64.0
  1
135
 50
90.0
 41
0.9
 72
     1
 11
-643.39904999999999
 21
-95.203535000000002
 31
0.0
  0
CIRCLE
  5
581
  8
SIZE
  6
CONTINUOUS
 62
    30
 10
-620.23859200000004
 20
0.0
 30
0.0
 40
6.0
  0
LINE
  5
582
  8
SIZE
  6
CONTINUOUS
 62
    30
 10
-620.23859200000004
 20
0.0
 30
0.0
 11
-620.23859200000004
 21
12.0
 31
0.0
  0
CIRCLE
  5
583
  8
SIZE
  6
CONTINUOUS
 62
    30
 10
-620.23859200000004
 20
135.0
 30
0.0
 40
6.0
  0
LINE
  5
584
  8
SIZE
  6
CONTINUOUS
 62
    30
 10
-620.23859200000004
 20
135.0
 30
0.0
 11
-620.23859200000004
 21
123.0
 31
0.0
  0
LINE
  5
585
  8
SIZE
  6
CONTINUOUS
 62
    30
 10
-620.23859200000004
 20
0.0
 30
0.0
 11
-620.23859200000004
 21
-164.33998399999979
 31
0.0
  0
LINE
  5
586
  8
DETAIL
  6
CONTINUOUS
 62
     5
 10
-155.0
 20
200.0
 30
0.0
 11
-193.0
 21
200.0
 31
0.0
  0
LINE
  5
587
  8
DETAIL
  6
CONTINUOUS
 62
     5
 10
45.0
 20
200.0
 30
0.0
 11
-105.0
 21
200.0
 31
0.0
  0
LINE
  5
588
  8
SIZE
  6
CONTINUOUS
 62
    30
 10
213.0
 20
200.0
 30
0.0
 11
697.77799400000004
 21
200.0
 31
0.0
  0
LINE
  5
589
  8
SIZE
  6
CONTINUOUS
 62
    30
 10
110.0
 20
208.0
 30
0.0
 11
697.77799400000004
 21
208.0
 31
0.0
  0
LINE
  5
58A
  8
SIZE
  6
CONTINUOUS
 62
    30
 10
677.77799400000004
 20
188.0
 30
0.0
 11
677.77799400000004
 21
176.0
 31
0.0
  0
LINE
  5
58B
  8
SIZE
  6
CONTINUOUS
 62
    30
 10
677.77799400000004
 20
220.0
 30
0.0
 11
677.77799400000004
 21
232.0
 31
0.0
  0
LINE
  5
58C
  8
SIZE
  6
CONTINUOUS
 62
    30
 10
677.77799400000004
 20
329.06888800000002
 30
0.0
 11
677.77799400000004
 21
208.0
 31
0.0
  0
TEXT
  5
58D
  8
SIZE
  6
CONTINUOUS
 62
    30
 10
652.77799400000004
 20
265.66888799999992
 30
0.0
 40
64.0
  1
8
 50
90.0
 41
0.9
 72
     1
 11
652.77799400000004
 21
284.86888799999991
 31
0.0
  0
LINE
  5
58E
  8
SIZE
  6
CONTINUOUS
 62
    30
 10
677.77799400000004
 20
200.0
 30
0.0
 11
677.77799400000004
 21
208.0
 31
0.0
  0
LINE
  5
58F
  8
SIZE
  6
CONTINUOUS
 62
    30
 10
677.77799400000004
 20
200.0
 30
0.0
 11
677.77799400000004
 21
208.0
 31
0.0
  0
CIRCLE
  5
590
  8
SIZE
  6
CONTINUOUS
 62
    30
 10
677.77799400000004
 20
200.0
 30
0.0
 40
6.0
  0
LINE
  5
591
  8
SIZE
  6
CONTINUOUS
 62
    30
 10
677.77799400000004
 20
200.0
 30
0.0
 11
677.77799400000004
 21
188.0
 31
0.0
  0
CIRCLE
  5
592
  8
SIZE
  6
CONTINUOUS
 62
    30
 10
677.77799400000004
 20
208.0
 30
0.0
 40
6.0
  0
LINE
  5
593
  8
SIZE
  6
CONTINUOUS
 62
    30
 10
677.77799400000004
 20
208.0
 30
0.0
 11
677.77799400000004
 21
220.0
 31
0.0
  0
LINE
  5
594
  8
DETAIL
  6
CONTINUOUS
 62
     5
 10
46.5
 20
232.0
 30
0.0
 11
-41.5
 21
232.0
 31
0.0
  0
ARC
  5
595
  8
DETAIL
  6
CONTINUOUS
 62
     5
 10
-41.5
 20
227.0
 30
0.0
 40
5.0
 50
90.0
 51
180.0
  0
ARC
  5
596
  8
DETAIL
  6
CONTINUOUS
 62
     5
 10
46.5
 20
227.0
 30
0.0
 40
5.0
 50
0.0
 51
90.0
  0
LINE
  5
597
  8
DETAIL
  6
CONTINUOUS
 62
     5
 10
-335.0
 20
63.0
 30
0.0
 11
-335.0
 21
207.0
 31
0.0
  0
LINE
  5
598
  8
DETAIL
  6
CONTINUOUS
 62
     5
 10
-95.0
 20
204.49999999999989
 30
0.0
 11
-45.0
 21
204.49999999999989
 31
0.0
  0
LINE
  5
599
  8
DETAIL
  6
CONTINUOUS
 62
     5
 10
-95.0
 20
208.0
 30
0.0
 11
-45.0
 21
208.0
 31
0.0
  0
LINE
  5
59A
  8
DETAIL
  6
CONTINUOUS
 62
     5
 10
-95.0
 20
208.0
 30
0.0
 11
-45.0
 21
208.0
 31
0.0
  0
LINE
  5
59B
  8
DETAIL
  6
CONTINUOUS
 62
     5
 10
-95.0
 20
200.0
 30
0.0
 11
-95.0
 21
208.0
 31
0.0
  0
CIRCLE
  5
59C
  8
FIX
  6
CONTINUOUS
 62
    11
 10
-70.0
 20
208.0
 30
0.0
 40
7.5
  0
LINE
  5
59D
  8
DETAIL
  6
CONTINUOUS
 62
     5
 10
-45.0
 20
200.0
 30
0.0
 11
-45.0
 21
208.0
 31
0.0
  0
LINE
  5
59E
  8
NOTE
  6
CONTINUOUS
 62
     4
 10
-70.0
 20
188.0
 30
0.0
 11
-70.0
 21
228.0
 31
0.0
  0
LINE
  5
59F
  8
NOTE
  6
CONTINUOUS
 62
     4
 10
-50.0
 20
208.0
 30
0.0
 11
-90.0
 21
208.0
 31
0.0
  0
LINE
  5
5A0
  8
NOTE
  6
CONTINUOUS
 62
     4
 10
70.0
 20
188.0
 30
0.0
 11
70.0
 21
228.0
 31
0.0
  0
LINE
  5
5A1
  8
NOTE
  6
CONTINUOUS
 62
     4
 10
50.0
 20
208.0
 30
0.0
 11
90.0
 21
208.0
 31
0.0
  0
LINE
  5
5A2
  8
DETAIL
  6
CONTINUOUS
 62
     5
 10
95.0
 20
208.0
 30
0.0
 11
53.0
 21
208.0
 31
0.0
  0
LINE
  5
5A3
  8
DETAIL
  6
CONTINUOUS
 62
     5
 10
95.0
 20
208.0
 30
0.0
 11
45.0
 21
208.0
 31
0.0
  0
LINE
  5
5A4
  8
DETAIL
  6
CONTINUOUS
 62
     5
 10
95.0
 20
204.49999999999989
 30
0.0
 11
45.0
 21
204.49999999999989
 31
0.0
  0
CIRCLE
  5
5A5
  8
FIX
  6
CONTINUOUS
 62
    11
 10
70.0
 20
208.0
 30
0.0
 40
7.5
  0
LINE
  5
5A6
  8
DETAIL
  6
CONTINUOUS
 62
     5
 10
105.0
 20
200.0
 30
0.0
 11
105.0
 21
208.0
 31
0.0
  0
LINE
  5
5A7
  8
NOTE
  6
CONTINUOUS
 62
     4
 10
130.0
 20
188.0
 30
0.0
 11
130.0
 21
228.0
 31
0.0
  0
LINE
  5
5A8
  8
NOTE
  6
CONTINUOUS
 62
     4
 10
110.0
 20
208.0
 30
0.0
 11
150.0
 21
208.0
 31
0.0
  0
LINE
  5
5A9
  8
DETAIL
  6
CONTINUOUS
 62
     5
 10
155.0
 20
208.0
 30
0.0
 11
105.0
 21
208.0
 31
0.0
  0
LINE
  5
5AA
  8
DETAIL
  6
CONTINUOUS
 62
     5
 10
155.0
 20
208.0
 30
0.0
 11
105.0
 21
208.0
 31
0.0
  0
LINE
  5
5AB
  8
DETAIL
  6
CONTINUOUS
 62
     5
 10
155.0
 20
204.49999999999989
 30
0.0
 11
105.0
 21
204.49999999999989
 31
0.0
  0
CIRCLE
  5
5AC
  8
FIX
  6
CONTINUOUS
 62
    11
 10
130.0
 20
208.0
 30
0.0
 40
7.5
  0
LINE
  5
5AD
  8
DETAIL
  6
CONTINUOUS
 62
     5
 10
155.0
 20
200.0
 30
0.0
 11
155.0
 21
208.0
 31
0.0
  0
LINE
  5
5AE
  8
DETAIL
  6
CONTINUOUS
 62
     5
 10
45.0
 20
7.0
 30
0.0
 11
45.0
 21
208.0
 31
0.0
  0
LINE
  5
5AF
  8
DETAIL
  6
CONTINUOUS
 62
     5
 10
95.0
 20
7.0
 30
0.0
 11
95.0
 21
208.0
 31
0.0
  0
LINE
  5
5B0
  8
DETAIL
  6
CONTINUOUS
 62
     5
 10
-155.0
 20
208.0
 30
0.0
 11
-155.0
 21
7.0
 31
0.0
  0
LINE
  5
5B1
  8
DETAIL
  6
CONTINUOUS
 62
     5
 10
-105.0
 20
208.0
 30
0.0
 11
-105.0
 21
7.0
 31
0.0
  0
LINE
  5
5B2
  8
DETAIL
  6
CONTINUOUS
 62
     5
 10
-155.0
 20
7.0
 30
0.0
 11
-105.0
 21
7.0
 31
0.0
  0
LINE
  5
5B3
  8
DETAIL
  6
CONTINUOUS
 62
     5
 10
95.0
 20
7.0
 30
0.0
 11
45.0
 21
7.0
 31
0.0
  0
LINE
  5
5B4
  8
SIZE
  6
CONTINUOUS
 62
    30
 10
0.0
 20
316.0
 30
0.0
 11
0.0
 21
902.62631400000021
 31
0.0
  0
LINE
  5
5B5
  8
SIZE
  6
CONTINUOUS
 62
    30
 10
-130.0
 20
248.0
 30
0.0
 11
-130.0
 21
902.62631400000021
 31
0.0
  0
LINE
  5
5B6
  8
SIZE
  6
CONTINUOUS
 62
    30
 10
-12.0
 20
882.62631400000009
 30
0.0
 11
-118.0
 21
882.62631400000009
 31
0.0
  0
TEXT
  5
5B7
  8
SIZE
  6
CONTINUOUS
 62
    30
 10
-129.13185057142849
 20
912.67721500000005
 30
0.0
 40
64.0
  1
130
 41
0.9
 72
     1
 11
-60.560422000000003
 21
912.67721500000005
 31
0.0
  0
CIRCLE
  5
5B8
  8
SIZE
  6
CONTINUOUS
 62
    30
 10
0.0
 20
882.62631400000009
 30
0.0
 40
6.0
  0
LINE
  5
5B9
  8
SIZE
  6
CONTINUOUS
 62
    30
 10
0.0
 20
882.62631400000009
 30
0.0
 11
-12.0
 21
882.62631400000009
 31
0.0
  0
CIRCLE
  5
5BA
  8
SIZE
  6
CONTINUOUS
 62
    30
 10
-130.0
 20
882.62631400000009
 30
0.0
 40
6.0
  0
LINE
  5
5BB
  8
SIZE
  6
CONTINUOUS
 62
    30
 10
-130.0
 20
882.62631400000009
 30
0.0
 11
-118.0
 21
882.62631400000009
 31
0.0
  0
LINE
  5
5BC
  8
DETAIL
  6
CONTINUOUS
 62
     5
 10
-155.0
 20
204.49999999999989
 30
0.0
 11
-105.0
 21
204.49999999999989
 31
0.0
  0
LINE
  5
5BD
  8
DETAIL
  6
CONTINUOUS
 62
     5
 10
-155.0
 20
208.0
 30
0.0
 11
-105.0
 21
208.0
 31
0.0
  0
LINE
  5
5BE
  8
DETAIL
  6
CONTINUOUS
 62
     5
 10
-155.0
 20
208.0
 30
0.0
 11
-105.0
 21
208.0
 31
0.0
  0
CIRCLE
  5
5BF
  8
FIX
  6
CONTINUOUS
 62
    11
 10
-130.0
 20
208.0
 30
0.0
 40
7.5
  0
LINE
  5
5C0
  8
SIZE
  6
CONTINUOUS
 62
    30
 10
0.0
 20
316.0
 30
0.0
 11
0.0
 21
650.08114999999998
 31
0.0
  0
LINE
  5
5C1
  8
SIZE
  6
CONTINUOUS
 62
    30
 10
-70.0
 20
248.0
 30
0.0
 11
-70.0
 21
650.08114999999998
 31
0.0
  0
LINE
  5
5C2
  8
SIZE
  6
CONTINUOUS
 62
    30
 10
12.0
 20
630.08114999999998
 30
0.0
 11
24.0
 21
630.08114999999998
 31
0.0
  0
LINE
  5
5C3
  8
SIZE
  6
CONTINUOUS
 62
    30
 10
-82.0
 20
630.08114999999998
 30
0.0
 11
-94.0
 21
630.08114999999998
 31
0.0
  0
LINE
  5
5C4
  8
SIZE
  6
CONTINUOUS
 62
    30
 10
-503.15098799999993
 20
630.08114999999998
 30
0.0
 11
-70.0
 21
630.08114999999998
 31
0.0
  0
TEXT
  5
5C5
  8
SIZE
  6
CONTINUOUS
 62
    30
 10
-478.1509884285714
 20
655.08114999999998
 30
0.0
 40
64.0
  1
70
 41
0.9
 72
     1
 11
-431.52241700000002
 21
655.08114999999998
 31
0.0
  0
LINE
  5
5C6
  8
SIZE
  6
CONTINUOUS
 62
    30
 10
0.0
 20
630.08114999999998
 30
0.0
 11
-70.0
 21
630.08114999999998
 31
0.0
  0
LINE
  5
5C7
  8
SIZE
  6
CONTINUOUS
 62
    30
 10
0.0
 20
630.08114999999998
 30
0.0
 11
-70.0
 21
630.08114999999998
 31
0.0
  0
CIRCLE
  5
5C8
  8
SIZE
  6
CONTINUOUS
 62
    30
 10
0.0
 20
630.08114999999998
 30
0.0
 40
6.0
  0
LINE
  5
5C9
  8
SIZE
  6
CONTINUOUS
 62
    30
 10
0.0
 20
630.08114999999998
 30
0.0
 11
12.0
 21
630.08114999999998
 31
0.0
  0
CIRCLE
  5
5CA
  8
SIZE
  6
CONTINUOUS
 62
    30
 10
-70.0
 20
630.08114999999998
 30
0.0
 40
6.0
  0
LINE
  5
5CB
  8
SIZE
  6
CONTINUOUS
 62
    30
 10
-70.0
 20
630.08114999999998
 30
0.0
 11
-82.0
 21
630.08114999999998
 31
0.0
  0
LINE
  5
5CC
  8
SIZE
  6
CONTINUOUS
 62
    30
 10
0.0
 20
316.0
 30
0.0
 11
0.0
 21
902.62631400000021
 31
0.0
  0
LINE
  5
5CD
  8
SIZE
  6
CONTINUOUS
 62
    30
 10
70.0
 20
248.0
 30
0.0
 11
70.0
 21
902.62631400000021
 31
0.0
  0
LINE
  5
5CE
  8
SIZE
  6
CONTINUOUS
 62
    30
 10
-12.0
 20
882.62631400000009
 30
0.0
 11
-24.0
 21
882.62631400000009
 31
0.0
  0
LINE
  5
5CF
  8
SIZE
  6
CONTINUOUS
 62
    30
 10
82.0
 20
882.62631400000009
 30
0.0
 11
94.0
 21
882.62631400000009
 31
0.0
  0
LINE
  5
5D0
  8
SIZE
  6
CONTINUOUS
 62
    30
 10
363.29758599999991
 20
882.62631400000009
 30
0.0
 11
70.0
 21
882.62631400000009
 31
0.0
  0
TEXT
  5
5D1
  8
SIZE
  6
CONTINUOUS
 62
    30
 10
245.0404435714284
 20
907.62631400000009
 30
0.0
 40
64.0
  1
70
 41
0.9
 72
     1
 11
291.66901499999989
 21
907.62631400000009
 31
0.0
  0
LINE
  5
5D2
  8
SIZE
  6
CONTINUOUS
 62
    30
 10
0.0
 20
882.62631400000009
 30
0.0
 11
70.0
 21
882.62631400000009
 31
0.0
  0
LINE
  5
5D3
  8
SIZE
  6
CONTINUOUS
 62
    30
 10
0.0
 20
882.62631400000009
 30
0.0
 11
70.0
 21
882.62631400000009
 31
0.0
  0
CIRCLE
  5
5D4
  8
SIZE
  6
CONTINUOUS
 62
    30
 10
0.0
 20
882.62631400000009
 30
0.0
 40
6.0
  0
LINE
  5
5D5
  8
SIZE
  6
CONTINUOUS
 62
    30
 10
0.0
 20
882.62631400000009
 30
0.0
 11
-12.0
 21
882.62631400000009
 31
0.0
  0
CIRCLE
  5
5D6
  8
SIZE
  6
CONTINUOUS
 62
    30
 10
70.0
 20
882.62631400000009
 30
0.0
 40
6.0
  0
LINE
  5
5D7
  8
SIZE
  6
CONTINUOUS
 62
    30
 10
70.0
 20
882.62631400000009
 30
0.0
 11
82.0
 21
882.62631400000009
 31
0.0
  0
LINE
  5
5D8
  8
SIZE
  6
CONTINUOUS
 62
    30
 10
0.0
 20
316.0
 30
0.0
 11
0.0
 21
650.08114999999998
 31
0.0
  0
LINE
  5
5D9
  8
SIZE
  6
CONTINUOUS
 62
    30
 10
130.0
 20
248.0
 30
0.0
 11
130.0
 21
650.08114999999998
 31
0.0
  0
LINE
  5
5DA
  8
SIZE
  6
CONTINUOUS
 62
    30
 10
12.0
 20
630.08114999999998
 30
0.0
 11
118.0
 21
630.08114999999998
 31
0.0
  0
LINE
  5
5DB
  8
SIZE
  6
CONTINUOUS
 62
    30
 10
371.69043999999991
 20
630.08114999999998
 30
0.0
 11
130.0
 21
630.08114999999998
 31
0.0
  0
TEXT
  5
5DC
  8
SIZE
  6
CONTINUOUS
 62
    30
 10
209.54758342857139
 20
655.08114999999998
 30
0.0
 40
64.0
  1
130
 41
0.9
 72
     1
 11
278.119012
 21
655.08114999999998
 31
0.0
  0
CIRCLE
  5
5DD
  8
SIZE
  6
CONTINUOUS
 62
    30
 10
0.0
 20
630.08114999999998
 30
0.0
 40
6.0
  0
LINE
  5
5DE
  8
SIZE
  6
CONTINUOUS
 62
    30
 10
0.0
 20
630.08114999999998
 30
0.0
 11
12.0
 21
630.08114999999998
 31
0.0
  0
CIRCLE
  5
5DF
  8
SIZE
  6
CONTINUOUS
 62
    30
 10
130.0
 20
630.08114999999998
 30
0.0
 40
6.0
  0
LINE
  5
5E0
  8
SIZE
  6
CONTINUOUS
 62
    30
 10
130.0
 20
630.08114999999998
 30
0.0
 11
118.0
 21
630.08114999999998
 31
0.0
  0
LINE
  5
5E1
  8
NOTE
  6
CONTINUOUS
 62
     4
 10
-130.0
 20
188.0
 30
0.0
 11
-130.0
 21
228.0
 31
0.0
  0
LINE
  5
5E2
  8
NOTE
  6
CONTINUOUS
 62
     4
 10
-110.0
 20
208.0
 30
0.0
 11
-150.0
 21
208.0
 31
0.0
  0
TEXT
  5
5E3
  8
ETC
  6
CONTINUOUS
 62
    61
 10
740.83936533405949
 20
896.34295330566181
 30
0.0
 40
64.0
  1
VD-23Z7_4
 41
0.9
  0
TEXT
  5
5E4
  8
ETC
  6
CONTINUOUS
 62
    61
 10
871.62564818861438
 20
714.34933577546713
 30
0.0
 40
50.0
  1
VD-23Z7
 41
0.9
  0
TEXT
  5
5E5
  8
ETC
  6
CONTINUOUS
 62
    61
 10
732.9236583340595
 20
803.95549030566178
 30
0.0
 40
64.0
  1
èÀïCÉ¯
 41
0.9
  0
LINE
  5
5E6
  8
OUTLINE
  6
CONTINUOUS
 62
     3
 10
193.0
 20
200.0
 30
0.0
 11
-192.2179169999998
 21
200.0
 31
0.0
  0
LINE
  5
5E7
  8
OUTLINE
  6
CONTINUOUS
 62
     3
 10
237.0
 20
0.0
 30
0.0
 11
-237.0
 21
0.0
 31
0.0
  0
LINE
  5
5E8
  8
BASIS
  6
DASHDOT
 62
     6
 10
-366.14140099999992
 20
135.0
 30
0.0
 11
-169.09359599999999
 21
135.0
 31
0.0
  0
LINE
  5
5E9
  8
OUTLINE
  6
CONTINUOUS
 62
     3
 10
-193.0
 20
0.0
 30
0.0
 11
-193.0
 21
200.0
 31
0.0
  0
LINE
  5
5EA
  8
OUTLINE
  6
CONTINUOUS
 62
     3
 10
193.0
 20
0.0
 30
0.0
 11
193.0
 21
200.0
 31
0.0
  0
LINE
  5
5EB
  8
BASIS
  6
DASHDOT
 62
     6
 10
2.5
 20
160.0
 30
0.0
 11
2.5
 21
254.506574
 31
0.0
  0
POINT
  5
5EC
  8
ARRANGE
  6
CONTINUOUS
 62
     1
 10
0.0
 20
0.0
 30
0.0
  0
LINE
  5
5F0
  8
BASIS
  6
DASHDOT
 62
     6
 10
-84.499999999999986
 20
3.9509359445455621
 30
0.0
 11
-84.499999999999986
 21
32.407248788818833
 31
0.0
  0
LINE
  5
5F1
  8
BASIS
  6
DASHDOT
 62
     6
 10
115.4999999999999
 20
2.491639634888088
 30
0.0
 11
115.4999999999999
 21
32.407248788818833
 31
0.0
  0
ARC
  5
5FF
  8
DETAIL
  6
CONTINUOUS
 62
     5
 39
50.0
 10
-95.0
 20
17.999999999999989
 30
0.0
 40
10.0
 50
90.0
 51
270.0
  0
ARC
  5
600
  8
DETAIL
  6
CONTINUOUS
 62
     5
 39
50.0
 10
-73.999999999999972
 20
17.999999999999989
 30
0.0
 40
10.0
 50
270.0
 51
90.0
  0
ARC
  5
601
  8
DETAIL
  6
CONTINUOUS
 62
     5
 39
50.0
 10
104.9999999999999
 20
17.69706575
 30
0.0
 40
10.0
 50
90.0
 51
271.6529190663548
  0
ARC
  5
602
  8
DETAIL
  6
CONTINUOUS
 62
     5
 39
50.0
 10
125.9999999999999
 20
17.999999999999989
 30
0.0
 40
10.0
 50
270.0
 51
104.138857422432
  0
LINE
  5
603
  8
DETAIL
  6
CONTINUOUS
 62
     5
 39
50.0
 10
-94.999999999999986
 20
27.999999999999989
 30
0.0
 11
-74.0
 21
27.999999999999989
 31
0.0
  0
LINE
  5
604
  8
DETAIL
  6
CONTINUOUS
 62
     5
 39
50.0
 10
-94.999999999999986
 20
7.9999999999999956
 30
0.0
 11
-74.0
 21
7.9999999999999956
 31
0.0
  0
LINE
  5
605
  8
DETAIL
  6
CONTINUOUS
 62
     5
 39
50.0
 10
104.9999999999999
 20
27.69706575
 30
0.0
 11
126.0
 21
27.69706575
 31
0.0
  0
LINE
  5
606
  8
DETAIL
  6
CONTINUOUS
 62
     5
 39
50.0
 10
125.9999999999999
 20
7.9999999999999956
 30
0.0
 11
104.9999999999999
 21
7.6970657500000002
 31
0.0
  0
LINE
  5
60B
  8
BASIS
  6
DASHDOT
 62
     6
 39
50.0
 10
-112.1669102764444
 20
17.999999999999989
 30
0.0
 11
-57.421766583918732
 21
17.999999999999989
 31
0.0
  0
LINE
  5
60C
  8
BASIS
  6
DASHDOT
 62
     6
 39
50.0
 10
89.295219442024958
 20
17.69706575
 30
0.0
 11
142.21552268653241
 21
17.69706575
 31
0.0
  0
ARC
  5
60D
  8
DETAIL
  6
DASHDOT
 62
     5
 39
50.0
 10
-95.0
 20
17.999999999999989
 30
0.0
 40
7.0
 50
90.0
 51
270.0
  0
ARC
  5
60E
  8
DETAIL
  6
DASHDOT
 62
     5
 39
50.0
 10
-73.999999999999972
 20
17.999999999999989
 30
0.0
 40
7.0
 50
180.0
 51
182.4803251906327
  0
ARC
  5
60F
  8
DETAIL
  6
DASHDOT
 62
     5
 39
50.0
 10
104.9999999999999
 20
17.69706575
 30
0.0
 40
7.0
 50
90.0
 51
286.91771086010641
  0
ARC
  5
610
  8
DETAIL
  6
DASHDOT
 62
     5
 39
50.0
 10
125.9999999999999
 20
17.999999999999989
 30
0.0
 40
7.0
 50
180.0
 51
182.4803251906327
  0
LINE
  5
611
  8
DETAIL
  6
DASHDOT
 62
     5
 39
50.0
 10
-94.999999999999986
 20
25.0
 30
0.0
 11
-73.999999999999986
 21
25.0
 31
0.0
  0
LINE
  5
612
  8
DETAIL
  6
DASHDOT
 62
     5
 39
50.0
 10
-94.999999999999986
 20
10.999999999999989
 30
0.0
 11
-73.999999999999986
 21
10.999999999999989
 31
0.0
  0
LINE
  5
613
  8
DETAIL
  6
DASHDOT
 62
     5
 39
50.0
 10
104.9999999999999
 20
24.69706575
 30
0.0
 11
125.9999999999999
 21
25.0
 31
0.0
  0
LINE
  5
614
  8
DETAIL
  6
DASHDOT
 62
     5
 39
50.0
 10
104.9999999999999
 20
10.69706575
 30
0.0
 11
126.0
 21
10.69706575
 31
0.0
  0
ARC
  5
615
  8
DETAIL
  6
DASHDOT
 62
     5
 39
50.0
 10
-95.0
 20
17.999999999999989
 30
0.0
 40
7.0
 50
357.5196748093673
 51
0.0
  0
ARC
  5
616
  8
DETAIL
  6
DASHDOT
 62
     5
 39
50.0
 10
-73.999999999999972
 20
17.999999999999989
 30
0.0
 40
7.0
 50
270.0
 51
90.0
  0
ARC
  5
617
  8
DETAIL
  6
DASHDOT
 62
     5
 39
50.0
 10
104.9999999999999
 20
17.69706575
 30
0.0
 40
7.0
 50
0.0
 51
2.480325190632696
  0
ARC
  5
618
  8
DETAIL
  6
DASHDOT
 62
     5
 39
50.0
 10
125.9999999999999
 20
17.999999999999989
 30
0.0
 40
7.0
 50
270.0
 51
91.652919066354855
  0
ENDSEC
  0
EOF
