  0
SECTION
  2
HEADER
  9
$ACADVER
  1
AC1009
  9
$DWGCODEPAGE
  3
dos932
  9
$INSBASE
 10
0.0
 20
0.0
 30
0.0
  9
$EXTMIN
 10
-653.04106013272212
 20
-579.02525700515253
 30
-0.0015258207003583
  9
$EXTMAX
 10
1087.646496013791
 20
933.42591174112749
 30
0.0000000349246037
  9
$LIMMIN
 10
-2970.0
 20
-2100.0
  9
$LIMMAX
 10
2970.0
 20
2100.0
  9
$ORTHOMODE
 70
     1
  9
$REGENMODE
 70
     1
  9
$FILLMODE
 70
     1
  9
$QTEXTMODE
 70
     0
  9
$MIRRTEXT
 70
     0
  9
$LTSCALE
 40
20.0
  9
$ATTMODE
 70
     1
  9
$TEXTSIZE
 40
64.0
  9
$TRACEWID
 40
0.05
  9
$TEXTSTYLE
  7
STANDARD
  9
$CLAYER
  8
SIZE
  9
$CELTYPE
  6
CONTINUOUS
  9
$CECOLOR
 62
     7
  9
$DIMSCALE
 40
1.0
  9
$DIMASZ
 40
12.0
  9
$DIMEXO
 40
20.0
  9
$DIMDLI
 40
200.0
  9
$DIMRND
 40
0.0
  9
$DIMDLE
 40
0.0
  9
$DIMEXE
 40
20.0
  9
$DIMTP
 40
0.0
  9
$DIMTM
 40
0.0
  9
$DIMTXT
 40
64.0
  9
$DIMCEN
 40
0.09
  9
$DIMTSZ
 40
0.0
  9
$DIMTOL
 70
     0
  9
$DIMLIM
 70
     0
  9
$DIMTIH
 70
     0
  9
$DIMTOH
 70
     0
  9
$DIMSE1
 70
     0
  9
$DIMSE2
 70
     0
  9
$DIMTAD
 70
     1
  9
$DIMZIN
 70
     8
  9
$DIMBLK
  1

  9
$DIMASO
 70
     1
  9
$DIMSHO
 70
     0
  9
$DIMPOST
  1

  9
$DIMAPOST
  1

  9
$DIMALT
 70
     0
  9
$DIMALTD
 70
     2
  9
$DIMALTF
 40
25.399999999999999
  9
$DIMLFAC
 40
1.0
  9
$DIMTOFL
 70
     1
  9
$DIMTVP
 40
0.0
  9
$DIMTIX
 70
     1
  9
$DIMSOXD
 70
     0
  9
$DIMSAH
 70
     0
  9
$DIMBLK1
  1

  9
$DIMBLK2
  1

  9
$DIMSTYLE
  2
STANDARD
  9
$DIMCLRD
 70
     7
  9
$DIMCLRE
 70
     7
  9
$DIMCLRT
 70
     7
  9
$DIMTFAC
 40
1.0
  9
$DIMGAP
 40
25.0
  9
$LUNITS
 70
     2
  9
$LUPREC
 70
     4
  9
$SKETCHINC
 40
0.1
  9
$FILLETRAD
 40
3.0
  9
$AUNITS
 70
     1
  9
$AUPREC
 70
     3
  9
$MENU
  1
ACAD
  9
$ELEVATION
 40
0.0
  9
$PELEVATION
 40
0.0
  9
$THICKNESS
 40
0.0
  9
$LIMCHECK
 70
     0
  9
$CHAMFERA
 40
0.0
  9
$CHAMFERB
 40
0.0
  9
$SKPOLY
 70
     0
  9
$TDCREATE
 40
2453019.62301037
  9
$TDUPDATE
 40
2459025.518185521
  9
$TDINDWG
 40
1.7149118171
  9
$TDUSRTIMER
 40
1.7149118171
  9
$USRTIMER
 70
     1
  9
$ANGBASE
 50
0.0
  9
$ANGDIR
 70
     0
  9
$PDMODE
 70
     3
  9
$PDSIZE
 40
-2.0
  9
$PLINEWID
 40
0.0
  9
$SPLFRAME
 70
     0
  9
$SPLINETYPE
 70
     6
  9
$SPLINESEGS
 70
     8
  9
$SURFTAB1
 70
     6
  9
$SURFTAB2
 70
     6
  9
$SURFTYPE
 70
     6
  9
$SURFU
 70
     6
  9
$SURFV
 70
     6
  9
$UCSNAME
  2

  9
$UCSORG
 10
0.0
 20
0.0
 30
0.0
  9
$UCSXDIR
 10
1.0
 20
0.0
 30
0.0
  9
$UCSYDIR
 10
0.0
 20
1.0
 30
0.0
  9
$PUCSNAME
  2

  9
$PUCSORG
 10
0.0
 20
0.0
 30
0.0
  9
$PUCSXDIR
 10
1.0
 20
0.0
 30
0.0
  9
$PUCSYDIR
 10
0.0
 20
1.0
 30
0.0
  9
$USERI1
 70
     0
  9
$USERI2
 70
     0
  9
$USERI3
 70
     0
  9
$USERI4
 70
     0
  9
$USERI5
 70
     0
  9
$USERR1
 40
20.0
  9
$USERR2
 40
0.0
  9
$USERR3
 40
0.0
  9
$USERR4
 40
0.0
  9
$USERR5
 40
0.0
  9
$WORLDVIEW
 70
     1
  9
$SHADEDGE
 70
     3
  9
$SHADEDIF
 70
    70
  9
$TILEMODE
 70
     1
  9
$MAXACTVP
 70
    48
  9
$PINSBASE
 10
0.0
 20
0.0
 30
0.0
  9
$PLIMCHECK
 70
     0
  9
$PEXTMIN
 10
-100000000000000000000.0
 20
-100000000000000000000.0
 30
-100000000000000000000.0
  9
$PEXTMAX
 10
100000000000000000000.0
 20
100000000000000000000.0
 30
100000000000000000000.0
  9
$PLIMMIN
 10
0.0
 20
0.0
  9
$PLIMMAX
 10
12.0
 20
9.0
  9
$UNITMODE
 70
     0
  9
$VISRETAIN
 70
     0
  9
$PLINEGEN
 70
     0
  9
$PSLTSCALE
 70
     0
  9
$TREEDEPTH
 70
  3020
  9
$ATTDIA
 70
     0
  9
$ATTREQ
 70
     1
  9
$BLIPMODE
 70
     1
  9
$COORDS
 70
     1
  9
$DRAGMODE
 70
     2
  9
$OSMODE
 70
     0
  9
$HANDLING
 70
     0
  9
$HANDSEED
  5
F446
  0
ENDSEC
  0
SECTION
  2
TABLES
  0
TABLE
  2
LTYPE
 70
     2
  0
LTYPE
  2
CONTINUOUS
 70
     0
  3
実線
 72
    65
 73
     0
 40
0.0
  0
LTYPE
  2
DASHDOT
 70
     0
  3
____ _ ____ _ ____ _ ____ _ ____ _ ____ _ ____
 72
    65
 73
     4
 40
5.5
 49
4.0
 49
-0.6
 49
0.3
 49
-0.6
  0
ENDTAB
  0
TABLE
  2
LAYER
 70
    12
  0
LAYER
  2
0
 70
     0
 62
     7
  6
CONTINUOUS
  0
LAYER
  2
BASIS
 70
     0
 62
     6
  6
DASHDOT
  0
LAYER
  2
OUTLINE
 70
     0
 62
     3
  6
CONTINUOUS
  0
LAYER
  2
DETAIL
 70
     0
 62
     5
  6
CONTINUOUS
  0
LAYER
  2
SIZE
 70
     0
 62
    30
  6
CONTINUOUS
  0
LAYER
  2
ARRANGE
 70
     0
 62
     1
  6
CONTINUOUS
  0
LAYER
  2
DEFPOINTS
 70
     0
 62
     7
  6
CONTINUOUS
  0
LAYER
  2
ETC
 70
     0
 62
    61
  6
CONTINUOUS
  0
LAYER
  2
FIX
 70
     0
 62
    11
  6
CONTINUOUS
  0
LAYER
  2
NOTE
 70
     0
 62
     4
  6
CONTINUOUS
  0
LAYER
  2
SERVICESPACE
 70
    64
 62
     2
  6
DASHDOT
  0
LAYER
  2
SYMBOLLINE
 70
    64
 62
    15
  6
CONTINUOUS
  0
ENDTAB
  0
TABLE
  2
STYLE
 70
     1
  0
STYLE
  2
STANDARD
 70
     0
 40
64.0
 41
0.9
 50
0.0
 71
     0
 42
64.0
  3
SIMPLEX.shx
  4
BIGFONT.shx
  0
ENDTAB
  0
TABLE
  2
APPID
 70
    19
  0
APPID
  2
ACAD
 70
     0
  0
APPID
  2
AUTOCAD_POSTSCRIPT_FIGURE
 70
     0
  0
APPID
  2
ACAD_EXEMPT_FROM_CAD_STANDARDS
 70
     0
  0
APPID
  2
ACAD_PSEXT
 70
     0
  0
APPID
  2
ACAUTHENVIRON
 70
     0
  0
APPID
  2
GENIUS_GENOENT_13
 70
     0
  0
APPID
  2
GENIUS_GENCFG_13
 70
     0
  0
APPID
  2
GENIUS_GENCFG0_13
 70
     0
  0
APPID
  2
GENIUS_GENCFG1_13
 70
     0
  0
APPID
  2
GENIUS_GENCFG2_13
 70
     0
  0
APPID
  2
GENIUS_GENCFG3_13
 70
     0
  0
APPID
  2
GENIUS_GENCFG4_13
 70
     0
  0
APPID
  2
GENIUS_GEVCFG0_13
 70
     0
  0
APPID
  2
CONTENTBLOCKICON
 70
     0
  0
APPID
  2
CONTENTBLOCKDESCRIPTION
 70
     0
  0
APPID
  2
ACAD_NAV_VCDISPLAY
 70
     0
  0
APPID
  2
ACAD_MLEADERVER
 70
     0
  0
APPID
  2
ACDBDYNAMICBLOCKTRUENAME
 70
     0
  0
APPID
  2
ACDBDYNAMICBLOCKGUID
 70
     0
  0
ENDTAB
  0
TABLE
  2
DIMSTYLE
 70
     1
  0
DIMSTYLE
  2
STANDARD
 70
     0
  3

  4

  5
_ORIGIN
  6

  7

 40
1.0
 41
12.0
 42
20.0
 43
200.0
 44
20.0
 45
0.0
 46
0.0
 47
0.0
 48
0.0
140
64.0
141
0.09
142
0.0
143
25.399999999999999
144
1.0
145
0.0
146
1.0
147
25.0
 71
     0
 72
     0
 73
     0
 74
     0
 75
     0
 76
     0
 77
     1
 78
     8
170
     0
171
     2
172
     1
173
     0
174
     1
175
     0
176
     7
177
     7
178
     7
  0
ENDTAB
  0
TABLE
  2
VIEW
 70
     1
  0
VIEW
  2
ALL
 70
     0
 40
4282.6198079999986
 10
0.0
 20
41.309904000000003
 41
5940.0
 11
0.0
 21
0.0
 31
1.0
 12
0.0
 22
0.0
 32
0.0
 42
50.0
 43
0.0
 44
0.0
 50
0.0
 71
     0
  0
ENDTAB
  0
TABLE
  2
UCS
 70
     0
  0
ENDTAB
  0
TABLE
  2
VPORT
 70
     1
  0
VPORT
  2
*ACTIVE
 70
     0
 10
0.0
 20
0.0
 11
1.0
 21
1.0
 12
217.30271794053459
 22
177.20032736798751
 13
0.0
 23
0.0
 14
1.0
 24
1.0
 15
0.0
 25
0.0
 16
0.0
 26
0.0
 36
1.0
 17
0.0
 27
0.0
 37
0.0
 40
1522.4784693125539
 41
1.747787610619469
 42
50.0
 43
0.0
 44
0.0
 50
0.0
 51
0.0
 71
     0
 72
  1000
 73
     1
 74
     3
 75
     0
 76
     0
 77
     0
 78
     0
  0
ENDTAB
  0
ENDSEC
  0
SECTION
  2
BLOCKS
  0
BLOCK
  8
0
  2
_ORIGIN
 70
     0
 10
0.0
 20
0.0
 30
0.0
  3
_ORIGIN
  1
_ORIGIN
  0
CIRCLE
  8
0
  6
CONTINUOUS
 62
     7
 10
0.0
 20
0.0
 30
0.0
 40
0.5
  0
LINE
  8
0
  6
CONTINUOUS
 62
     7
 10
0.0
 20
0.0
 30
0.0
 11
-1.0
 21
0.0
 31
0.0
  0
ENDBLK
  8
0
  0
ENDSEC
  0
SECTION
  2
ENTITIES
  0
TEXT
  8
ETC
  6
CONTINUOUS
 62
    61
 10
478.37236988931272
 20
814.87676486191162
 30
0.0
 40
64.0
  1
VD-23ZB13_2
 41
0.9
  0
TEXT
  8
ETC
  6
CONTINUOUS
 62
    61
 10
474.18637588931227
 20
696.92145484708044
 30
0.0
 40
64.0
  1
換気扇
 41
0.9
  0
CIRCLE
  8
ARRANGE
  6
CONTINUOUS
 62
     1
 10
0.0
 20
0.0
 30
0.0
 40
40.0
  0
POINT
  8
ARRANGE
  6
CONTINUOUS
 62
     1
 10
0.0
 20
0.0
 30
0.0
  0
LINE
  8
BASIS
  6
DASHDOT
 62
     6
 10
0.0
 20
-109.2854010143142
 30
0.0
 11
0.0
 21
109.2854010143142
 31
0.0
  0
LINE
  8
BASIS
  6
DASHDOT
 62
     6
 10
125.4561247050906
 20
0.0
 30
0.0
 11
-125.4561247050906
 21
0.0
 31
0.0
  0
TEXT
  8
ETC
  6
CONTINUOUS
 62
    61
 10
524.88777413786829
 20
588.77268196085515
 30
0.0
 40
40.0
  1
VD-23ZB13
 41
0.9
  0
LINE
  8
DETAIL
  6
CONTINUOUS
 62
     5
 10
-193.0000191346362
 20
1.000000000008185
 30
0.0
 11
-193.0000191346362
 21
3.0004630146295308
 31
0.0
  0
LINE
  8
DETAIL
  6
CONTINUOUS
 62
     5
 10
-192.9499842245614
 20
0.0000366568588106
 30
0.0
 11
-189.09996397050239
 21
0.0000366568588106
 31
0.0
  0
ARC
  8
DETAIL
  6
CONTINUOUS
 62
     5
 10
-194.00001913464439
 20
1.000000000008185
 30
0.0
 40
1.000000000008036
 50
270.0
 51
0.0
  0
LINE
  8
DETAIL
  6
CONTINUOUS
 62
     5
 10
-195.400051142351
 20
21.733427420929271
 30
0.0
 11
-195.400051142351
 21
24.19921632859587
 31
0.0
  0
LINE
  8
DETAIL
  6
CONTINUOUS
 62
     5
 10
-193.99948161398791
 20
8.5888345826015211
 30
0.0
 11
-195.04943658766021
 21
9.9012657833723097
 31
0.0
  0
LINE
  8
DETAIL
  6
CONTINUOUS
 62
     5
 10
-193.99948161398791
 20
26.511165417679418
 30
0.0
 11
-195.04943658766021
 21
25.198734216908178
 31
0.0
  0
LINE
  8
DETAIL
  6
CONTINUOUS
 62
     5
 10
-10.499307662325011
 20
199.3499966041297
 30
0.0
 11
191.45001913462329
 21
199.3499966041297
 31
0.0
  0
ARC
  8
DETAIL
  6
CONTINUOUS
 62
     5
 10
191.45001913462329
 20
198.09998089232769
 30
0.0
 40
1.25000000001
 50
0.0
 51
90.0
  0
LINE
  8
DETAIL
  6
CONTINUOUS
 62
     5
 10
192.7000191346342
 20
192.64988323603509
 30
0.0
 11
192.7000191346342
 21
198.09998089232769
 31
0.0
  0
ARC
  8
DETAIL
  6
CONTINUOUS
 62
     5
 10
191.45001913462329
 20
192.64988323603509
 30
0.0
 40
1.250000000010024
 50
270.0
 51
0.0
  0
LINE
  8
DETAIL
  6
CONTINUOUS
 62
     5
 10
-168.49988797441071
 20
12.150051140885351
 30
0.0
 11
-152.49987939121371
 21
12.150051140885351
 31
0.0
  0
LINE
  8
DETAIL
  6
CONTINUOUS
 62
     5
 10
-168.49988797441071
 20
12.150051140885351
 30
0.0
 11
-168.49988797441071
 21
13.600051164738939
 31
0.0
  0
LINE
  8
DETAIL
  6
CONTINUOUS
 62
     5
 10
-152.49987939121371
 20
12.150051140885351
 30
0.0
 11
-152.49987939121371
 21
13.600051164738939
 31
0.0
  0
LINE
  8
DETAIL
  6
CONTINUOUS
 62
     5
 10
-53.499866337003368
 20
12.150051140885351
 30
0.0
 11
-37.499857753806282
 21
12.150051140885351
 31
0.0
  0
LINE
  8
DETAIL
  6
CONTINUOUS
 62
     5
 10
-53.499866337003368
 20
12.150051140885351
 30
0.0
 11
-53.499866337003368
 21
13.600051164738939
 31
0.0
  0
LINE
  8
DETAIL
  6
CONTINUOUS
 62
     5
 10
-37.499857753806282
 20
12.150051140885351
 30
0.0
 11
-37.499857753806282
 21
13.600051164738939
 31
0.0
  0
LINE
  8
BASIS
  6
DASHDOT
 62
     6
 10
-110.99946490015429
 20
250.2266066434245
 30
0.0
 11
-110.99946490015429
 21
19.774258352791321
 31
0.0
  0
ARC
  8
DETAIL
  6
CONTINUOUS
 62
     5
 10
-193.80005114233791
 20
10.900783671685531
 30
0.0
 40
1.600000000012842
 50
180.0
 51
218.6600747970827
  0
LINE
  8
DETAIL
  6
CONTINUOUS
 62
     5
 10
-195.400051142351
 20
10.900783671685531
 30
0.0
 11
-195.400051142351
 21
14.267511860787639
 31
0.0
  0
ARC
  8
DETAIL
  6
CONTINUOUS
 62
     5
 10
-193.80005114233791
 20
24.19921632859587
 30
0.0
 40
1.6000000000127641
 50
141.3399252029173
 51
180.0
  0
ARC
  8
DETAIL
  6
CONTINUOUS
 62
     5
 10
-194.00001913464439
 20
1.000000000008185
 30
0.0
 40
1.000000000008036
 50
270.0
 51
0.0
  0
ARC
  8
DETAIL
  6
CONTINUOUS
 62
     5
 10
192.10001913462929
 20
190.49988323601789
 30
0.0
 40
0.9000000000071641
 50
0.0
 51
90.0
  0
LINE
  8
DETAIL
  6
CONTINUOUS
 62
     5
 10
192.10001913462929
 20
191.39988323602529
 30
0.0
 11
189.99996397051021
 21
191.39988323602529
 31
0.0
  0
LINE
  8
DETAIL
  6
CONTINUOUS
 62
     5
 10
192.9499842245614
 20
0.0000366568588106
 30
0.0
 11
193.0000191346362
 21
190.49988323601789
 31
0.0
  0
LINE
  8
DETAIL
  6
CONTINUOUS
 62
     5
 10
0.0
 20
-10.69784964907512
 30
0.0
 11
-236.91408132918971
 21
-10.69784964907512
 31
0.0
  0
ARC
  8
DETAIL
  6
CONTINUOUS
 62
     5
 10
-230.49335022718239
 20
-16.441025486911261
 30
0.0
 40
0.299999999997253
 50
226.30863306693661
 51
269.62267129047399
  0
ARC
  8
DETAIL
  6
CONTINUOUS
 62
     5
 10
-236.64599420365991
 20
-10.56320458556775
 30
0.0
 40
0.300000000002454
 50
182.99999999998599
 51
226.30863306693661
  0
LINE
  8
DETAIL
  6
CONTINUOUS
 62
     5
 10
-236.8532262446133
 20
-10.780125956584021
 30
0.0
 11
-230.70058226813219
 21
-16.65794685792434
 31
0.0
  0
ARC
  8
DETAIL
  6
CONTINUOUS
 62
     5
 10
-236.9731099392566
 20
-0.5000000000040927
 30
0.0
 40
0.500000000003976
 50
90.0
 51
182.99999999998599
  0
LINE
  8
DETAIL
  6
CONTINUOUS
 62
     5
 10
-237.4724247066379
 20
-0.5261679781256134
 30
0.0
 11
-236.94558306408911
 21
-10.57890537244066
 31
0.0
  0
LINE
  8
DETAIL
  6
CONTINUOUS
 62
     5
 10
-195.00000000156069
 20
0.0
 30
0.0
 11
0.0
 21
0.0
 31
0.0
  0
ARC
  8
DETAIL
  6
CONTINUOUS
 62
     5
 10
-0.0000000000063665
 20
34982.500000279862
 30
0.0
 40
35000.000000280001
 50
269.62247628166381
 51
270.3773287095259
  0
LINE
  8
DETAIL
  6
CONTINUOUS
 62
     5
 10
-236.9731099392566
 20
0.0
 30
0.0
 11
0.0
 21
0.0
 31
0.0
  0
LINE
  8
DETAIL
  6
CONTINUOUS
 62
     5
 10
-169.29358169471931
 20
98.652838918416819
 30
0.0
 11
-169.6378584176218
 21
98.053645520412374
 31
0.0
  0
LINE
  8
DETAIL
  6
CONTINUOUS
 62
     5
 10
-169.6378584176218
 20
98.053645520412374
 30
0.0
 11
-172.6533320260551
 21
99.789629205620713
 31
0.0
  0
LINE
  8
DETAIL
  6
CONTINUOUS
 62
     5
 10
-176.24297588014181
 20
106.9953566173904
 30
0.0
 11
-175.80554456157191
 21
107.7530098859897
 31
0.0
  0
ARC
  8
DETAIL
  6
CONTINUOUS
 62
     5
 10
-174.87729310206399
 20
110.64506158391259
 30
0.0
 40
2.9687269270237802
 50
228.80075229322259
 51
239.991021544191
  0
LINE
  8
DETAIL
  6
CONTINUOUS
 62
     5
 10
-175.23146864934549
 20
104.7473385332864
 30
0.0
 11
-175.13599375396731
 21
104.91270590296701
 31
0.0
  0
LINE
  8
DETAIL
  6
CONTINUOUS
 62
     5
 10
-174.22666707995899
 20
104.38770590296279
 30
0.0
 11
-175.13599375396731
 21
104.91270590296701
 31
0.0
  0
LINE
  8
DETAIL
  6
CONTINUOUS
 62
     5
 10
-173.91416707995629
 20
104.9289717802671
 30
0.0
 11
-174.2290495508596
 21
104.38357934236269
 31
0.0
  0
LINE
  8
DETAIL
  6
CONTINUOUS
 62
     5
 10
-169.93984133122561
 20
101.9127059029429
 30
0.0
 11
-170.849168005233
 21
102.4377059029475
 31
0.0
  0
LINE
  8
DETAIL
  6
CONTINUOUS
 62
     5
 10
-170.1898402328261
 20
101.4796951034396
 30
0.0
 11
-169.93984133122561
 21
101.9127059029429
 31
0.0
  0
LINE
  8
DETAIL
  6
CONTINUOUS
 62
     5
 10
-167.95288630930921
 20
107.4542129532874
 30
0.0
 11
-169.78666800518931
 21
104.27800988602171
 31
0.0
  0
LINE
  8
DETAIL
  6
CONTINUOUS
 62
     5
 10
-170.53666800519301
 20
102.9789717803328
 30
0.0
 11
-170.8515504760671
 21
102.4335793423661
 31
0.0
  0
ARC
  8
DETAIL
  6
CONTINUOUS
 62
     5
 10
-169.9345681776249
 20
107.9718392727914
 30
0.0
 40
2.000000000015921
 50
59.999999828600927
 51
134.26279948579929
  0
LINE
  8
DETAIL
  6
CONTINUOUS
 62
     5
 10
-173.16416707994981
 20
106.2280098859774
 30
0.0
 11
-171.33038538403619
 21
109.4042129533027
 31
0.0
  0
ARC
  8
DETAIL
  6
CONTINUOUS
 62
     5
 10
-169.8912669074243
 20
107.94683927279129
 30
0.0
 40
2.000000000016017
 50
345.73720051420003
 51
60.000000171398803
  0
LINE
  8
DETAIL
  6
CONTINUOUS
 62
     5
 10
-167.9705110647092
 20
96.878598226402573
 30
0.0
 11
-165.22051106468729
 21
101.6417379472409
 31
0.0
  0
LINE
  8
DETAIL
  6
CONTINUOUS
 62
     5
 10
-168.0085219726088
 20
96.90054383430288
 30
0.0
 11
-165.25852197258791
 21
101.66368355514081
 31
0.0
  0
LINE
  8
DETAIL
  6
CONTINUOUS
 62
     5
 10
-166.39508551149629
 20
102.3198788202462
 30
0.0
 11
-166.84508551150071
 21
101.54045595684011
 31
0.0
  0
LINE
  8
DETAIL
  6
CONTINUOUS
 62
     5
 10
-165.25852197258791
 20
101.66368355514081
 30
0.0
 11
-165.22051106468729
 21
101.6417379472409
 31
0.0
  0
LINE
  8
DETAIL
  6
CONTINUOUS
 62
     5
 10
-166.5938371657985
 20
99.350849796322564
 30
0.0
 11
-168.3209633549113
 21
100.3457607471305
 31
0.0
  0
LINE
  8
DETAIL
  6
CONTINUOUS
 62
     5
 10
-167.5710208742066
 20
97.658317965109291
 30
0.0
 11
-169.2971745950199
 21
98.654913280417077
 31
0.0
  0
LINE
  8
DETAIL
  6
CONTINUOUS
 62
     5
 10
-168.3209633549113
 20
100.3457607471305
 30
0.0
 11
-168.33837793581191
 21
100.41075284793079
 31
0.0
  0
LINE
  8
DETAIL
  6
CONTINUOUS
 62
     5
 10
-168.3209633549113
 20
100.3457607471305
 30
0.0
 11
-169.2971745950199
 21
98.654913280417077
 31
0.0
  0
LINE
  8
DETAIL
  6
CONTINUOUS
 62
     5
 10
-175.8197088699435
 20
106.0291368457279
 30
0.0
 11
-167.2252961853037
 21
101.06715036873631
 31
0.0
  0
LINE
  8
DETAIL
  6
CONTINUOUS
 62
     5
 10
-168.33837793581191
 20
100.41075284793079
 30
0.0
 11
-174.99743950061841
 21
104.2553638346794
 31
0.0
  0
LINE
  8
DETAIL
  6
CONTINUOUS
 62
     5
 10
-176.3620539689764
 20
108.0743107421922
 30
0.0
 11
-165.2205110646637
 21
101.6417379472805
 31
0.0
  0
ARC
  8
DETAIL
  6
CONTINUOUS
 62
     5
 10
-146.71673244863899
 20
82.335451759186981
 30
0.0
 40
1.967844983515695
 50
60.000400595193923
 51
61.276347332592401
  0
ARC
  8
DETAIL
  6
CONTINUOUS
 62
     5
 10
-146.7611396887396
 20
82.344221806286441
 30
0.0
 40
1.98248754331586
 50
60.030697754799149
 51
105.211817886704
  0
ARC
  8
DETAIL
  6
CONTINUOUS
 62
     5
 10
-146.72312198313921
 20
82.322149187186369
 30
0.0
 40
1.982611953315975
 50
61.299170360094067
 51
105.2110443643077
  0
ARC
  8
DETAIL
  6
CONTINUOUS
 62
     5
 10
-148.93539066555701
 20
85.851536925014443
 30
0.0
 40
1.967844983615755
 50
240.0004005952093
 51
241.27634733248669
  0
ARC
  8
DETAIL
  6
CONTINUOUS
 62
     5
 10
-148.89098342505619
 20
85.842766822214344
 30
0.0
 40
1.98248754331583
 50
240.03069693988999
 51
285.21181829550159
  0
ARC
  8
DETAIL
  6
CONTINUOUS
 62
     5
 10
-148.9290010453569
 20
85.864839433514589
 30
0.0
 40
1.9826119533157169
 50
241.29916730629361
 51
285.21104245780339
  0
LINE
  8
DETAIL
  6
CONTINUOUS
 62
     5
 10
-147.2813317594437
 20
84.257287070301572
 30
0.0
 11
-148.40880226265199
 21
83.951647221899748
 31
0.0
  0
LINE
  8
DETAIL
  6
CONTINUOUS
 62
     5
 10
-147.24332085154401
 20
84.235341462301676
 30
0.0
 11
-148.3707913547523
 21
83.929701613898942
 31
0.0
  0
LINE
  8
DETAIL
  6
CONTINUOUS
 62
     5
 10
-149.91930124206559
 20
84.147326299300857
 30
0.0
 11
-167.2865673925036
 21
94.17432208638138
 31
0.0
  0
LINE
  8
DETAIL
  6
CONTINUOUS
 62
     5
 10
-149.88129033416499
 20
84.125380691400551
 30
0.0
 11
-149.91930124206559
 21
84.147326299300857
 31
0.0
  0
ARC
  8
DETAIL
  6
CONTINUOUS
 62
     5
 10
-107.6669770380267
 20
73.59042338541667
 30
0.0
 40
9.9836245027799677
 50
240.00206927550269
 51
253.81345188435239
  0
ARC
  8
DETAIL
  6
CONTINUOUS
 62
     5
 10
-110.9994649001537
 20
62.500432497527527
 30
0.0
 40
7.0000000000559934
 50
144.96634159270741
 51
164.90947602885609
  0
ARC
  8
DETAIL
  6
CONTINUOUS
 62
     5
 10
-110.9994649001537
 20
62.500432497527527
 30
0.0
 40
5.0000000000400471
 50
135.08496144999339
 51
160.64748459275989
  0
ARC
  8
DETAIL
  6
CONTINUOUS
 62
     5
 10
56.596609542187252
 20
462.16710794452518
 30
0.0
 40
431.9490353194555
 50
245.74328734120829
 51
246.3424701639903
  0
LINE
  8
DETAIL
  6
CONTINUOUS
 62
     5
 10
-145.770832780132
 20
84.061607992799964
 30
0.0
 11
-112.6474964491008
 21
64.937840845595019
 31
0.0
  0
ARC
  8
DETAIL
  6
CONTINUOUS
 62
     5
 10
-121.8460090708404
 20
202.49793991624779
 30
0.0
 40
2.968726927023996
 50
60.008978457504703
 51
71.199247723218733
  0
LINE
  8
DETAIL
  6
CONTINUOUS
 62
     5
 10
-117.0109937535008
 20
205.5881590936726
 30
0.0
 11
-116.9155188581317
 21
205.75352646329699
 31
0.0
  0
LINE
  8
DETAIL
  6
CONTINUOUS
 62
     5
 10
-116.1016670794952
 20
205.06315909366839
 30
0.0
 11
-117.0109937535008
 21
205.5881590936726
 31
0.0
  0
LINE
  8
DETAIL
  6
CONTINUOUS
 62
     5
 10
-115.6204497006902
 20
198.09665204331239
 30
0.0
 11
-113.78666800477551
 21
201.27285511063769
 31
0.0
  0
LINE
  8
DETAIL
  6
CONTINUOUS
 62
     5
 10
-113.0366680047691
 20
202.5718932163484
 30
0.0
 11
-112.72178553386679
 21
203.11728565425261
 31
0.0
  0
LINE
  8
DETAIL
  6
CONTINUOUS
 62
     5
 10
-111.81484133075899
 20
202.58815909364881
 30
0.0
 11
-112.7241680047664
 21
203.11315909365251
 31
0.0
  0
LINE
  8
DETAIL
  6
CONTINUOUS
 62
     5
 10
-111.81484133075899
 20
202.58815909364881
 30
0.0
 11
-111.56484242915759
 21
203.02116989305179
 31
0.0
  0
LINE
  8
DETAIL
  6
CONTINUOUS
 62
     5
 10
-118.9979487754172
 20
200.0466520433279
 30
0.0
 11
-117.1641670795025
 21
203.22285511065371
 31
0.0
  0
LINE
  8
DETAIL
  6
CONTINUOUS
 62
     5
 10
-111.56484242915759
 20
203.02116989305179
 30
0.0
 11
-116.3724416970235
 21
205.7968386245557
 31
0.0
  0
LINE
  8
DETAIL
  6
CONTINUOUS
 62
     5
 10
-119.80554456112441
 20
204.74785511066599
 30
0.0
 11
-119.3681132425791
 21
205.5055083792204
 31
0.0
  0
LINE
  8
DETAIL
  6
CONTINUOUS
 62
     5
 10
-116.4141670794961
 20
204.52189321636371
 30
0.0
 11
-116.09928460859371
 21
205.06728565426869
 31
0.0
  0
ARC
  8
DETAIL
  6
CONTINUOUS
 62
     5
 10
-117.059568177202
 20
199.55402572372421
 30
0.0
 40
2.000000000016017
 50
165.7372005142
 51
240.0000001713988
  0
ARC
  8
DETAIL
  6
CONTINUOUS
 62
     5
 10
-117.01626690700139
 20
199.52902572372361
 30
0.0
 40
2.00000000001585
 50
239.99999982860089
 51
314.26279948579929
  0
LINE
  8
DETAIL
  6
CONTINUOUS
 62
     5
 10
-106.50852197211771
 20
203.42166850065499
 30
0.0
 11
-109.2585219721404
 21
198.65852877981681
 31
0.0
  0
LINE
  8
DETAIL
  6
CONTINUOUS
 62
     5
 10
-109.6483880313417
 20
201.96964221844311
 30
0.0
 11
-108.672176791235
 21
203.66048968515719
 31
0.0
  0
LINE
  8
DETAIL
  6
CONTINUOUS
 62
     5
 10
-106.94602307052079
 20
202.6638943698492
 30
0.0
 11
-108.672176791235
 21
203.66048968515719
 31
0.0
  0
LINE
  8
DETAIL
  6
CONTINUOUS
 62
     5
 10
-108.6685838909352
 20
203.6584153232568
 30
0.0
 11
-108.3218055479319
 21
204.25616441026159
 31
0.0
  0
LINE
  8
DETAIL
  6
CONTINUOUS
 62
     5
 10
-108.3218055479319
 20
204.25616441026159
 30
0.0
 11
-111.3329483239786
 21
205.99964931693401
 31
0.0
  0
LINE
  8
DETAIL
  6
CONTINUOUS
 62
     5
 10
-109.7133801321434
 20
201.9522276375435
 30
0.0
 11
-111.56484242915759
 21
203.02116989305179
 31
0.0
  0
LINE
  8
DETAIL
  6
CONTINUOUS
 62
     5
 10
-107.92320677892801
 20
200.9713625385352
 30
0.0
 11
-109.6483880313417
 21
201.96964221844311
 31
0.0
  0
LINE
  8
DETAIL
  6
CONTINUOUS
 62
     5
 10
-109.6483880313417
 20
201.96964221844311
 30
0.0
 11
-109.7133801321434
 21
201.9522276375435
 31
0.0
  0
LINE
  8
DETAIL
  6
CONTINUOUS
 62
     5
 10
-120.3620539685289
 20
205.06915596686829
 30
0.0
 11
-109.258521972165
 21
198.65852877977409
 31
0.0
  0
LINE
  8
DETAIL
  6
CONTINUOUS
 62
     5
 10
-118.3197088693678
 20
205.62205828165821
 30
0.0
 11
-109.7252961848435
 21
200.66007180473301
 31
0.0
  0
LINE
  8
DETAIL
  6
CONTINUOUS
 62
     5
 10
-110.3950855110488
 20
199.31472404492209
 30
0.0
 11
-109.9450855110445
 21
200.09414690832861
 31
0.0
  0
ARC
  8
DETAIL
  6
CONTINUOUS
 62
     5
 10
-56.188368528614767
 20
162.84122760203039
 30
0.0
 40
9.9836245027797723
 50
45.737652728931018
 51
59.997930723109818
  0
ARC
  8
DETAIL
  6
CONTINUOUS
 62
     5
 10
-87.403235648764166
 20
192.42835571326711
 30
0.0
 40
1.9678449840157191
 50
58.723652667598181
 51
59.999599404603472
  0
ARC
  8
DETAIL
  6
CONTINUOUS
 62
     5
 10
-87.373436944863897
 20
192.39428293706689
 30
0.0
 40
1.982487543315866
 50
14.78818217550622
 51
59.96930227970897
  0
ARC
  8
DETAIL
  6
CONTINUOUS
 62
     5
 10
-87.411561493464433
 20
192.41617126616711
 30
0.0
 40
1.9826119533158131
 50
14.788944378899281
 51
58.700818475001697
  0
ARC
  8
DETAIL
  6
CONTINUOUS
 62
     5
 10
-83.278686216831375
 20
192.29905666756611
 30
0.0
 40
1.982487543315878
 50
194.7881817660018
 51
239.96930309390299
  0
ARC
  8
DETAIL
  6
CONTINUOUS
 62
     5
 10
-83.24056169393225
 20
192.27716843206599
 30
0.0
 40
1.9826119533158011
 50
194.7889467751055
 51
238.70082130058989
  0
LINE
  8
DETAIL
  6
CONTINUOUS
 62
     5
 10
-85.157534413446228
 20
191.7710780010616
 30
0.0
 11
-85.456577791948803
 21
192.9003160230711
 31
0.0
  0
LINE
  8
DETAIL
  6
CONTINUOUS
 62
     5
 10
-85.195545321347709
 20
191.79302360896239
 30
0.0
 11
-85.494588699849373
 21
192.92226163097141
 31
0.0
  0
LINE
  8
DETAIL
  6
CONTINUOUS
 62
     5
 10
-86.41930124155715
 20
194.13255258078061
 30
0.0
 11
-103.78656739199501
 21
204.15954836786111
 31
0.0
  0
LINE
  8
DETAIL
  6
CONTINUOUS
 62
     5
 10
-73.791384949740859
 20
184.5324206335936
 30
0.0
 11
-135.29138495014561
 21
78.011295967191018
 31
0.0
  0
LINE
  8
DETAIL
  6
CONTINUOUS
 62
     5
 10
-84.270832779639932
 20
190.5827326591527
 30
0.0
 11
-51.196248273374287
 21
171.4871123910998
 31
0.0
  0
LINE
  8
DETAIL
  6
CONTINUOUS
 62
     5
 10
-151.49987223864809
 20
13.600051164738939
 30
0.0
 11
-152.99987223865989
 21
13.600051164738939
 31
0.0
  0
LINE
  8
DETAIL
  6
CONTINUOUS
 62
     5
 10
-204.49947551055629
 20
212.90043249873739
 30
0.0
 11
-204.49947551055629
 21
70.212778192375481
 31
0.0
  0
ARC
  8
DETAIL
  6
CONTINUOUS
 62
     5
 10
-179.49947551035621
 20
70.212778192375481
 30
0.0
 40
25.000000000199979
 50
180.0
 51
235.94420225743571
  0
LINE
  8
DETAIL
  6
CONTINUOUS
 62
     5
 10
-13.99930766235229
 20
3.0004630146295308
 30
0.0
 11
-13.99930766235229
 21
229.00043249885769
 31
0.0
  0
LINE
  8
DETAIL
  6
CONTINUOUS
 62
     5
 10
-10.499307662325011
 20
229.00043249885769
 30
0.0
 11
-189.99947551043621
 21
229.00043249885769
 31
0.0
  0
ARC
  8
DETAIL
  6
CONTINUOUS
 62
     5
 10
-188.95667132288639
 20
213.481757919888
 30
0.0
 40
15.55367163281783
 50
93.844309784408267
 51
182.14195422750089
  0
ARC
  8
DETAIL
  6
CONTINUOUS
 62
     5
 10
-36.499872237727693
 20
12.600051164730759
 30
0.0
 40
1.000000000008006
 50
0.0
 51
90.0
  0
LINE
  8
DETAIL
  6
CONTINUOUS
 62
     5
 10
-35.49987223772041
 20
1.200000000009368
 30
0.0
 11
-35.49987223772041
 21
12.600051164730759
 31
0.0
  0
LINE
  8
DETAIL
  6
CONTINUOUS
 62
     5
 10
-36.499872237727693
 20
13.600051164738939
 30
0.0
 11
-37.999828964765577
 21
13.600051164738939
 31
0.0
  0
ARC
  8
DETAIL
  6
CONTINUOUS
 62
     5
 10
-54.499872237872303
 20
12.600051164730759
 30
0.0
 40
1.000000000008
 50
90.0
 51
180.0000186693288
  0
LINE
  8
DETAIL
  6
CONTINUOUS
 62
     5
 10
-54.499872237872303
 20
13.600051164738939
 30
0.0
 11
-52.999872237859563
 21
13.600051164738939
 31
0.0
  0
ARC
  8
DETAIL
  6
CONTINUOUS
 62
     5
 10
-169.4998722387918
 20
12.600051164730759
 30
0.0
 40
1.000000000008
 50
90.0
 51
180.0000186693288
  0
LINE
  8
DETAIL
  6
CONTINUOUS
 62
     5
 10
-169.4998722387918
 20
13.600051164738939
 30
0.0
 11
-167.99987223878
 21
13.600051164738939
 31
0.0
  0
LINE
  8
DETAIL
  6
CONTINUOUS
 62
     5
 10
-176.49948161384779
 20
1.200000000009368
 30
0.0
 11
0.0
 21
1.200000000009368
 31
0.0
  0
LINE
  8
DETAIL
  6
CONTINUOUS
 62
     5
 10
-167.99987223878
 20
13.600051164738939
 30
0.0
 11
-167.99987223878
 21
12.150051140885351
 31
0.0
  0
LINE
  8
DETAIL
  6
CONTINUOUS
 62
     5
 10
-193.49948161398331
 20
44.500463014961497
 30
0.0
 11
-192.99947551046441
 21
44.500463014961497
 31
0.0
  0
LINE
  8
DETAIL
  6
CONTINUOUS
 62
     5
 10
-192.99947551046441
 20
44.500463014961497
 30
0.0
 11
-192.99947551046441
 21
49.500463015001507
 31
0.0
  0
LINE
  8
DETAIL
  6
CONTINUOUS
 62
     5
 10
-193.49948161398331
 20
3.0004630146295308
 30
0.0
 11
-193.49948161398331
 21
44.500463014961497
 31
0.0
  0
LINE
  8
DETAIL
  6
CONTINUOUS
 62
     5
 10
-170.49987223880001
 20
12.600051164730759
 30
0.0
 11
-170.49987223880001
 21
1.200000000009368
 31
0.0
  0
ARC
  8
DETAIL
  6
CONTINUOUS
 62
     5
 10
-194.8994602516905
 20
12.25119543657866
 30
0.0
 40
1.3999996185416681
 50
0.0000546415133601
 51
56.309773404507133
  0
LINE
  8
DETAIL
  6
CONTINUOUS
 62
     5
 10
-195.10887699246999
 20
14.406727623194911
 30
0.0
 11
-194.1228848668234
 21
13.41607667367953
 31
0.0
  0
ARC
  8
DETAIL
  6
CONTINUOUS
 62
     5
 10
-193.9994663552034
 20
16.070827013147209
 30
0.0
 40
2.0000000000159521
 50
179.99996402781539
 51
236.3097920738347
  0
LINE
  8
DETAIL
  6
CONTINUOUS
 62
     5
 10
-195.9994816140088
 20
16.070827013147209
 30
0.0
 11
-195.9994816140088
 21
18.000463014749581
 31
0.0
  0
LINE
  8
DETAIL
  6
CONTINUOUS
 62
     5
 10
-195.9994816140088
 20
19.93009901635196
 30
0.0
 11
-195.9994816140088
 21
18.000463014749581
 31
0.0
  0
ARC
  8
DETAIL
  6
CONTINUOUS
 62
     5
 10
-194.8994602516905
 20
23.74973059292051
 30
0.0
 40
1.399999618541476
 50
303.6902092926631
 51
359.99992805563733
  0
LINE
  8
DETAIL
  6
CONTINUOUS
 62
     5
 10
-195.10886695536831
 20
21.594217013546309
 30
0.0
 11
-194.12287919417031
 21
22.584874562961431
 31
0.0
  0
ARC
  8
DETAIL
  6
CONTINUOUS
 62
     5
 10
-193.9994663552034
 20
19.93009901635196
 30
0.0
 40
2.0000000000160361
 50
123.6901906233238
 51
180.0000186693288
  0
LINE
  8
DETAIL
  6
CONTINUOUS
 62
     5
 10
-55.499872237880481
 20
1.200000000009368
 30
0.0
 11
-55.499872237880481
 21
12.600051164730759
 31
0.0
  0
LINE
  8
DETAIL
  6
CONTINUOUS
 62
     5
 10
-10.499307662325011
 20
3.0004630146295308
 30
0.0
 11
-10.499307662325011
 21
229.00043249885769
 31
0.0
  0
LINE
  8
DETAIL
  6
CONTINUOUS
 62
     5
 10
-193.4994755104681
 20
49.500463015001507
 30
0.0
 11
-192.99947551046441
 21
49.500463015001507
 31
0.0
  0
LINE
  8
DETAIL
  6
CONTINUOUS
 62
     5
 10
-10.499307662325011
 20
3.0004630146295308
 30
0.0
 11
-13.99930766235229
 21
3.0004630146295308
 31
0.0
  0
LINE
  8
DETAIL
  6
CONTINUOUS
 62
     5
 10
-30.499307662484171
 20
1.200000000009368
 30
0.0
 11
-30.499307662484171
 21
3.0004630146295308
 31
0.0
  0
LINE
  8
DETAIL
  6
CONTINUOUS
 62
     5
 10
-13.39913371215334
 20
3.0004630146295308
 30
0.0
 11
-30.499307662484171
 21
3.0004630146295308
 31
0.0
  0
LINE
  8
DETAIL
  6
CONTINUOUS
 62
     5
 10
-193.99948161398791
 20
6.0004630146536329
 30
0.0
 11
-193.99948161398791
 21
13.32359339610503
 31
0.0
  0
LINE
  8
DETAIL
  6
CONTINUOUS
 62
     5
 10
-193.49948161398331
 20
6.0004630146536329
 30
0.0
 11
-193.99948161398791
 21
6.0004630146536329
 31
0.0
  0
LINE
  8
DETAIL
  6
CONTINUOUS
 62
     5
 10
-193.99948161398791
 20
22.67733263339505
 30
0.0
 11
-193.99948161398791
 21
41.50046301493785
 31
0.0
  0
LINE
  8
DETAIL
  6
CONTINUOUS
 62
     5
 10
-193.49948161398331
 20
41.50046301493785
 30
0.0
 11
-193.99948161398791
 21
41.50046301493785
 31
0.0
  0
LINE
  8
DETAIL
  6
CONTINUOUS
 62
     5
 10
-193.49948161398331
 20
3.0004630146295308
 30
0.0
 11
-176.49948161384779
 21
3.0004630146295308
 31
0.0
  0
LINE
  8
DETAIL
  6
CONTINUOUS
 62
     5
 10
-191.4994816139679
 20
2.991802326412198
 30
0.0
 11
-191.4994816139679
 21
3.0004630146295308
 31
0.0
  0
LINE
  8
DETAIL
  6
CONTINUOUS
 62
     5
 10
-176.49948161384779
 20
0.0
 30
0.0
 11
-176.49948161384779
 21
3.0004630146295308
 31
0.0
  0
ARC
  8
DETAIL
  6
CONTINUOUS
 62
     5
 10
-165.92576170672609
 20
190.42247240039589
 30
0.0
 40
24.57749123803988
 50
90.172178530923517
 51
180.98529126580681
  0
ARC
  8
DETAIL
  6
CONTINUOUS
 62
     5
 10
-164.15634764408691
 20
80.288175993744403
 30
0.0
 40
26.352882100166511
 50
178.4525530863564
 51
265.98913039068412
  0
LINE
  8
DETAIL
  6
CONTINUOUS
 62
     5
 10
-55.999298543174518
 20
53.999837404694063
 30
0.0
 11
-165.99961897862431
 21
53.999837404694063
 31
0.0
  0
ARC
  8
DETAIL
  6
CONTINUOUS
 62
     5
 10
-57.773190272591712
 20
80.716403491484812
 30
0.0
 40
26.77539160007845
 50
273.79867484950739
 51
0.6064550556456876
  0
CIRCLE
  8
DETAIL
  6
CONTINUOUS
 62
     5
 10
-110.9994663902944
 20
135.0004324981073
 30
0.0
 40
72.00000000057598
  0
CIRCLE
  8
DETAIL
  6
CONTINUOUS
 62
     5
 10
-110.9996647545522
 20
134.99983740533389
 30
0.0
 40
78.000000000623984
  0
CIRCLE
  8
DETAIL
  6
CONTINUOUS
 62
     5
 10
-110.9994663902944
 20
135.0004324981073
 30
0.0
 40
71.000000000567965
  0
LINE
  8
DETAIL
  6
CONTINUOUS
 62
     5
 10
-30.999298542974429
 20
79.999837404894151
 30
0.0
 11
-30.999298542974429
 21
189.99985266456321
 31
0.0
  0
ARC
  8
DETAIL
  6
CONTINUOUS
 62
     5
 10
-55.999298543174518
 20
189.99985266456321
 30
0.0
 40
25.000000000199989
 50
0.0
 51
90.0
  0
LINE
  8
DETAIL
  6
CONTINUOUS
 62
     5
 10
-165.99961897862431
 20
214.99985266476301
 30
0.0
 11
-55.999298543174518
 21
214.99985266476301
 31
0.0
  0
LINE
  8
DETAIL
  6
CONTINUOUS
 62
     5
 10
-190.4996189788244
 20
79.999837404894151
 30
0.0
 11
-190.4996189788244
 21
189.99985266456321
 31
0.0
  0
LINE
  8
DETAIL
  6
CONTINUOUS
 62
     5
 10
-37.999828964765577
 20
13.600051164738939
 30
0.0
 11
-37.999828964765577
 21
12.150051140885351
 31
0.0
  0
LINE
  8
DETAIL
  6
CONTINUOUS
 62
     5
 10
-52.999872237859563
 20
13.600051164738939
 30
0.0
 11
-52.999872237859563
 21
12.150051140885351
 31
0.0
  0
ARC
  8
DETAIL
  6
CONTINUOUS
 62
     5
 10
-151.49987223864809
 20
12.600051164730759
 30
0.0
 40
1.000000000008066
 50
359.99998133067118
 51
90.0
  0
LINE
  8
DETAIL
  6
CONTINUOUS
 62
     5
 10
-150.49987223863991
 20
12.600051164730759
 30
0.0
 11
-150.49987223863991
 21
1.200000000009368
 31
0.0
  0
LINE
  8
DETAIL
  6
CONTINUOUS
 62
     5
 10
-152.99987223865989
 20
13.600051164738939
 30
0.0
 11
-152.99987223865989
 21
12.150051140885351
 31
0.0
  0
ARC
  8
DETAIL
  6
CONTINUOUS
 62
     5
 10
-174.823228735725
 20
202.232076577811
 30
0.0
 40
201.47154984331121
 50
309.83536892385081
 51
318.89056557610729
  0
ARC
  8
DETAIL
  6
CONTINUOUS
 62
     5
 10
-58.731818670718887
 20
62.7504324975298
 30
0.0
 40
20.000000000160021
 50
270.0
 51
310.42111248958639
  0
LINE
  8
DETAIL
  6
CONTINUOUS
 62
     5
 10
-163.26631767255461
 20
42.750432497369729
 30
0.0
 11
-58.731818670718887
 21
42.750432497369729
 31
0.0
  0
LINE
  8
DETAIL
  6
CONTINUOUS
 62
     5
 10
-18.249861627930841
 20
187.2677457619875
 30
0.0
 11
-18.249861627930841
 21
82.733119234227615
 31
0.0
  0
ARC
  8
DETAIL
  6
CONTINUOUS
 62
     5
 10
-38.249861628090912
 20
82.733119234227615
 30
0.0
 40
20.000000000160249
 50
319.5787046850113
 51
0.0
  0
ARC
  8
DETAIL
  6
CONTINUOUS
 62
     5
 10
-163.26631767255461
 20
62.7504324975298
 30
0.0
 40
20.00000000015989
 50
229.57888751041349
 51
270.0
  0
ARC
  8
DETAIL
  6
CONTINUOUS
 62
     5
 10
-49.806389005917033
 20
192.85681664263959
 30
0.0
 40
192.62793702794571
 50
219.71826050700179
 51
228.97925019682549
  0
LINE
  8
DETAIL
  6
CONTINUOUS
 62
     5
 10
-202.7490681723757
 20
187.2677457619875
 30
0.0
 11
-202.74906817237479
 21
82.733119234227615
 31
0.0
  0
ARC
  8
DETAIL
  6
CONTINUOUS
 62
     5
 10
-182.7490681722156
 20
82.733119234227615
 30
0.0
 40
20.000000000159972
 50
180.0
 51
220.4212953149887
  0
ARC
  8
DETAIL
  6
CONTINUOUS
 62
     5
 10
-38.249861628090912
 20
187.2677457619875
 30
0.0
 40
20.000000000160469
 50
0.0
 51
40.421295314988669
  0
ARC
  8
DETAIL
  6
CONTINUOUS
 62
     5
 10
-174.82594972159981
 20
67.760099305377707
 30
0.0
 40
201.47996516055809
 50
41.126202281852471
 51
50.165619759063183
  0
ARC
  8
DETAIL
  6
CONTINUOUS
 62
     5
 10
-58.731818670718887
 20
207.25043249868551
 30
0.0
 40
20.000000000160281
 50
49.578887510413537
 51
90.0
  0
ARC
  8
DETAIL
  6
CONTINUOUS
 62
     5
 10
-80.998701960460494
 20
227.2504477576347
 30
0.0
 40
4.0000000000323297
 50
209.99999999999969
 51
329.99999999999949
  0
ARC
  8
DETAIL
  6
CONTINUOUS
 62
     5
 10
-74.070498730128747
 20
223.25044775760259
 30
0.0
 40
4.0000000000320597
 50
89.841741222236962
 51
150.00000000000031
  0
ARC
  8
DETAIL
  6
CONTINUOUS
 62
     5
 10
-87.926905190790421
 20
223.25044775760259
 30
0.0
 40
4.00000000003197
 50
30.00000000000054
 51
89.841741222236962
  0
LINE
  8
DETAIL
  6
CONTINUOUS
 62
     5
 10
-74.059450197210026
 20
227.25043249884541
 30
0.0
 11
-58.731818670718887
 21
227.25043249884541
 31
0.0
  0
LINE
  8
DETAIL
  6
CONTINUOUS
 62
     5
 10
-163.26631767255461
 20
227.25043249884541
 30
0.0
 11
-87.9158566578717
 21
227.25043249884541
 31
0.0
  0
ARC
  8
DETAIL
  6
CONTINUOUS
 62
     5
 10
-182.7490681722156
 20
187.2677457619875
 30
0.0
 40
20.00000000016005
 50
139.5787046850113
 51
180.0
  0
ARC
  8
DETAIL
  6
CONTINUOUS
 62
     5
 10
-49.806389005917033
 20
77.144048353575386
 30
0.0
 40
192.62793702794559
 50
131.02074980317451
 51
140.28173949299821
  0
ARC
  8
DETAIL
  6
CONTINUOUS
 62
     5
 10
-163.26631767255461
 20
207.25043249868551
 30
0.0
 40
20.000000000160021
 50
90.0
 51
130.42111248958651
  0
LINE
  8
DETAIL
  6
CONTINUOUS
 62
     5
 10
36.6335680870543
 20
231.5498989481373
 30
0.0
 11
20.366431913403179
 21
231.5498989481373
 31
0.0
  0
ARC
  8
DETAIL
  6
CONTINUOUS
 62
     5
 10
36.6335680870543
 20
229.54989894812141
 30
0.0
 40
2.0000000000159521
 50
44.427004000790802
 51
90.0
  0
LINE
  8
DETAIL
  6
CONTINUOUS
 62
     5
 10
76.600000000612454
 20
199.3499966041297
 30
0.0
 11
76.600000000613363
 21
225.34989894808771
 31
0.0
  0
ARC
  8
DETAIL
  6
CONTINUOUS
 62
     5
 10
71.000000000568434
 20
225.34989894808771
 30
0.0
 40
5.600000000044818
 50
0.0
 51
90.0
  0
ARC
  8
DETAIL
  6
CONTINUOUS
 62
     5
 10
-14.00000000011096
 20
225.34989894808771
 30
0.0
 40
5.6000000000447212
 50
90.0
 51
139.31642886959551
  0
LINE
  8
DETAIL
  6
CONTINUOUS
 62
     5
 10
-14.00000000011096
 20
230.94989894813261
 30
0.0
 11
71.000000000568434
 21
230.94989894813261
 31
0.0
  0
ARC
  8
DETAIL
  6
CONTINUOUS
 62
     5
 10
20.366431913403179
 20
229.54989894812141
 30
0.0
 40
2.000000000015981
 50
90.0
 51
135.57299599920921
  0
LINE
  8
DETAIL
  6
CONTINUOUS
 62
     5
 10
192.9499842245614
 20
0.0000366568588106
 30
0.0
 11
189.09996397050239
 21
0.0000366568588106
 31
0.0
  0
LINE
  8
DETAIL
  6
CONTINUOUS
 62
     5
 10
195.400051142351
 20
21.733427420929271
 30
0.0
 11
195.400051142351
 21
24.19921632859587
 31
0.0
  0
LINE
  8
DETAIL
  6
CONTINUOUS
 62
     5
 10
193.99948161398791
 20
8.5888345826015211
 30
0.0
 11
195.04943658766021
 21
9.9012657833723097
 31
0.0
  0
LINE
  8
DETAIL
  6
CONTINUOUS
 62
     5
 10
193.99948161398791
 20
26.511165417679418
 30
0.0
 11
195.04943658766021
 21
25.198734216908178
 31
0.0
  0
ARC
  8
DETAIL
  6
CONTINUOUS
 62
     5
 10
193.80005114233791
 20
10.900783671685531
 30
0.0
 40
1.600000000012842
 50
321.3399252029173
 51
0.0
  0
LINE
  8
DETAIL
  6
CONTINUOUS
 62
     5
 10
195.400051142351
 20
10.900783671685531
 30
0.0
 11
195.400051142351
 21
14.267511860787639
 31
0.0
  0
ARC
  8
DETAIL
  6
CONTINUOUS
 62
     5
 10
193.80005114233791
 20
24.19921632859587
 30
0.0
 40
1.6000000000127641
 50
0.0
 51
38.660074797073307
  0
LINE
  8
DETAIL
  6
CONTINUOUS
 62
     5
 10
0.0
 20
-10.69784964907512
 30
0.0
 11
236.91408132918971
 21
-10.69784964907512
 31
0.0
  0
ARC
  8
DETAIL
  6
CONTINUOUS
 62
     5
 10
230.49335022718239
 20
-16.441025486911261
 30
0.0
 40
0.299999999997253
 50
270.37732870951288
 51
313.69136693307257
  0
ARC
  8
DETAIL
  6
CONTINUOUS
 62
     5
 10
236.64599420365991
 20
-10.56320458556775
 30
0.0
 40
0.300000000002454
 50
313.69136693307257
 51
357.00000000001398
  0
LINE
  8
DETAIL
  6
CONTINUOUS
 62
     5
 10
236.8532262446133
 20
-10.780125956584021
 30
0.0
 11
230.70058226813219
 21
-16.65794685792434
 31
0.0
  0
ARC
  8
DETAIL
  6
CONTINUOUS
 62
     5
 10
236.9731099392566
 20
-0.5000000000040927
 30
0.0
 40
0.500000000003976
 50
357.00000000001398
 51
90.0
  0
LINE
  8
DETAIL
  6
CONTINUOUS
 62
     5
 10
237.4724247066379
 20
-0.5261679781256134
 30
0.0
 11
236.94558306408911
 21
-10.57890537244066
 31
0.0
  0
LINE
  8
DETAIL
  6
CONTINUOUS
 62
     5
 10
195.00000000156069
 20
0.0
 30
0.0
 11
0.0
 21
0.0
 31
0.0
  0
LINE
  8
DETAIL
  6
CONTINUOUS
 62
     5
 10
236.9731099392566
 20
0.0
 30
0.0
 11
0.0
 21
0.0
 31
0.0
  0
LINE
  8
DETAIL
  6
CONTINUOUS
 62
     5
 10
193.49948161398331
 20
44.500463014961497
 30
0.0
 11
192.99947551046441
 21
44.500463014961497
 31
0.0
  0
LINE
  8
DETAIL
  6
CONTINUOUS
 62
     5
 10
192.99947551046441
 20
44.500463014961497
 30
0.0
 11
192.99947551046441
 21
49.500463015001507
 31
0.0
  0
LINE
  8
DETAIL
  6
CONTINUOUS
 62
     5
 10
193.49948161398331
 20
0.0
 30
0.0
 11
193.49948161398331
 21
44.500463014961497
 31
0.0
  0
ARC
  8
DETAIL
  6
CONTINUOUS
 62
     5
 10
194.8994602516905
 20
12.25119543657866
 30
0.0
 40
1.3999996185416681
 50
123.6902265954929
 51
179.99994535848671
  0
LINE
  8
DETAIL
  6
CONTINUOUS
 62
     5
 10
195.10887699246999
 20
14.406727623194911
 30
0.0
 11
194.1228848668234
 21
13.41607667367953
 31
0.0
  0
ARC
  8
DETAIL
  6
CONTINUOUS
 62
     5
 10
193.9994663552034
 20
16.070827013147209
 30
0.0
 40
2.0000000000159521
 50
303.69020792616527
 51
0.0000359721845887
  0
LINE
  8
DETAIL
  6
CONTINUOUS
 62
     5
 10
195.9994816140088
 20
16.070827013147209
 30
0.0
 11
195.9994816140088
 21
18.000463014749581
 31
0.0
  0
LINE
  8
DETAIL
  6
CONTINUOUS
 62
     5
 10
195.9994816140088
 20
19.93009901635196
 30
0.0
 11
195.9994816140088
 21
18.000463014749581
 31
0.0
  0
ARC
  8
DETAIL
  6
CONTINUOUS
 62
     5
 10
194.8994602516905
 20
23.74973059292051
 30
0.0
 40
1.399999618541476
 50
180.0000719443627
 51
236.30979070733559
  0
LINE
  8
DETAIL
  6
CONTINUOUS
 62
     5
 10
195.10886695536831
 20
21.594217013546309
 30
0.0
 11
194.12287919417031
 21
22.584874562961431
 31
0.0
  0
ARC
  8
DETAIL
  6
CONTINUOUS
 62
     5
 10
193.9994663552034
 20
19.93009901635196
 30
0.0
 40
2.0000000000160361
 50
359.99998133067118
 51
56.309809376692442
  0
LINE
  8
DETAIL
  6
CONTINUOUS
 62
     5
 10
193.99948161398791
 20
6.0004630146536329
 30
0.0
 11
193.99948161398791
 21
13.32359339610503
 31
0.0
  0
LINE
  8
DETAIL
  6
CONTINUOUS
 62
     5
 10
193.49948161398331
 20
6.0004630146536329
 30
0.0
 11
193.99948161398791
 21
6.0004630146536329
 31
0.0
  0
LINE
  8
DETAIL
  6
CONTINUOUS
 62
     5
 10
193.99948161398791
 20
22.67733263339505
 30
0.0
 11
193.99948161398791
 21
41.50046301493785
 31
0.0
  0
LINE
  8
DETAIL
  6
CONTINUOUS
 62
     5
 10
193.49948161398331
 20
41.50046301493785
 30
0.0
 11
193.99948161398791
 21
41.50046301493785
 31
0.0
  0
LINE
  8
OUTLINE
  6
CONTINUOUS
 62
     3
 10
-193.0000191346362
 20
1.0000000000082989
 30
0.0
 11
-193.0000191346362
 21
3.0004630146296449
 31
0.0
  0
LINE
  8
OUTLINE
  6
CONTINUOUS
 62
     3
 10
-192.9499842245614
 20
0.0000366568589243
 30
0.0
 11
-189.09996397050239
 21
0.0000366568589243
 31
0.0
  0
ARC
  8
OUTLINE
  6
CONTINUOUS
 62
     3
 10
-194.00001913464439
 20
1.0000000000082989
 30
0.0
 40
1.000000000008036
 50
270.0
 51
0.0
  0
LINE
  8
OUTLINE
  6
CONTINUOUS
 62
     3
 10
-10.499307662325011
 20
199.34999660412981
 30
0.0
 11
191.45001913462329
 21
199.34999660412981
 31
0.0
  0
ARC
  8
OUTLINE
  6
CONTINUOUS
 62
     3
 10
191.45001913462329
 20
198.09998089232781
 30
0.0
 40
1.25000000001
 50
0.0
 51
90.0
  0
LINE
  8
OUTLINE
  6
CONTINUOUS
 62
     3
 10
192.7000191346342
 20
192.64988323603521
 30
0.0
 11
192.7000191346342
 21
198.09998089232781
 31
0.0
  0
ARC
  8
OUTLINE
  6
CONTINUOUS
 62
     3
 10
191.45001913462329
 20
192.64988323603521
 30
0.0
 40
1.250000000010024
 50
270.0
 51
0.0
  0
ARC
  8
OUTLINE
  6
CONTINUOUS
 62
     3
 10
-194.00001913464439
 20
1.0000000000082989
 30
0.0
 40
1.000000000008036
 50
270.0
 51
0.0
  0
ARC
  8
OUTLINE
  6
CONTINUOUS
 62
     3
 10
192.10001913462929
 20
190.49988323601789
 30
0.0
 40
0.9000000000071641
 50
0.0
 51
90.0
  0
LINE
  8
OUTLINE
  6
CONTINUOUS
 62
     3
 10
192.10001913462929
 20
191.3998832360254
 30
0.0
 11
189.99996397051021
 21
191.3998832360254
 31
0.0
  0
LINE
  8
OUTLINE
  6
CONTINUOUS
 62
     3
 10
192.9499842245614
 20
0.0000366568589243
 30
0.0
 11
193.0000191346362
 21
190.49988323601789
 31
0.0
  0
ARC
  8
OUTLINE
  6
CONTINUOUS
 62
     3
 10
-230.49335022718239
 20
-16.441025486911141
 30
0.0
 40
0.299999999997253
 50
226.3086330669274
 51
269.62267129046103
  0
ARC
  8
OUTLINE
  6
CONTINUOUS
 62
     3
 10
-236.64599420365991
 20
-10.563204585567631
 30
0.0
 40
0.300000000002454
 50
182.99999999997951
 51
226.3086330669274
  0
LINE
  8
OUTLINE
  6
CONTINUOUS
 62
     3
 10
-236.8532262446133
 20
-10.7801259565839
 30
0.0
 11
-230.70058226813219
 21
-16.65794685792423
 31
0.0
  0
ARC
  8
OUTLINE
  6
CONTINUOUS
 62
     3
 10
-236.9731099392566
 20
-0.500000000003979
 30
0.0
 40
0.500000000003976
 50
90.0
 51
182.99999999997951
  0
LINE
  8
OUTLINE
  6
CONTINUOUS
 62
     3
 10
-237.4724247066379
 20
-0.5261679781254998
 30
0.0
 11
-236.94558306408911
 21
-10.57890537244054
 31
0.0
  0
ARC
  8
OUTLINE
  6
CONTINUOUS
 62
     3
 10
-0.0000000000063665
 20
34982.500000279862
 30
0.0
 40
35000.000000280001
 50
269.62247628165079
 51
270.37732870953892
  0
LINE
  8
OUTLINE
  6
CONTINUOUS
 62
     3
 10
-236.9731099392566
 20
0.0000000000001137
 30
0.0
 11
0.0
 21
0.0000000000001137
 31
0.0
  0
LINE
  8
OUTLINE
  6
CONTINUOUS
 62
     3
 10
-204.49947551055629
 20
212.9004324987375
 30
0.0
 11
-204.49947551055629
 21
70.212778192375595
 31
0.0
  0
ARC
  8
OUTLINE
  6
CONTINUOUS
 62
     3
 10
-179.49947551035621
 20
70.212778192375595
 30
0.0
 40
25.000000000199979
 50
180.0
 51
235.94420225743571
  0
LINE
  8
OUTLINE
  6
CONTINUOUS
 62
     3
 10
-10.499307662325011
 20
229.0004324988578
 30
0.0
 11
-189.99947551043621
 21
229.0004324988578
 31
0.0
  0
ARC
  8
OUTLINE
  6
CONTINUOUS
 62
     3
 10
-188.95667132288639
 20
213.48175791988811
 30
0.0
 40
15.55367163281783
 50
93.844309784408267
 51
182.14195422750089
  0
LINE
  8
OUTLINE
  6
CONTINUOUS
 62
     3
 10
-193.49948161398331
 20
44.50046301496161
 30
0.0
 11
-192.99947551046441
 21
44.50046301496161
 31
0.0
  0
LINE
  8
OUTLINE
  6
CONTINUOUS
 62
     3
 10
-192.99947551046441
 20
44.50046301496161
 30
0.0
 11
-192.99947551046441
 21
49.500463015001628
 31
0.0
  0
LINE
  8
OUTLINE
  6
CONTINUOUS
 62
     3
 10
-193.49948161398331
 20
3.0004630146296449
 30
0.0
 11
-193.49948161398331
 21
44.50046301496161
 31
0.0
  0
LINE
  8
OUTLINE
  6
CONTINUOUS
 62
     3
 10
-193.4994755104681
 20
49.500463015001628
 30
0.0
 11
-192.99947551046441
 21
49.500463015001628
 31
0.0
  0
LINE
  8
OUTLINE
  6
CONTINUOUS
 62
     3
 10
36.6335680870543
 20
231.54989894813741
 30
0.0
 11
20.366431913403179
 21
231.54989894813741
 31
0.0
  0
ARC
  8
OUTLINE
  6
CONTINUOUS
 62
     3
 10
36.6335680870543
 20
229.54989894812149
 30
0.0
 40
2.0000000000159521
 50
44.427004000790802
 51
90.0
  0
LINE
  8
OUTLINE
  6
CONTINUOUS
 62
     3
 10
76.600000000612454
 20
199.34999660412981
 30
0.0
 11
76.600000000613363
 21
225.3498989480878
 31
0.0
  0
ARC
  8
OUTLINE
  6
CONTINUOUS
 62
     3
 10
71.000000000568434
 20
225.3498989480878
 30
0.0
 40
5.600000000044818
 50
0.0
 51
90.0
  0
ARC
  8
OUTLINE
  6
CONTINUOUS
 62
     3
 10
-14.00000000011096
 20
225.3498989480878
 30
0.0
 40
5.6000000000447212
 50
90.0
 51
139.3164288695817
  0
LINE
  8
OUTLINE
  6
CONTINUOUS
 62
     3
 10
-14.00000000011096
 20
230.9498989481327
 30
0.0
 11
71.000000000568434
 21
230.9498989481327
 31
0.0
  0
ARC
  8
OUTLINE
  6
CONTINUOUS
 62
     3
 10
20.366431913403179
 20
229.54989894812149
 30
0.0
 40
2.000000000015981
 50
90.0
 51
135.57299599920921
  0
LINE
  8
OUTLINE
  6
CONTINUOUS
 62
     3
 10
192.9499842245614
 20
0.0000366568589243
 30
0.0
 11
189.09996397050239
 21
0.0000366568589243
 31
0.0
  0
ARC
  8
OUTLINE
  6
CONTINUOUS
 62
     3
 10
230.49335022718239
 20
-16.441025486911141
 30
0.0
 40
0.299999999997253
 50
270.37732870951288
 51
313.69136693307257
  0
ARC
  8
OUTLINE
  6
CONTINUOUS
 62
     3
 10
236.64599420365991
 20
-10.563204585567631
 30
0.0
 40
0.300000000002454
 50
313.69136693307257
 51
357.00000000002052
  0
LINE
  8
OUTLINE
  6
CONTINUOUS
 62
     3
 10
236.8532262446133
 20
-10.7801259565839
 30
0.0
 11
230.70058226813219
 21
-16.65794685792423
 31
0.0
  0
ARC
  8
OUTLINE
  6
CONTINUOUS
 62
     3
 10
236.9731099392566
 20
-0.500000000003979
 30
0.0
 40
0.500000000003976
 50
357.00000000002052
 51
90.0
  0
LINE
  8
OUTLINE
  6
CONTINUOUS
 62
     3
 10
237.4724247066379
 20
-0.5261679781254998
 30
0.0
 11
236.94558306408911
 21
-10.57890537244054
 31
0.0
  0
LINE
  8
OUTLINE
  6
CONTINUOUS
 62
     3
 10
195.00000000156069
 20
0.0000000000001137
 30
0.0
 11
0.0
 21
0.0000000000001137
 31
0.0
  0
LINE
  8
OUTLINE
  6
CONTINUOUS
 62
     3
 10
236.9731099392566
 20
0.0000000000001137
 30
0.0
 11
0.0
 21
0.0000000000001137
 31
0.0
  0
LINE
  8
OUTLINE
  6
CONTINUOUS
 62
     3
 10
192.99947551046441
 20
44.50046301496161
 30
0.0
 11
192.99947551046441
 21
49.500463015001628
 31
0.0
  0
ARC
  8
DETAIL
  6
CONTINUOUS
 62
     5
 10
-104.6908454441641
 20
202.1058970908974
 30
0.0
 40
2.243925658975702
 50
66.234811837189341
 51
144.10014396598049
  0
ARC
  8
DETAIL
  6
CONTINUOUS
 62
     5
 10
-165.62369454948879
 20
96.033509274544258
 30
0.0
 40
2.494338207353703
 50
160.19604457074661
 51
228.19027974034651
  0
LINE
  8
BASIS
  6
DASHDOT
 62
     6
 10
-224.9903311536186
 20
135.0004324981079
 30
0.0
 11
2.9914013533100392
 21
135.0004324981079
 31
0.0
  0
LINE
  8
BASIS
  6
DASHDOT
 62
     6
 10
258.69554884278301
 20
0.0
 30
0.0
 11
-258.69554884278301
 21
0.0
 31
0.0
  0
LINE
  8
NOTE
  6
CONTINUOUS
 62
     4
 10
209.02451936700231
 20
198.37419223532649
 30
0.0
 11
209.02451936700231
 21
217.67419223549459
 31
0.0
  0
LINE
  8
BASIS
  6
DASHDOT
 62
     6
 10
-0.0000000000009095
 20
303.04355399109949
 30
0.0
 11
-0.0000000000009095
 21
-74.287519946460918
 31
0.0
  0
LINE
  8
SIZE
  6
CONTINUOUS
 62
    30
 10
-21.454916958844141
 20
249.00043249885769
 30
0.0
 11
-21.454916958844141
 21
540.77982421307479
 31
0.0
  0
LINE
  8
SIZE
  6
CONTINUOUS
 62
    30
 10
76.600000000613363
 20
245.3498989480878
 30
0.0
 11
76.600000000613363
 21
540.77982421307479
 31
0.0
  0
LINE
  8
SIZE
  6
CONTINUOUS
 62
    30
 10
-9.4549169588441373
 20
520.77982421307479
 30
0.0
 11
64.600000000613363
 21
520.77982421307479
 31
0.0
  0
LINE
  8
SIZE
  6
CONTINUOUS
 62
    30
 10
76.600000000613363
 20
520.77982421307479
 30
0.0
 11
424.54013999662737
 21
520.77982421307479
 31
0.0
  0
CIRCLE
  8
SIZE
  6
CONTINUOUS
 62
    30
 10
-21.454916958844141
 20
520.77982421307479
 30
0.0
 40
6.0
  0
LINE
  8
SIZE
  6
CONTINUOUS
 62
    30
 10
-21.454916958844141
 20
520.77982421307479
 30
0.0
 11
-9.4549169588441373
 21
520.77982421307479
 31
0.0
  0
CIRCLE
  8
SIZE
  6
CONTINUOUS
 62
    30
 10
76.600000000613363
 20
520.77982421307479
 30
0.0
 40
6.0
  0
LINE
  8
SIZE
  6
CONTINUOUS
 62
    30
 10
76.600000000613363
 20
520.77982421307479
 30
0.0
 11
64.600000000613363
 21
520.77982421307479
 31
0.0
  0
TEXT
  8
SIZE
  6
CONTINUOUS
 62
    30
 10
235.79156856805611
 20
556.4464908797413
 30
0.0
 40
64.0
  1
φ98
 41
0.9
 72
     1
 11
322.74013999662748
 21
556.4464908797413
 31
0.0
  0
POINT
  8
DEFPOINTS
  6
CONTINUOUS
 62
    30
 10
-21.454916958844141
 20
229.00043249885769
 30
0.0
  0
POINT
  8
DEFPOINTS
  6
CONTINUOUS
 62
    30
 10
76.600000000613363
 20
225.3498989480878
 30
0.0
  0
POINT
  8
DEFPOINTS
  6
CONTINUOUS
 62
    30
 10
76.600000000613363
 20
520.77982421307479
 30
0.0
  0
LINE
  8
SIZE
  6
CONTINUOUS
 62
    30
 10
-204.49947551055629
 20
232.90043249873739
 30
0.0
 11
-204.49947551055629
 21
623.810770764273
 31
0.0
  0
LINE
  8
SIZE
  6
CONTINUOUS
 62
    30
 10
-193.49948161398331
 20
64.500463014961497
 30
0.0
 11
-193.49948161398331
 21
623.810770764273
 31
0.0
  0
LINE
  8
SIZE
  6
CONTINUOUS
 62
    30
 10
-181.49948161398331
 20
603.810770764273
 30
0.0
 11
-169.49948161398331
 21
603.810770764273
 31
0.0
  0
LINE
  8
SIZE
  6
CONTINUOUS
 62
    30
 10
-216.49947551055629
 20
603.810770764273
 30
0.0
 11
-353.92804693912763
 21
603.810770764273
 31
0.0
  0
LINE
  8
SIZE
  6
CONTINUOUS
 62
    30
 10
-193.49948161398331
 20
603.810770764273
 30
0.0
 11
-204.49947551055629
 21
603.810770764273
 31
0.0
  0
CIRCLE
  8
SIZE
  6
CONTINUOUS
 62
    30
 10
-193.49948161398331
 20
603.810770764273
 30
0.0
 40
6.0
  0
LINE
  8
SIZE
  6
CONTINUOUS
 62
    30
 10
-193.49948161398331
 20
603.810770764273
 30
0.0
 11
-181.49948161398331
 21
603.810770764273
 31
0.0
  0
CIRCLE
  8
SIZE
  6
CONTINUOUS
 62
    30
 10
-204.49947551055629
 20
603.810770764273
 30
0.0
 40
6.0
  0
LINE
  8
SIZE
  6
CONTINUOUS
 62
    30
 10
-204.49947551055629
 20
603.810770764273
 30
0.0
 11
-216.49947551055629
 21
603.810770764273
 31
0.0
  0
TEXT
  8
SIZE
  6
CONTINUOUS
 62
    30
 10
-328.92804693912768
 20
628.810770764273
 30
0.0
 40
64.0
  1
11
 41
0.9
 72
     1
 11
-300.12804693912773
 21
628.810770764273
 31
0.0
  0
POINT
  8
DEFPOINTS
  6
CONTINUOUS
 62
    30
 10
-204.49947551055629
 20
212.90043249873739
 30
0.0
  0
POINT
  8
DEFPOINTS
  6
CONTINUOUS
 62
    30
 10
-193.49948161398331
 20
44.500463014961497
 30
0.0
  0
POINT
  8
DEFPOINTS
  6
CONTINUOUS
 62
    30
 10
-193.49948161398331
 20
603.810770764273
 30
0.0
  0
LINE
  8
SIZE
  6
CONTINUOUS
 62
    30
 10
-110.99946490015429
 20
270.22660664342447
 30
0.0
 11
-110.99946490015429
 21
624.5477617739316
 31
0.0
  0
LINE
  8
SIZE
  6
CONTINUOUS
 62
    30
 10
-0.0000000000009095
 20
323.04355399109949
 30
0.0
 11
-0.0000000000009095
 21
624.5477617739316
 31
0.0
  0
LINE
  8
SIZE
  6
CONTINUOUS
 62
    30
 10
-98.99946490015418
 20
604.5477617739316
 30
0.0
 11
-12.000000000000909
 21
604.5477617739316
 31
0.0
  0
CIRCLE
  8
SIZE
  6
CONTINUOUS
 62
    30
 10
-110.99946490015429
 20
604.5477617739316
 30
0.0
 40
6.0
  0
LINE
  8
SIZE
  6
CONTINUOUS
 62
    30
 10
-110.99946490015429
 20
604.5477617739316
 30
0.0
 11
-98.999464900154294
 21
604.5477617739316
 31
0.0
  0
CIRCLE
  8
SIZE
  6
CONTINUOUS
 62
    30
 10
-0.0000000000009095
 20
604.5477617739316
 30
0.0
 40
6.0
  0
LINE
  8
SIZE
  6
CONTINUOUS
 62
    30
 10
-0.0000000000009095
 20
604.5477617739316
 30
0.0
 11
-12.000000000000909
 21
604.5477617739316
 31
0.0
  0
TEXT
  8
SIZE
  6
CONTINUOUS
 62
    30
 10
-106.24258959293471
 20
629.5477617739316
 30
0.0
 40
64.0
  1
111
 41
0.9
 72
     1
 11
-55.499732450077538
 21
629.5477617739316
 31
0.0
  0
POINT
  8
DEFPOINTS
  6
CONTINUOUS
 62
    30
 10
-110.99946490015429
 20
250.2266066434245
 30
0.0
  0
POINT
  8
DEFPOINTS
  6
CONTINUOUS
 62
    30
 10
-0.0000000000009095
 20
303.04355399109949
 30
0.0
  0
POINT
  8
DEFPOINTS
  6
CONTINUOUS
 62
    30
 10
-0.0000000000009095
 20
604.5477617739316
 30
0.0
  0
LINE
  8
SIZE
  6
CONTINUOUS
 62
    30
 10
193.0000191346364
 20
210.49988323601789
 30
0.0
 11
193.0000191346364
 21
742.70625524447905
 31
0.0
  0
LINE
  8
SIZE
  6
CONTINUOUS
 62
    30
 10
-193.49948161398331
 20
64.500463014961497
 30
0.0
 11
-193.49948161398331
 21
742.70625524447905
 31
0.0
  0
LINE
  8
SIZE
  6
CONTINUOUS
 62
    30
 10
181.0000191346364
 20
722.70625524447905
 30
0.0
 11
-181.49948161398331
 21
722.70625524447905
 31
0.0
  0
CIRCLE
  8
SIZE
  6
CONTINUOUS
 62
    30
 10
193.0000191346364
 20
722.70625524447905
 30
0.0
 40
6.0
  0
LINE
  8
SIZE
  6
CONTINUOUS
 62
    30
 10
193.0000191346364
 20
722.70625524447905
 30
0.0
 11
181.0000191346364
 21
722.70625524447905
 31
0.0
  0
CIRCLE
  8
SIZE
  6
CONTINUOUS
 62
    30
 10
-193.49948161398331
 20
722.70625524447905
 30
0.0
 40
6.0
  0
LINE
  8
SIZE
  6
CONTINUOUS
 62
    30
 10
-193.49948161398331
 20
722.70625524447905
 30
0.0
 11
-181.49948161398331
 21
722.70625524447905
 31
0.0
  0
TEXT
  8
SIZE
  6
CONTINUOUS
 62
    30
 10
-109.4154455253879
 20
747.70625524447905
 30
0.0
 40
64.0
  1
□386
 41
0.9
 72
     1
 11
-0.2497312396735651
 21
747.70625524447905
 31
0.0
  0
POINT
  8
DEFPOINTS
  6
CONTINUOUS
 62
    30
 10
193.0000191346364
 20
190.49988323601789
 30
0.0
  0
POINT
  8
DEFPOINTS
  6
CONTINUOUS
 62
    30
 10
-193.49948161398331
 20
44.500463014961497
 30
0.0
  0
POINT
  8
DEFPOINTS
  6
CONTINUOUS
 62
    30
 10
-193.49948161398331
 20
722.70625524447905
 30
0.0
  0
LINE
  8
SIZE
  6
CONTINUOUS
 62
    30
 10
-195.99946635521891
 20
-3.929171731186671
 30
0.0
 11
-195.99946635521891
 21
-356.30137385787981
 31
0.0
  0
LINE
  8
SIZE
  6
CONTINUOUS
 62
    30
 10
195.9994663552188
 20
-3.929171731186671
 30
0.0
 11
195.9994663552188
 21
-356.30137385787981
 31
0.0
  0
LINE
  8
SIZE
  6
CONTINUOUS
 62
    30
 10
-183.99946635521891
 20
-336.30137385787981
 30
0.0
 11
183.9994663552188
 21
-336.30137385787981
 31
0.0
  0
CIRCLE
  8
SIZE
  6
CONTINUOUS
 62
    30
 10
-195.99946635521891
 20
-336.30137385787981
 30
0.0
 40
6.0
  0
LINE
  8
SIZE
  6
CONTINUOUS
 62
    30
 10
-195.99946635521891
 20
-336.30137385787981
 30
0.0
 11
-183.99946635521891
 21
-336.30137385787981
 31
0.0
  0
CIRCLE
  8
SIZE
  6
CONTINUOUS
 62
    30
 10
195.9994663552188
 20
-336.30137385787981
 30
0.0
 40
6.0
  0
LINE
  8
SIZE
  6
CONTINUOUS
 62
    30
 10
195.9994663552188
 20
-336.30137385787981
 30
0.0
 11
183.9994663552188
 21
-336.30137385787981
 31
0.0
  0
TEXT
  8
SIZE
  6
CONTINUOUS
 62
    30
 10
-74.05714285714285
 20
-311.30137385787981
 30
0.0
 40
64.0
  1
392
 41
0.9
 72
     1
 11
0.0
 21
-311.30137385787981
 31
0.0
  0
POINT
  8
DEFPOINTS
  6
CONTINUOUS
 62
    30
 10
-195.99946635521891
 20
16.070828268813329
 30
0.0
  0
POINT
  8
DEFPOINTS
  6
CONTINUOUS
 62
    30
 10
195.9994663552188
 20
16.070828268813329
 30
0.0
  0
POINT
  8
DEFPOINTS
  6
CONTINUOUS
 62
    30
 10
195.9994663552188
 20
-336.30137385787981
 30
0.0
  0
LINE
  8
NOTE
  6
CONTINUOUS
 62
     4
 10
-205.0
 20
19.99999999999989
 30
0.0
 11
-205.0
 21
-20.0
 31
0.0
  0
LINE
  8
NOTE
  6
CONTINUOUS
 62
     4
 10
-225.0
 20
0.0
 30
0.0
 11
-185.0
 21
0.0
 31
0.0
  0
LINE
  8
NOTE
  6
CONTINUOUS
 62
     4
 10
205.0
 20
19.99999999999989
 30
0.0
 11
205.0
 21
-20.0
 31
0.0
  0
LINE
  8
NOTE
  6
CONTINUOUS
 62
     4
 10
225.0
 20
0.0
 30
0.0
 11
185.0
 21
0.0
 31
0.0
  0
CIRCLE
  8
FIX
  6
CONTINUOUS
 62
    11
 10
205.0
 20
0.0
 30
0.0
 40
5.0
  0
CIRCLE
  8
FIX
  6
CONTINUOUS
 62
    11
 10
-205.0
 20
0.0
 30
0.0
 40
5.0
  0
LINE
  8
SIZE
  6
CONTINUOUS
 62
    30
 10
205.0
 20
-40.0
 30
0.0
 11
205.0
 21
-468.87540682394678
 31
0.0
  0
LINE
  8
SIZE
  6
CONTINUOUS
 62
    30
 10
-205.0
 20
-40.0
 30
0.0
 11
-205.0
 21
-468.87540682394678
 31
0.0
  0
LINE
  8
SIZE
  6
CONTINUOUS
 62
    30
 10
193.0
 20
-448.87540682394678
 30
0.0
 11
-193.0
 21
-448.87540682394678
 31
0.0
  0
CIRCLE
  8
SIZE
  6
CONTINUOUS
 62
    30
 10
205.0
 20
-448.87540682394678
 30
0.0
 40
6.0
  0
LINE
  8
SIZE
  6
CONTINUOUS
 62
    30
 10
205.0
 20
-448.87540682394678
 30
0.0
 11
193.0
 21
-448.87540682394678
 31
0.0
  0
CIRCLE
  8
SIZE
  6
CONTINUOUS
 62
    30
 10
-205.0
 20
-448.87540682394678
 30
0.0
 40
6.0
  0
LINE
  8
SIZE
  6
CONTINUOUS
 62
    30
 10
-205.0
 20
-448.87540682394678
 30
0.0
 11
-193.0
 21
-448.87540682394678
 31
0.0
  0
TEXT
  8
SIZE
  6
CONTINUOUS
 62
    30
 10
-68.571428571428555
 20
-423.87540682394678
 30
0.0
 40
64.0
  1
410
 41
0.9
 72
     1
 11
0.0
 21
-423.87540682394678
 31
0.0
  0
POINT
  8
DEFPOINTS
  6
CONTINUOUS
 62
    30
 10
205.0
 20
-20.0
 30
0.0
  0
POINT
  8
DEFPOINTS
  6
CONTINUOUS
 62
    30
 10
-205.0
 20
-20.0
 30
0.0
  0
POINT
  8
DEFPOINTS
  6
CONTINUOUS
 62
    30
 10
-205.0
 20
-448.87540682394678
 30
0.0
  0
LINE
  8
SIZE
  6
CONTINUOUS
 62
    30
 10
-237.47242470663781
 20
-20.5261679781255
 30
0.0
 11
-237.4724247066379
 21
-579.01700008151181
 31
0.0
  0
LINE
  8
SIZE
  6
CONTINUOUS
 62
    30
 10
237.4724247066379
 20
-20.52616797812561
 30
0.0
 11
237.4724247066379
 21
-579.01700008151181
 31
0.0
  0
LINE
  8
SIZE
  6
CONTINUOUS
 62
    30
 10
-225.4724247066379
 20
-559.01700008151192
 30
0.0
 11
225.4724247066379
 21
-559.01700008151192
 31
0.0
  0
CIRCLE
  8
SIZE
  6
CONTINUOUS
 62
    30
 10
-237.4724247066379
 20
-559.01700008151192
 30
0.0
 40
6.0
  0
LINE
  8
SIZE
  6
CONTINUOUS
 62
    30
 10
-237.4724247066379
 20
-559.01700008151192
 30
0.0
 11
-225.4724247066379
 21
-559.01700008151192
 31
0.0
  0
CIRCLE
  8
SIZE
  6
CONTINUOUS
 62
    30
 10
237.4724247066379
 20
-559.01700008151192
 30
0.0
 40
6.0
  0
LINE
  8
SIZE
  6
CONTINUOUS
 62
    30
 10
237.4724247066379
 20
-559.01700008151192
 30
0.0
 11
225.4724247066379
 21
-559.01700008151192
 31
0.0
  0
TEXT
  8
SIZE
  6
CONTINUOUS
 62
    30
 10
-110.5371428571429
 20
-534.01700008151192
 30
0.0
 40
64.0
  1
□475
 41
0.9
 72
     1
 11
0.0
 21
-534.01700008151192
 31
0.0
  0
POINT
  8
DEFPOINTS
  6
CONTINUOUS
 62
    30
 10
-237.47242470663781
 20
-0.5261679781254998
 30
0.0
  0
POINT
  8
DEFPOINTS
  6
CONTINUOUS
 62
    30
 10
237.4724247066379
 20
-0.5261679781256134
 30
0.0
  0
POINT
  8
DEFPOINTS
  6
CONTINUOUS
 62
    30
 10
237.4724247066379
 20
-559.01700008151192
 30
0.0
  0
LINE
  8
SIZE
  6
CONTINUOUS
 62
    30
 10
56.6335680870543
 20
231.54989894813741
 30
0.0
 11
704.51754151225214
 21
231.54989894813721
 31
0.0
  0
LINE
  8
SIZE
  6
CONTINUOUS
 62
    30
 10
278.69554884278392
 20
0.0000000000022737
 30
0.0
 11
704.51754151225214
 21
0.0000000000020464
 31
0.0
  0
LINE
  8
SIZE
  6
CONTINUOUS
 62
    30
 10
684.51754151225214
 20
219.5498989481373
 30
0.0
 11
684.51754151225214
 21
12.00000000000205
 31
0.0
  0
CIRCLE
  8
SIZE
  6
CONTINUOUS
 62
    30
 10
684.51754151225214
 20
231.5498989481373
 30
0.0
 40
6.0
  0
LINE
  8
SIZE
  6
CONTINUOUS
 62
    30
 10
684.51754151225214
 20
231.5498989481373
 30
0.0
 11
684.51754151225214
 21
219.5498989481373
 31
0.0
  0
CIRCLE
  8
SIZE
  6
CONTINUOUS
 62
    30
 10
684.51754151225214
 20
0.0000000000020464
 30
0.0
 40
6.0
  0
LINE
  8
SIZE
  6
CONTINUOUS
 62
    30
 10
684.51754151225214
 20
0.0000000000020464
 30
0.0
 11
684.51754151225214
 21
12.00000000000216
 31
0.0
  0
TEXT
  8
SIZE
  6
CONTINUOUS
 62
    30
 10
659.51754151225214
 20
41.717806616929437
 30
0.0
 40
64.0
  1
232
 50
90.0
 41
0.9
 72
     1
 11
659.51754151225214
 21
115.7749494740723
 31
0.0
  0
POINT
  8
DEFPOINTS
  6
CONTINUOUS
 62
    30
 10
36.6335680870543
 20
231.54989894813741
 30
0.0
  0
POINT
  8
DEFPOINTS
  6
CONTINUOUS
 62
    30
 10
258.69554884278392
 20
0.0000000000022737
 30
0.0
  0
POINT
  8
DEFPOINTS
  6
CONTINUOUS
 62
    30
 10
684.51754151225214
 20
0.0000000000020464
 30
0.0
  0
LINE
  8
SIZE
  6
CONTINUOUS
 62
    30
 10
278.69554884278392
 20
0.0000000000022737
 30
0.0
 11
704.51754151225305
 21
0.0000000000020464
 31
0.0
  0
LINE
  8
SIZE
  6
CONTINUOUS
 62
    30
 10
19.999999999999659
 20
-17.500000000145519
 30
0.0
 11
704.51754151225305
 21
-17.50000000014575
 31
0.0
  0
LINE
  8
SIZE
  6
CONTINUOUS
 62
    30
 10
684.51754151225305
 20
12.00000000000205
 30
0.0
 11
684.51754151225305
 21
24.00000000000205
 31
0.0
  0
LINE
  8
SIZE
  6
CONTINUOUS
 62
    30
 10
684.51754151225305
 20
-29.50000000014575
 30
0.0
 11
684.51754151225305
 21
-173.78571428585991
 31
0.0
  0
LINE
  8
SIZE
  6
CONTINUOUS
 62
    30
 10
684.51754151225305
 20
0.0000000000020464
 30
0.0
 11
684.51754151225305
 21
-17.50000000014575
 31
0.0
  0
CIRCLE
  8
SIZE
  6
CONTINUOUS
 62
    30
 10
684.51754151225305
 20
0.0000000000020464
 30
0.0
 40
6.0
  0
LINE
  8
SIZE
  6
CONTINUOUS
 62
    30
 10
684.51754151225305
 20
0.0000000000020464
 30
0.0
 11
684.51754151225305
 21
12.00000000000216
 31
0.0
  0
CIRCLE
  8
SIZE
  6
CONTINUOUS
 62
    30
 10
684.51754151225305
 20
-17.50000000014575
 30
0.0
 40
6.0
  0
LINE
  8
SIZE
  6
CONTINUOUS
 62
    30
 10
684.51754151225305
 20
-17.50000000014575
 30
0.0
 11
684.51754151225305
 21
-29.50000000014575
 31
0.0
  0
TEXT
  8
SIZE
  6
CONTINUOUS
 62
    30
 10
659.51754151225305
 20
-148.7857142858598
 30
0.0
 40
64.0
  1
18
 50
90.0
 41
0.9
 72
     1
 11
659.51754151225305
 21
-107.6428571430027
 31
0.0
  0
POINT
  8
DEFPOINTS
  6
CONTINUOUS
 62
    30
 10
258.69554884278392
 20
0.0000000000022737
 30
0.0
  0
POINT
  8
DEFPOINTS
  6
CONTINUOUS
 62
    30
 10
-0.0000000000003411
 20
-17.500000000145519
 30
0.0
  0
POINT
  8
DEFPOINTS
  6
CONTINUOUS
 62
    30
 10
684.51754151225305
 20
-17.50000000014575
 30
0.0
  0
LINE
  8
SIZE
  6
CONTINUOUS
 62
    30
 10
-212.99947551046441
 20
49.500463015001507
 30
0.0
 11
-335.78061539711211
 21
49.500463015001507
 31
0.0
  0
LINE
  8
SIZE
  6
CONTINUOUS
 62
    30
 10
-278.69554884278301
 20
0.0
 30
0.0
 11
-335.78061539711211
 21
0.0
 31
0.0
  0
LINE
  8
SIZE
  6
CONTINUOUS
 62
    30
 10
-315.78061539711217
 20
61.500463015001507
 30
0.0
 11
-315.78061539711217
 21
73.500463015001515
 31
0.0
  0
LINE
  8
SIZE
  6
CONTINUOUS
 62
    30
 10
-315.78061539711217
 20
-12.0
 30
0.0
 11
-315.7806153971124
 21
-167.25714285714281
 31
0.0
  0
LINE
  8
SIZE
  6
CONTINUOUS
 62
    30
 10
-315.78061539711217
 20
49.500463015001507
 30
0.0
 11
-315.78061539711217
 21
0.0
 31
0.0
  0
CIRCLE
  8
SIZE
  6
CONTINUOUS
 62
    30
 10
-315.78061539711217
 20
49.500463015001507
 30
0.0
 40
6.0
  0
LINE
  8
SIZE
  6
CONTINUOUS
 62
    30
 10
-315.78061539711217
 20
49.500463015001507
 30
0.0
 11
-315.78061539711217
 21
61.500463015001507
 31
0.0
  0
CIRCLE
  8
SIZE
  6
CONTINUOUS
 62
    30
 10
-315.78061539711217
 20
0.0
 30
0.0
 40
6.0
  0
LINE
  8
SIZE
  6
CONTINUOUS
 62
    30
 10
-315.78061539711217
 20
0.0
 30
0.0
 11
-315.78061539711217
 21
-12.0
 31
0.0
  0
TEXT
  8
SIZE
  6
CONTINUOUS
 62
    30
 10
-340.78061539711211
 20
-142.2571428571429
 30
0.0
 40
64.0
  1
50
 50
90.0
 41
0.9
 72
     1
 11
-340.78061539711211
 21
-95.628571428571433
 31
0.0
  0
POINT
  8
DEFPOINTS
  6
CONTINUOUS
 62
    30
 10
-192.99947551046441
 20
49.500463015001507
 30
0.0
  0
POINT
  8
DEFPOINTS
  6
CONTINUOUS
 62
    30
 10
-258.69554884278301
 20
0.0
 30
0.0
  0
POINT
  8
DEFPOINTS
  6
CONTINUOUS
 62
    30
 10
-315.78061539711217
 20
0.0
 30
0.0
  0
LINE
  8
SIZE
  6
CONTINUOUS
 62
    30
 10
-244.9903311536186
 20
135.0004324981079
 30
0.0
 11
-583.76918239589941
 21
135.00043249810801
 31
0.0
  0
LINE
  8
SIZE
  6
CONTINUOUS
 62
    30
 10
-278.69554884278301
 20
0.0
 30
0.0
 11
-583.76918239589941
 21
0.0000000000001137
 31
0.0
  0
LINE
  8
SIZE
  6
CONTINUOUS
 62
    30
 10
-563.76918239589941
 20
123.000432498108
 30
0.0
 11
-563.76918239589941
 21
12.00000000000011
 31
0.0
  0
CIRCLE
  8
SIZE
  6
CONTINUOUS
 62
    30
 10
-563.76918239589941
 20
135.00043249810801
 30
0.0
 40
6.0
  0
LINE
  8
SIZE
  6
CONTINUOUS
 62
    30
 10
-563.76918239589941
 20
135.00043249810801
 30
0.0
 11
-563.76918239589941
 21
123.000432498108
 31
0.0
  0
CIRCLE
  8
SIZE
  6
CONTINUOUS
 62
    30
 10
-563.76918239589941
 20
0.0000000000001137
 30
0.0
 40
6.0
  0
LINE
  8
SIZE
  6
CONTINUOUS
 62
    30
 10
-563.76918239589941
 20
0.0000000000001137
 30
0.0
 11
-563.76918239589941
 21
12.00000000000011
 31
0.0
  0
TEXT
  8
SIZE
  6
CONTINUOUS
 62
    30
 10
-588.76918239589941
 20
-1.071212322374677
 30
0.0
 40
64.0
  1
135
 50
90.0
 41
0.9
 72
     1
 11
-588.76918239589941
 21
67.500216249053892
 31
0.0
  0
POINT
  8
DEFPOINTS
  6
CONTINUOUS
 62
    30
 10
-224.9903311536186
 20
135.0004324981079
 30
0.0
  0
POINT
  8
DEFPOINTS
  6
CONTINUOUS
 62
    30
 10
-258.69554884278301
 20
0.0
 30
0.0
  0
POINT
  8
DEFPOINTS
  6
CONTINUOUS
 62
    30
 10
-563.76918239589941
 20
0.0000000000001137
 30
0.0
  0
LINE
  8
SIZE
  6
CONTINUOUS
 62
    30
 10
278.69554884278301
 20
0.0
 30
0.0
 11
487.74415666680397
 21
-0.0000000000001137
 31
0.0
  0
LINE
  8
SIZE
  6
CONTINUOUS
 62
    30
 10
243.4261930071186
 20
207.0741922354147
 30
0.0
 11
487.74415666680397
 21
207.07419223541461
 31
0.0
  0
LINE
  8
SIZE
  6
CONTINUOUS
 62
    30
 10
467.74415666680397
 20
11.99999999999989
 30
0.0
 11
467.74415666680397
 21
195.07419223541461
 31
0.0
  0
CIRCLE
  8
SIZE
  6
CONTINUOUS
 62
    30
 10
467.74415666680397
 20
-0.0000000000001137
 30
0.0
 40
6.0
  0
LINE
  8
SIZE
  6
CONTINUOUS
 62
    30
 10
467.74415666680397
 20
-0.0000000000001137
 30
0.0
 11
467.74415666680397
 21
11.99999999999989
 31
0.0
  0
CIRCLE
  8
SIZE
  6
CONTINUOUS
 62
    30
 10
467.74415666680397
 20
207.07419223541461
 30
0.0
 40
6.0
  0
LINE
  8
SIZE
  6
CONTINUOUS
 62
    30
 10
467.74415666680397
 20
207.07419223541461
 30
0.0
 11
467.74415666680397
 21
195.07419223541461
 31
0.0
  0
TEXT
  8
SIZE
  6
CONTINUOUS
 62
    30
 10
442.74415666680397
 20
29.479953260564429
 30
0.0
 40
64.0
  1
207
 50
90.0
 41
0.9
 72
     1
 11
442.74415666680397
 21
103.53709611770731
 31
0.0
  0
POINT
  8
DEFPOINTS
  6
CONTINUOUS
 62
    30
 10
258.69554884278301
 20
0.0
 30
0.0
  0
POINT
  8
DEFPOINTS
  6
CONTINUOUS
 62
    30
 10
223.4261930071186
 20
207.0741922354147
 30
0.0
  0
POINT
  8
DEFPOINTS
  6
CONTINUOUS
 62
    30
 10
467.74415666680397
 20
207.07419223541461
 30
0.0
  0
LINE
  8
NOTE
  6
CONTINUOUS
 62
     4
 10
150.0
 20
19.99999999999989
 30
0.0
 11
150.0
 21
-20.0
 31
0.0
  0
LINE
  8
NOTE
  6
CONTINUOUS
 62
     4
 10
170.0
 20
0.0
 30
0.0
 11
130.0
 21
0.0
 31
0.0
  0
CIRCLE
  8
FIX
  6
CONTINUOUS
 62
    11
 10
150.0
 20
0.0
 30
0.0
 40
5.0
  0
LINE
  8
NOTE
  6
CONTINUOUS
 62
     4
 10
-150.0
 20
19.99999999999989
 30
0.0
 11
-150.0
 21
-20.0
 31
0.0
  0
LINE
  8
NOTE
  6
CONTINUOUS
 62
     4
 10
-170.0
 20
0.0
 30
0.0
 11
-130.0
 21
0.0
 31
0.0
  0
CIRCLE
  8
FIX
  6
CONTINUOUS
 62
    11
 10
-150.0
 20
0.0
 30
0.0
 40
5.0
  0
LINE
  8
SIZE
  6
CONTINUOUS
 62
    30
 10
-150.0
 20
-40.0
 30
0.0
 11
-150.0
 21
-248.09268357864241
 31
0.0
  0
LINE
  8
SIZE
  6
CONTINUOUS
 62
    30
 10
150.0
 20
-40.0
 30
0.0
 11
150.0
 21
-248.09268357864241
 31
0.0
  0
LINE
  8
SIZE
  6
CONTINUOUS
 62
    30
 10
-138.0
 20
-228.09268357864241
 30
0.0
 11
138.0
 21
-228.09268357864241
 31
0.0
  0
CIRCLE
  8
SIZE
  6
CONTINUOUS
 62
    30
 10
-150.0
 20
-228.09268357864241
 30
0.0
 40
6.0
  0
LINE
  8
SIZE
  6
CONTINUOUS
 62
    30
 10
-150.0
 20
-228.09268357864241
 30
0.0
 11
-138.0
 21
-228.09268357864241
 31
0.0
  0
CIRCLE
  8
SIZE
  6
CONTINUOUS
 62
    30
 10
150.0
 20
-228.09268357864241
 30
0.0
 40
6.0
  0
LINE
  8
SIZE
  6
CONTINUOUS
 62
    30
 10
150.0
 20
-228.09268357864241
 30
0.0
 11
138.0
 21
-228.09268357864241
 31
0.0
  0
TEXT
  8
SIZE
  6
CONTINUOUS
 62
    30
 10
-74.05714285714285
 20
-203.09268357864241
 30
0.0
 40
64.0
  1
300
 41
0.9
 72
     1
 11
0.0
 21
-203.09268357864241
 31
0.0
  0
POINT
  8
DEFPOINTS
  6
CONTINUOUS
 62
    30
 10
-150.0
 20
-20.0
 30
0.0
  0
POINT
  8
DEFPOINTS
  6
CONTINUOUS
 62
    30
 10
150.0
 20
-20.0
 30
0.0
  0
POINT
  8
DEFPOINTS
  6
CONTINUOUS
 62
    30
 10
150.0
 20
-228.09268357864241
 30
0.0
  0
LINE
  8
NOTE
  6
CONTINUOUS
 62
     4
 10
151.587915700607
 20
-6.0052662736771936
 30
0.0
 11
150.0
 21
0.0
 31
0.0
  0
LINE
  8
NOTE
  6
CONTINUOUS
 62
     4
 10
150.0
 20
0.0
 30
0.0
 11
154.3778151133597
 21
-4.4067487020748786
 31
0.0
  0
LINE
  8
NOTE
  6
CONTINUOUS
 62
     4
 10
150.0
 20
0.0
 30
0.0
 11
155.9657308139667
 21
-10.41201497575207
 31
0.0
  0
LINE
  8
NOTE
  6
CONTINUOUS
 62
     4
 10
155.9657308139667
 20
-10.41201497575207
 30
0.0
 11
384.43291470742628
 21
-409.15674790894798
 31
0.0
  0
LINE
  8
NOTE
  6
CONTINUOUS
 62
     4
 10
384.43291470742628
 20
-409.15674790894798
 30
0.0
 11
770.32434327885494
 21
-409.15674790894798
 31
0.0
  0
TEXT
  8
NOTE
  6
CONTINUOUS
 62
     4
 10
401.23570481276971
 20
-356.03323802530917
 30
0.0
 40
64.0
  1
8-φ5×8
 41
0.9
  0
CIRCLE
  8
FIX
  6
CONTINUOUS
 62
    11
 10
209.02451936700231
 20
207.07419223541461
 30
0.0
 40
5.0
  0
LINE
  8
NOTE
  6
CONTINUOUS
 62
     4
 10
152.1258912564646
 20
199.3499966041297
 30
0.0
 11
192.12589125646451
 21
199.3499966041297
 31
0.0
  0
LINE
  8
NOTE
  6
CONTINUOUS
 62
     4
 10
172.12589125646471
 20
179.94999660412989
 30
0.0
 11
172.12589125646471
 21
219.94999660412989
 31
0.0
  0
LINE
  8
NOTE
  6
CONTINUOUS
 62
     4
 10
176.8501939332352
 20
203.38306782941959
 30
0.0
 11
172.12589125646491
 21
199.34999660412981
 31
0.0
  0
LINE
  8
NOTE
  6
CONTINUOUS
 62
     4
 10
172.12589125646491
 20
199.34999660412981
 30
0.0
 11
174.20071295407249
 21
205.20489320553409
 31
0.0
  0
LINE
  8
NOTE
  6
CONTINUOUS
 62
     4
 10
172.12589125646491
 20
199.34999660412981
 30
0.0
 11
178.92501563084281
 21
209.23796443082389
 31
0.0
  0
LINE
  8
NOTE
  6
CONTINUOUS
 62
     4
 10
178.92501563084281
 20
209.23796443082389
 30
0.0
 11
306.51011899706668
 21
394.78500369439382
 31
0.0
  0
LINE
  8
NOTE
  6
CONTINUOUS
 62
     4
 10
306.51011899706668
 20
394.78500369439382
 30
0.0
 11
428.53869042563838
 21
394.78500369439382
 31
0.0
  0
TEXT
  8
NOTE
  6
CONTINUOUS
 62
     4
 10
311.30967202917998
 20
420.42402436415381
 30
0.0
 40
64.0
  1
EL
 41
0.9
  0
LINE
  8
NOTE
  6
CONTINUOUS
 62
     4
 10
209.02451936700231
 20
197.42419223533011
 30
0.0
 11
209.02451936700231
 21
216.72419223549809
 31
0.0
  0
LINE
  8
SIZE
  6
CONTINUOUS
 62
    30
 10
-626.04958149490312
 20
324.58601247534148
 30
0.0
 11
-189.82871003375729
 21
164.01680911137711
 31
0.0
  0
LINE
  8
SIZE
  6
CONTINUOUS
 62
    30
 10
-32.170219766551782
 20
105.9840558848381
 30
0.0
 11
-20.908899033257061
 21
101.8388592258279
 31
0.0
  0
TEXT
  8
SIZE
  6
CONTINUOUS
 62
    30
 10
-607.33755433250803
 20
344.33813327814357
 30
0.0
 40
64.0
  1
φ144
 50
339.79176671631973
 41
0.9
 72
     1
 11
-503.86210439457801
 21
306.2496976913535
 31
0.0
  0
LINE
  8
SIZE
  6
CONTINUOUS
 62
    30
 10
-43.431540499846392
 20
110.1292525438482
 30
0.0
 11
-178.56738930046279
 21
159.87161245236709
 31
0.0
  0
CIRCLE
  8
SIZE
  6
CONTINUOUS
 62
    30
 10
-43.431540499846392
 20
110.1292525438482
 30
0.0
 40
6.0
  0
LINE
  8
SIZE
  6
CONTINUOUS
 62
    30
 10
-43.431540499846392
 20
110.1292525438482
 30
0.0
 11
-32.170219766551782
 21
105.9840558848381
 31
0.0
  0
CIRCLE
  8
SIZE
  6
CONTINUOUS
 62
    30
 10
-178.56738930046279
 20
159.87161245236709
 30
0.0
 40
6.0
  0
LINE
  8
SIZE
  6
CONTINUOUS
 62
    30
 10
-178.56738930046279
 20
159.87161245236709
 30
0.0
 11
-189.82871003375729
 21
164.01680911137711
 31
0.0
  0
POINT
  8
DEFPOINTS
  6
CONTINUOUS
 62
    30
 10
-178.56738930046279
 20
159.87161245236709
 30
0.0
  0
POINT
  8
DEFPOINTS
  6
CONTINUOUS
 62
    30
 10
-43.431540499846392
 20
110.1292525438482
 30
0.0
  0
LINE
  8
SIZE
  6
CONTINUOUS
 62
    30
 10
-468.17969003750568
 20
480.43235159573283
 30
0.0
 11
-174.25648381338419
 21
196.17681322072241
 31
0.0
  0
LINE
  8
SIZE
  6
CONTINUOUS
 62
    30
 10
-47.742445986924281
 20
73.824051775493331
 30
0.0
 11
-39.11648886245257
 21
65.481818040648932
 31
0.0
  0
TEXT
  8
SIZE
  6
CONTINUOUS
 62
    30
 10
-443.0818585961598
 20
490.93878265849088
 30
0.0
 40
64.0
  1
φ152
 50
315.95794761815841
 41
0.9
 72
     1
 11
-364.80745908952468
 21
415.23897025316052
 31
0.0
  0
LINE
  8
SIZE
  6
CONTINUOUS
 62
    30
 10
-56.368403111396113
 20
82.166285510337616
 30
0.0
 11
-165.63052668891251
 21
187.83457948587809
 31
0.0
  0
CIRCLE
  8
SIZE
  6
CONTINUOUS
 62
    30
 10
-56.368403111396113
 20
82.166285510337616
 30
0.0
 40
6.0
  0
LINE
  8
SIZE
  6
CONTINUOUS
 62
    30
 10
-56.368403111396113
 20
82.166285510337616
 30
0.0
 11
-47.742445986924281
 21
73.824051775493331
 31
0.0
  0
CIRCLE
  8
SIZE
  6
CONTINUOUS
 62
    30
 10
-165.63052668891251
 20
187.83457948587809
 30
0.0
 40
6.0
  0
LINE
  8
SIZE
  6
CONTINUOUS
 62
    30
 10
-165.63052668891251
 20
187.83457948587809
 30
0.0
 11
-174.25648381338419
 21
196.17681322072249
 31
0.0
  0
POINT
  8
DEFPOINTS
  6
CONTINUOUS
 62
    30
 10
-165.63052668891251
 20
187.83457948587809
 30
0.0
  0
POINT
  8
DEFPOINTS
  6
CONTINUOUS
 62
    30
 10
-56.368403111396113
 20
82.166285510337616
 30
0.0
  0
TEXT
  8
NOTE
  6
CONTINUOUS
 62
     4
 10
-150.92347793924671
 20
107.60357243680861
 30
0.0
 40
64.0
  1
EA
 41
0.9
  0
LINE
  8
NOTE
  6
CONTINUOUS
 62
     4
 10
215.0595080135555
 20
208.5451141660366
 30
0.0
 11
209.02451936700319
 21
207.0741922354149
 31
0.0
  0
LINE
  8
NOTE
  6
CONTINUOUS
 62
     4
 10
209.02451936700319
 20
207.0741922354149
 30
0.0
 11
213.51550541432911
 21
211.36554908526131
 31
0.0
  0
LINE
  8
NOTE
  6
CONTINUOUS
 62
     4
 10
209.02451936700319
 20
207.0741922354149
 30
0.0
 11
219.55049406088139
 21
212.83647101588281
 31
0.0
  0
LINE
  8
NOTE
  6
CONTINUOUS
 62
     4
 10
219.55049406088139
 20
212.83647101588281
 30
0.0
 11
306.96333880570683
 21
260.80387217879138
 31
0.0
  0
LINE
  8
NOTE
  6
CONTINUOUS
 62
     4
 10
306.96333880570683
 20
260.80387217879138
 30
0.0
 11
540.35191023427797
 21
260.80387217879138
 31
0.0
  0
TEXT
  8
NOTE
  6
CONTINUOUS
 62
     4
 10
320.41832108135031
 20
284.30801860865699
 30
0.0
 40
64.0
  1
AH 4
 41
0.9
  0
LINE
  8
DETAIL
  6
CONTINUOUS
 62
     5
 10
-223.72619300711651
 20
205.8740527654052
 30
0.0
 11
-204.49947551055629
 21
205.8740527654052
 31
0.0
  0
LINE
  8
DETAIL
  6
CONTINUOUS
 62
     5
 10
-223.72619300711651
 20
207.0741922354147
 30
0.0
 11
-204.49947551055629
 21
207.0741922354147
 31
0.0
  0
LINE
  8
DETAIL
  6
CONTINUOUS
 62
     5
 10
-223.72619300711651
 20
207.0741922354147
 30
0.0
 11
-223.72619300711651
 21
205.8740527654052
 31
0.0
  0
LINE
  8
DETAIL
  6
CONTINUOUS
 62
     5
 10
-196.22282248188569
 20
18.15210948389381
 30
0.0
 11
-196.22282248188569
 21
10.95127266383656
 31
0.0
  0
LINE
  8
DETAIL
  6
CONTINUOUS
 62
     5
 10
-196.22282248188569
 20
33.153852859013803
 30
0.0
 11
-196.22282248188569
 21
25.953016038956999
 31
0.0
  0
LINE
  8
DETAIL
  6
CONTINUOUS
 62
     5
 10
-217.22543754456569
 20
207.0741922354147
 30
0.0
 11
-217.22543754456569
 21
209.8745176654368
 31
0.0
  0
LINE
  8
DETAIL
  6
CONTINUOUS
 62
     5
 10
-219.2256699945822
 20
212.87486634046141
 30
0.0
 11
-204.49947551055621
 21
212.9004324987375
 31
0.0
  0
LINE
  8
DETAIL
  6
CONTINUOUS
 62
     5
 10
-219.2256699945822
 20
212.87486634046141
 30
0.0
 11
-219.2256699945822
 21
209.8745176654368
 31
0.0
  0
LINE
  8
DETAIL
  6
CONTINUOUS
 62
     5
 10
-219.2256699945822
 20
209.8745176654368
 30
0.0
 11
-204.49947551055629
 21
209.8745176654368
 31
0.0
  0
ARC
  8
DETAIL
  6
CONTINUOUS
 62
     5
 10
-218.72561188207669
 20
199.87335541535751
 30
0.0
 40
2.0002324500159889
 50
180.0
 51
270.0
  0
LINE
  8
DETAIL
  6
CONTINUOUS
 62
     5
 10
-204.49947551055629
 20
197.87312296534139
 30
0.0
 11
-218.72561188207669
 21
197.87312296534151
 31
0.0
  0
LINE
  8
DETAIL
  6
CONTINUOUS
 62
     5
 10
-220.7258443320944
 20
205.8740527654052
 30
0.0
 11
-220.7258443320944
 21
199.87335541535751
 31
0.0
  0
ARC
  8
DETAIL
  6
CONTINUOUS
 62
     5
 10
-196.22282248188569
 20
33.953945839020662
 30
0.0
 40
0.8000929800066288
 50
270.0
 51
0.0
  0
ARC
  8
DETAIL
  6
CONTINUOUS
 62
     5
 10
-196.22282248188569
 20
25.15292305895014
 30
0.0
 40
0.8000929800061247
 50
0.0
 51
90.0
  0
ARC
  8
DETAIL
  6
CONTINUOUS
 62
     5
 10
-196.22282248188569
 20
18.952202463900679
 30
0.0
 40
0.8000929800065447
 50
270.0
 51
0.0
  0
ARC
  8
DETAIL
  6
CONTINUOUS
 62
     5
 10
-196.22282248188569
 20
10.151179683830151
 30
0.0
 40
0.8000929800061247
 50
0.0
 51
90.0
  0
LINE
  8
DETAIL
  6
CONTINUOUS
 62
     5
 10
-195.4227295018807
 20
7.5508774988090863
 30
0.0
 11
-193.02245056185919
 21
7.5508774988090863
 31
0.0
  0
LINE
  8
DETAIL
  6
CONTINUOUS
 62
     5
 10
-194.2225900318692
 20
36.554248024040817
 30
0.0
 11
-193.02245056185919
 21
35.554131799033478
 31
0.0
  0
LINE
  8
DETAIL
  6
CONTINUOUS
 62
     5
 10
194.22259003186841
 20
200.77333217035519
 30
0.0
 11
194.22259003186841
 21
7.5508774988090863
 31
0.0
  0
ARC
  8
DETAIL
  6
CONTINUOUS
 62
     5
 10
188.8219624168255
 20
199.573192700346
 30
0.0
 40
1.0001162250079529
 50
90.0
 51
180.0
  0
ARC
  8
DETAIL
  6
CONTINUOUS
 62
     5
 10
193.22247380686301
 20
202.77356462037159
 30
0.0
 40
1.0001162250080371
 50
270.0
 51
0.0
  0
ARC
  8
DETAIL
  6
CONTINUOUS
 62
     5
 10
196.42284572688601
 20
204.87393654039681
 30
0.0
 40
1.0001162250079529
 50
90.0
 51
180.0
  0
LINE
  8
DETAIL
  6
CONTINUOUS
 62
     5
 10
195.42272950188041
 20
179.07081008768159
 30
0.0
 11
194.22259003186841
 21
179.07081008768159
 31
0.0
  0
LINE
  8
DETAIL
  6
CONTINUOUS
 62
     5
 10
193.22247380686301
 20
200.5733089253533
 30
0.0
 11
188.8219624168255
 21
200.5733089253533
 31
0.0
  0
LINE
  8
DETAIL
  6
CONTINUOUS
 62
     5
 10
193.22247380686301
 20
201.7734483953634
 30
0.0
 11
188.8219624168255
 21
201.7734483953634
 31
0.0
  0
LINE
  8
DETAIL
  6
CONTINUOUS
 62
     5
 10
195.42272950188041
 20
204.87393654039681
 30
0.0
 11
195.42272950188041
 21
7.5508774988090863
 31
0.0
  0
LINE
  8
DETAIL
  6
CONTINUOUS
 62
     5
 10
194.22259003186841
 20
204.87393654039681
 30
0.0
 11
194.22259003186841
 21
202.77356462037159
 31
0.0
  0
LINE
  8
DETAIL
  6
CONTINUOUS
 62
     5
 10
223.4261930071186
 20
205.8740527654052
 30
0.0
 11
196.42284572688601
 21
205.8740527654052
 31
0.0
  0
LINE
  8
DETAIL
  6
CONTINUOUS
 62
     5
 10
223.4261930071186
 20
207.0741922354147
 30
0.0
 11
196.42284572688601
 21
207.0741922354147
 31
0.0
  0
LINE
  8
DETAIL
  6
CONTINUOUS
 62
     5
 10
223.4261930071186
 20
207.0741922354147
 30
0.0
 11
223.4261930071186
 21
205.8740527654052
 31
0.0
  0
LINE
  8
DETAIL
  6
CONTINUOUS
 62
     5
 10
196.222822481885
 20
18.15210948389381
 30
0.0
 11
196.222822481885
 21
10.95127266383656
 31
0.0
  0
LINE
  8
DETAIL
  6
CONTINUOUS
 62
     5
 10
196.222822481885
 20
33.153852859013803
 30
0.0
 11
196.222822481885
 21
25.953016038956999
 31
0.0
  0
LINE
  8
DETAIL
  6
CONTINUOUS
 62
     5
 10
199.9234617194285
 20
209.8745176654368
 30
0.0
 11
199.9234617194285
 21
212.87486634046141
 31
0.0
  0
LINE
  8
DETAIL
  6
CONTINUOUS
 62
     5
 10
201.9236941694451
 20
207.0741922354147
 30
0.0
 11
201.9236941694451
 21
209.8745176654368
 31
0.0
  0
LINE
  8
DETAIL
  6
CONTINUOUS
 62
     5
 10
216.92543754456679
 20
207.0741922354147
 30
0.0
 11
216.92543754456679
 21
209.8745176654368
 31
0.0
  0
LINE
  8
DETAIL
  6
CONTINUOUS
 62
     5
 10
218.92566999458151
 20
212.87486634046141
 30
0.0
 11
199.9234617194285
 21
212.87486634046141
 31
0.0
  0
LINE
  8
DETAIL
  6
CONTINUOUS
 62
     5
 10
218.92566999458151
 20
212.87486634046141
 30
0.0
 11
218.92566999458151
 21
209.8745176654368
 31
0.0
  0
LINE
  8
DETAIL
  6
CONTINUOUS
 62
     5
 10
218.92566999458151
 20
209.8745176654368
 30
0.0
 11
199.9234617194285
 21
209.8745176654368
 31
0.0
  0
ARC
  8
DETAIL
  6
CONTINUOUS
 62
     5
 10
218.4256118820783
 20
199.87335541535751
 30
0.0
 40
2.0002324500159889
 50
270.0
 51
0.0
  0
ARC
  8
DETAIL
  6
CONTINUOUS
 62
     5
 10
200.42351983193271
 20
199.87335541535751
 30
0.0
 40
2.0002324500160138
 50
180.0
 51
270.0
  0
LINE
  8
DETAIL
  6
CONTINUOUS
 62
     5
 10
198.42328738191799
 20
205.8740527654052
 30
0.0
 11
198.42328738191671
 21
199.87335541535751
 31
0.0
  0
LINE
  8
DETAIL
  6
CONTINUOUS
 62
     5
 10
220.42584433209481
 20
205.8740527654052
 30
0.0
 11
220.42584433209441
 21
199.87335541535751
 31
0.0
  0
ARC
  8
DETAIL
  6
CONTINUOUS
 62
     5
 10
188.8219624168255
 20
199.573192700346
 30
0.0
 40
2.200255695017387
 50
90.0
 51
180.0
  0
ARC
  8
DETAIL
  6
CONTINUOUS
 62
     5
 10
193.22247380686301
 20
202.77356462037159
 30
0.0
 40
2.2002556950174701
 50
270.0
 51
0.0
  0
ARC
  8
DETAIL
  6
CONTINUOUS
 62
     5
 10
196.42284572688601
 20
204.87393654039681
 30
0.0
 40
2.200255695017387
 50
90.0
 51
180.0
  0
ARC
  8
DETAIL
  6
CONTINUOUS
 62
     5
 10
196.222822481885
 20
33.953945839020662
 30
0.0
 40
0.8000929800061487
 50
180.0
 51
270.0
  0
ARC
  8
DETAIL
  6
CONTINUOUS
 62
     5
 10
196.222822481885
 20
25.15292305895014
 30
0.0
 40
0.8000929800065447
 50
90.0
 51
180.0
  0
ARC
  8
DETAIL
  6
CONTINUOUS
 62
     5
 10
196.222822481885
 20
18.952202463900679
 30
0.0
 40
0.8000929800061487
 50
180.0
 51
270.0
  0
ARC
  8
DETAIL
  6
CONTINUOUS
 62
     5
 10
196.222822481885
 20
10.151179683830151
 30
0.0
 40
0.8000929800065447
 50
90.0
 51
180.0
  0
LINE
  8
DETAIL
  6
CONTINUOUS
 62
     5
 10
195.42272950188041
 20
7.5508774988090863
 30
0.0
 11
193.02245056186121
 21
7.5508774988090863
 31
0.0
  0
LINE
  8
DETAIL
  6
CONTINUOUS
 62
     5
 10
194.22259003186841
 20
36.554248024040817
 30
0.0
 11
193.02245056186121
 21
35.554131799033478
 31
0.0
  0
LINE
  8
DETAIL
  6
CONTINUOUS
 62
     5
 10
193.02245056186121
 20
169.06964783760239
 30
0.0
 11
194.22259003186841
 21
170.06976406260969
 31
0.0
  0
LINE
  8
DETAIL
  6
CONTINUOUS
 62
     5
 10
193.02245056186121
 20
159.06848558752219
 30
0.0
 11
194.22259003186841
 21
158.0683693625131
 31
0.0
  0
LINE
  8
DETAIL
  6
CONTINUOUS
 62
     5
 10
200.42351983193109
 20
197.87312296534139
 30
0.0
 11
218.42561188207489
 21
197.87312296534139
 31
0.0
  0
LINE
  8
DETAIL
  6
CONTINUOUS
 62
     5
 10
-195.4227295018807
 20
50.939740488593657
 30
0.0
 11
-195.4227295018807
 21
7.5508774988090863
 31
0.0
  0
LINE
  8
DETAIL
  6
CONTINUOUS
 62
     5
 10
-194.2225900318692
 20
50.008078273881097
 30
0.0
 11
-194.2225900318692
 21
7.5508774988090863
 31
0.0
  0
CIRCLE
  8
FIX
  6
CONTINUOUS
 62
    11
 10
-209.32451936700409
 20
207.07419223541461
 30
0.0
 40
5.0
  0
LINE
  8
NOTE
  6
CONTINUOUS
 62
     4
 10
-209.324519367005
 20
196.8741922353307
 30
0.0
 11
-209.324519367005
 21
217.2741922354987
 31
0.0
  0
LINE
  8
SIZE
  6
CONTINUOUS
 62
    30
 10
-185.99961897862269
 20
53.999837404694063
 30
0.0
 11
-446.14202446852141
 21
53.999837404694183
 31
0.0
  0
LINE
  8
SIZE
  6
CONTINUOUS
 62
    30
 10
-278.69554884278301
 20
0.0
 30
0.0
 11
-446.14202446852141
 21
0.0
 31
0.0
  0
LINE
  8
SIZE
  6
CONTINUOUS
 62
    30
 10
-426.14202446852141
 20
65.999837404694176
 30
0.0
 11
-426.14202446852141
 21
77.999837404694176
 31
0.0
  0
LINE
  8
SIZE
  6
CONTINUOUS
 62
    30
 10
-426.14202446852141
 20
-12.0
 30
0.0
 11
-426.14202446852153
 21
-170.0
 31
0.0
  0
LINE
  8
SIZE
  6
CONTINUOUS
 62
    30
 10
-426.14202446852141
 20
53.999837404694183
 30
0.0
 11
-426.14202446852141
 21
0.0
 31
0.0
  0
CIRCLE
  8
SIZE
  6
CONTINUOUS
 62
    30
 10
-426.14202446852141
 20
53.999837404694183
 30
0.0
 40
6.0
  0
LINE
  8
SIZE
  6
CONTINUOUS
 62
    30
 10
-426.14202446852141
 20
53.999837404694183
 30
0.0
 11
-426.14202446852141
 21
65.999837404694176
 31
0.0
  0
CIRCLE
  8
SIZE
  6
CONTINUOUS
 62
    30
 10
-426.14202446852141
 20
0.0
 30
0.0
 40
6.0
  0
LINE
  8
SIZE
  6
CONTINUOUS
 62
    30
 10
-426.14202446852141
 20
0.0
 30
0.0
 11
-426.14202446852141
 21
-12.0
 31
0.0
  0
TEXT
  8
SIZE
  6
CONTINUOUS
 62
    30
 10
-451.14202446852141
 20
-145.0
 30
0.0
 40
64.0
  1
54
 50
90.0
 41
0.9
 72
     1
 11
-451.14202446852141
 21
-97.0
 31
0.0
  0
POINT
  8
DEFPOINTS
  6
CONTINUOUS
 62
    30
 10
-165.99961897862269
 20
53.999837404694063
 30
0.0
  0
POINT
  8
DEFPOINTS
  6
CONTINUOUS
 62
    30
 10
-258.69554884278301
 20
0.0
 30
0.0
  0
POINT
  8
DEFPOINTS
  6
CONTINUOUS
 62
    30
 10
-426.14202446852141
 20
0.0
 30
0.0
  0
LINE
  8
SIZE
  6
CONTINUOUS
 62
    30
 10
-209.324519367005
 20
237.2741922354987
 30
0.0
 11
-209.324519367005
 21
864.36711315059119
 31
0.0
  0
LINE
  8
SIZE
  6
CONTINUOUS
 62
    30
 10
209.02451936700231
 20
237.67419223549459
 30
0.0
 11
209.02451936700231
 21
864.36711315059119
 31
0.0
  0
LINE
  8
SIZE
  6
CONTINUOUS
 62
    30
 10
-197.324519367005
 20
844.36711315059119
 30
0.0
 11
197.02451936700231
 21
844.36711315059119
 31
0.0
  0
CIRCLE
  8
SIZE
  6
CONTINUOUS
 62
    30
 10
-209.324519367005
 20
844.36711315059119
 30
0.0
 40
6.0
  0
LINE
  8
SIZE
  6
CONTINUOUS
 62
    30
 10
-209.324519367005
 20
844.36711315059119
 30
0.0
 11
-197.324519367005
 21
844.36711315059119
 31
0.0
  0
CIRCLE
  8
SIZE
  6
CONTINUOUS
 62
    30
 10
209.02451936700231
 20
844.36711315059119
 30
0.0
 40
6.0
  0
LINE
  8
SIZE
  6
CONTINUOUS
 62
    30
 10
209.02451936700231
 20
844.36711315059119
 30
0.0
 11
197.02451936700231
 21
844.36711315059119
 31
0.0
  0
TEXT
  8
SIZE
  6
CONTINUOUS
 62
    30
 10
-68.721428571429897
 20
869.36711315059119
 30
0.0
 40
64.0
  1
418
 41
0.9
 72
     1
 11
-0.1500000000013415
 21
869.36711315059119
 31
0.0
  0
POINT
  8
DEFPOINTS
  6
CONTINUOUS
 62
    30
 10
-209.324519367005
 20
217.2741922354987
 30
0.0
  0
POINT
  8
DEFPOINTS
  6
CONTINUOUS
 62
    30
 10
209.02451936700231
 20
217.67419223549459
 30
0.0
  0
POINT
  8
DEFPOINTS
  6
CONTINUOUS
 62
    30
 10
209.02451936700231
 20
844.36711315059119
 30
0.0
  0
ENDSEC
  0
EOF
