  0
SECTION
  2
HEADER
  9
$ACADVER
  1
AC1009
  9
$DWGCODEPAGE
  3
ansi_932
  9
$INSBASE
 10
0.0
 20
0.0
 30
0.0
  9
$EXTMIN
 10
-809.4177011044449
 20
-683.4045245235393
 30
-0.0015258207003583
  9
$EXTMAX
 10
1420.166031946621
 20
974.8031731285173
 30
0.0000000349246037
  9
$LIMMIN
 10
-4200.0
 20
-2970.0
  9
$LIMMAX
 10
4200.0
 20
2970.0
  9
$ORTHOMODE
 70
     1
  9
$REGENMODE
 70
     0
  9
$FILLMODE
 70
     1
  9
$QTEXTMODE
 70
     0
  9
$MIRRTEXT
 70
     0
  9
$DRAGMODE
 70
     2
  9
$LTSCALE
 40
20.0
  9
$OSMODE
 70
    37
  9
$ATTMODE
 70
     1
  9
$TEXTSIZE
 40
64.0
  9
$TRACEWID
 40
0.05
  9
$TEXTSTYLE
  7
STANDARD
  9
$CLAYER
  8
ETC
  9
$CELTYPE
  6
CONTINUOUS
  9
$CECOLOR
 62
     8
  9
$DIMSCALE
 40
1.0
  9
$DIMASZ
 40
2.0
  9
$DIMEXO
 40
20.0
  9
$DIMDLI
 40
200.0
  9
$DIMRND
 40
0.0
  9
$DIMDLE
 40
0.0
  9
$DIMEXE
 40
30.0
  9
$DIMTP
 40
0.0
  9
$DIMTM
 40
0.0
  9
$DIMTXT
 40
64.0
  9
$DIMCEN
 40
0.09
  9
$DIMTSZ
 40
0.0
  9
$DIMTOL
 70
     0
  9
$DIMLIM
 70
     0
  9
$DIMTIH
 70
     0
  9
$DIMTOH
 70
     0
  9
$DIMSE1
 70
     0
  9
$DIMSE2
 70
     0
  9
$DIMTAD
 70
     1
  9
$DIMZIN
 70
     8
  9
$DIMBLK
  1

  9
$DIMASO
 70
     1
  9
$DIMSHO
 70
     0
  9
$DIMPOST
  1

  9
$DIMAPOST
  1

  9
$DIMALT
 70
     0
  9
$DIMALTD
 70
     2
  9
$DIMALTF
 40
25.4
  9
$DIMLFAC
 40
1.0
  9
$DIMTOFL
 70
     1
  9
$DIMTVP
 40
0.0
  9
$DIMTIX
 70
     1
  9
$DIMSOXD
 70
     0
  9
$DIMSAH
 70
     0
  9
$DIMBLK1
  1

  9
$DIMBLK2
  1

  9
$DIMSTYLE
  2
STANDARD
  9
$DIMCLRD
 70
     0
  9
$DIMCLRE
 70
     0
  9
$DIMCLRT
 70
     0
  9
$DIMTFAC
 40
1.0
  9
$DIMGAP
 40
0.09
  9
$LUNITS
 70
     2
  9
$LUPREC
 70
     4
  9
$SKETCHINC
 40
0.1
  9
$FILLETRAD
 40
5.7
  9
$AUNITS
 70
     1
  9
$AUPREC
 70
     3
  9
$MENU
  1
ACAD
  9
$ELEVATION
 40
0.0
  9
$PELEVATION
 40
0.0
  9
$THICKNESS
 40
0.0
  9
$LIMCHECK
 70
     1
  9
$CHAMFERA
 40
0.0
  9
$CHAMFERB
 40
0.0
  9
$SKPOLY
 70
     0
  9
$TDCREATE
 40
2451996.666018519
  9
$TDUPDATE
 40
2457485.598307581
  9
$TDINDWG
 40
0.0112252315
  9
$TDUSRTIMER
 40
0.0112243171
  9
$USRTIMER
 70
     1
  9
$ANGBASE
 50
0.0
  9
$ANGDIR
 70
     0
  9
$PDMODE
 70
     3
  9
$PDSIZE
 40
-2.0
  9
$PLINEWID
 40
0.0
  9
$COORDS
 70
     1
  9
$SPLFRAME
 70
     0
  9
$SPLINETYPE
 70
     6
  9
$SPLINESEGS
 70
     8
  9
$ATTDIA
 70
     0
  9
$ATTREQ
 70
     1
  9
$HANDLING
 70
     1
  9
$HANDSEED
  5
4E8
  9
$SURFTAB1
 70
     6
  9
$SURFTAB2
 70
     6
  9
$SURFTYPE
 70
     6
  9
$SURFU
 70
     6
  9
$SURFV
 70
     6
  9
$UCSNAME
  2

  9
$UCSORG
 10
0.0
 20
0.0
 30
0.0
  9
$UCSXDIR
 10
1.0
 20
0.0
 30
0.0
  9
$UCSYDIR
 10
0.0
 20
1.0
 30
0.0
  9
$PUCSNAME
  2

  9
$PUCSORG
 10
0.0
 20
0.0
 30
0.0
  9
$PUCSXDIR
 10
1.0
 20
0.0
 30
0.0
  9
$PUCSYDIR
 10
0.0
 20
1.0
 30
0.0
  9
$USERI1
 70
     0
  9
$USERI2
 70
     0
  9
$USERI3
 70
     0
  9
$USERI4
 70
     0
  9
$USERI5
 70
     0
  9
$USERR1
 40
20.0
  9
$USERR2
 40
0.0
  9
$USERR3
 40
0.0
  9
$USERR4
 40
0.0
  9
$USERR5
 40
0.0
  9
$WORLDVIEW
 70
     1
  9
$SHADEDGE
 70
     3
  9
$SHADEDIF
 70
    70
  9
$TILEMODE
 70
     1
  9
$MAXACTVP
 70
    64
  9
$PLIMCHECK
 70
     0
  9
$PEXTMIN
 10
1.000000000000000E+20
 20
1.000000000000000E+20
 30
1.000000000000000E+20
  9
$PEXTMAX
 10
-1.000000000000000E+20
 20
-1.000000000000000E+20
 30
-1.000000000000000E+20
  9
$PLIMMIN
 10
0.0
 20
0.0
  9
$PLIMMAX
 10
12.0
 20
9.0
  9
$UNITMODE
 70
     0
  9
$VISRETAIN
 70
     1
  9
$PLINEGEN
 70
     0
  9
$PSLTSCALE
 70
     1
  0
ENDSEC
  0
SECTION
  2
TABLES
  0
TABLE
  2
VPORT
 70
     1
  0
VPORT
  2
*ACTIVE
 70
     0
 10
0.0
 20
0.0
 11
1.0
 21
1.0
 12
316.4673407191558
 22
75.45191738466076
 13
0.0
 23
0.0
 14
400.0
 24
400.0
 15
400.0
 25
400.0
 16
0.0
 26
0.0
 36
1.0
 17
0.0
 27
0.0
 37
0.0
 40
1873.557691754086
 41
1.751733703190013
 42
50.0
 43
0.0
 44
0.0
 50
0.0
 51
0.0
 71
     0
 72
   500
 73
     1
 74
     0
 75
     0
 76
     0
 77
     0
 78
     1
  0
ENDTAB
  0
TABLE
  2
LTYPE
 70
     7
  0
LTYPE
  2
CONTINUOUS
 70
     0
  3
実線
 72
    65
 73
     0
 40
0.0
  0
LTYPE
  2
DOT
 70
     0
  3
...............................................
 72
    65
 73
     2
 40
0.8
 49
0.5
 49
-0.3
  0
LTYPE
  2
DASHED
 70
     0
  3
_ _ _ _ _ _ _ _ _ _ _ _ _ _ _ _ _ _ _ _ _ _ _
 72
    65
 73
     2
 40
1.999999999999999
 49
1.199999999999999
 49
-0.8
  0
LTYPE
  2
DASHDOT
 70
     0
  3
____ _ ____ _ ____ _ ____ _ ____ _ ____ _ ____
 72
    65
 73
     4
 40
5.5
 49
4.0
 49
-0.6
 49
0.3
 49
-0.6
  0
LTYPE
  2
DASHDOT1
 70
     0
  3
____ _ ____ _ ____ _ ____ _ ____ _ ____ _ ____
 72
    65
 73
     4
 40
2.0
 49
1.5
 49
-0.2
 49
0.1
 49
-0.2
  0
LTYPE
  2
DIVIDE
 70
     0
  3
_____ _ _ _____ _ _ _____ _ _ _____ _ _ ____
 72
    65
 73
     6
 40
6.4
 49
4.0
 49
-0.6
 49
0.3
 49
-0.6
 49
0.3
 49
-0.6
  0
LTYPE
  2
DIVIDE1
 70
     0
  3
_____ _ _ _____ _ _ _____ _ _ _____ _ _ ____
 72
    65
 73
     6
 40
3.2
 49
2.0
 49
-0.3
 49
0.15
 49
-0.3
 49
0.15
 49
-0.3
  0
ENDTAB
  0
TABLE
  2
LAYER
 70
    12
  0
LAYER
  2
0
 70
     0
 62
     7
  6
CONTINUOUS
  0
LAYER
  2
OUTLINE
 70
     0
 62
     3
  6
CONTINUOUS
  0
LAYER
  2
DETAIL
 70
     0
 62
     5
  6
CONTINUOUS
  0
LAYER
  2
BASIS
 70
     0
 62
     6
  6
DASHDOT
  0
LAYER
  2
SIZE
 70
     0
 62
    30
  6
CONTINUOUS
  0
LAYER
  2
NOTE
 70
     0
 62
     4
  6
CONTINUOUS
  0
LAYER
  2
ARRANGE
 70
     0
 62
     1
  6
CONTINUOUS
  0
LAYER
  2
FIX
 70
     0
 62
    11
  6
CONTINUOUS
  0
LAYER
  2
ETC
 70
     0
 62
    61
  6
CONTINUOUS
  0
LAYER
  2
DEFPOINTS
 70
     0
 62
     7
  6
CONTINUOUS
  0
LAYER
  2
SERVICESPACE
 70
     0
 62
     2
  6
DASHDOT
  0
LAYER
  2
SYMBOLLINE
 70
     0
 62
    15
  6
CONTINUOUS
  0
ENDTAB
  0
TABLE
  2
STYLE
 70
     2
  0
STYLE
  2
STANDARD
 70
     0
 40
0.0
 41
0.9
 50
0.0
 71
     0
 42
64.0
  3
SIMPLEX
  4
BIGFONT
  0
STYLE
  2
ANNOTATIVE
 70
     0
 40
0.0
 41
1.0
 50
0.0
 71
     0
 42
0.2
  3
txt
  4

  0
ENDTAB
  0
TABLE
  2
VIEW
 70
     1
  0
VIEW
  2
ALL
 70
     0
 40
6374.978981
 10
0.0
 20
58.11501599999999
 41
8842.105262999998
 11
0.0
 21
0.0
 31
1.0
 12
0.0
 22
0.0
 32
0.0
 42
50.0
 43
0.0
 44
0.0
 50
0.0
 71
     0
  0
ENDTAB
  0
TABLE
  2
UCS
 70
     0
  0
ENDTAB
  0
TABLE
  2
APPID
 70
     4
  0
APPID
  2
ACAD
 70
     0
  0
APPID
  2
ACADANNOTATIVE
 70
     0
  0
APPID
  2
ACAD_MLEADERVER
 70
     0
  0
APPID
  2
ACAD_EXEMPT_FROM_CAD_STAND
 70
     0
  0
ENDTAB
  0
TABLE
  2
DIMSTYLE
 70
     2
  0
DIMSTYLE
  2
STANDARD
 70
     0
  3

  4

  5

  6

  7

 40
1.0
 41
0.18
 42
0.0625
 43
0.38
 44
0.18
 45
0.0
 46
0.0
 47
0.0
 48
0.0
140
0.18
141
0.09
142
0.0
143
25.4
144
1.0
145
0.0
146
1.0
147
0.09
 71
     0
 72
     0
 73
     1
 74
     1
 75
     0
 76
     0
 77
     0
 78
     0
170
     0
171
     2
172
     0
173
     0
174
     0
175
     0
176
     0
177
     0
178
     0
  0
DIMSTYLE
  2
ANNOTATIVE
 70
     0
  3

  4

  5

  6

  7

 40
1.0
 41
0.18
 42
0.0625
 43
0.38
 44
0.18
 45
0.0
 46
0.0
 47
0.0
 48
0.0
140
0.18
141
0.09
142
0.0
143
25.4
144
1.0
145
0.0
146
1.0
147
0.09
 71
     0
 72
     0
 73
     1
 74
     1
 75
     0
 76
     0
 77
     0
 78
     0
170
     0
171
     2
172
     0
173
     0
174
     0
175
     0
176
     0
177
     0
178
     0
  0
ENDTAB
  0
ENDSEC
  0
SECTION
  2
BLOCKS
  0
BLOCK
  8
0
  2
$MODEL_SPACE
 70
     0
 10
0.0
 20
0.0
 30
0.0
  3
$MODEL_SPACE
  1

  0
ENDBLK
  5
409
  8
0
  0
BLOCK
 67
     1
  8
0
  2
$PAPER_SPACE
 70
     0
 10
0.0
 20
0.0
 30
0.0
  3
$PAPER_SPACE
  1

  0
ENDBLK
  5
405
 67
     1
  8
0
  0
ENDSEC
  0
SECTION
  2
ENTITIES
  0
LINE
  5
22B
  8
BASIS
  6
DASHDOT
 62
     6
 10
175.951367
 20
135.0
 30
0.0
 11
445.1589090000001
 21
135.0
 31
0.0
  0
ARC
  5
22C
  8
DETAIL
  6
CONTINUOUS
 62
     5
 10
209.8759939999998
 20
195.294623
 30
0.0
 40
134.829251
 50
271.2985759999999
 51
275.983794
  0
ARC
  5
22D
  8
DETAIL
  6
CONTINUOUS
 62
     5
 10
209.8759939999998
 20
74.705377
 30
0.0
 40
134.829251
 50
84.01620600000003
 51
88.70142400000002
  0
LINE
  5
22E
  8
DETAIL
  6
CONTINUOUS
 62
     5
 10
196.431561
 20
224.6666649999999
 30
0.0
 11
196.431561
 21
134.6666649999999
 31
0.0
  0
LINE
  5
22F
  8
DETAIL
  6
CONTINUOUS
 62
     5
 10
199.731561
 20
224.6666649999999
 30
0.0
 11
196.431561
 21
224.6666649999999
 31
0.0
  0
LINE
  5
230
  8
DETAIL
  6
CONTINUOUS
 62
     5
 10
199.731561
 20
224.6666649999999
 30
0.0
 11
199.731561
 21
134.6666649999999
 31
0.0
  0
LINE
  5
231
  8
DETAIL
  6
CONTINUOUS
 62
     5
 10
212.931561
 20
209.5
 30
0.0
 11
203.931561
 21
209.5
 31
0.0
  0
ARC
  5
232
  8
DETAIL
  6
CONTINUOUS
 62
     5
 10
203.931561
 20
213.7
 30
0.0
 40
4.2
 50
180.0
 51
270.0
  0
LINE
  5
233
  8
DETAIL
  6
CONTINUOUS
 62
     5
 10
223.931561
 20
208.8
 30
0.0
 11
223.931561
 21
135.0
 31
0.0
  0
ARC
  5
234
  8
DETAIL
  6
CONTINUOUS
 62
     5
 10
203.931561
 20
56.29999999999999
 30
0.0
 40
4.2
 50
90.0
 51
180.0
  0
LINE
  5
235
  8
DETAIL
  6
CONTINUOUS
 62
     5
 10
199.731561
 20
44.666665
 30
0.0
 11
199.731561
 21
134.6666649999999
 31
0.0
  0
LINE
  5
236
  8
DETAIL
  6
CONTINUOUS
 62
     5
 10
223.931561
 20
61.2
 30
0.0
 11
223.931561
 21
135.0
 31
0.0
  0
LINE
  5
237
  8
DETAIL
  6
CONTINUOUS
 62
     5
 10
212.931561
 20
60.5
 30
0.0
 11
203.931561
 21
60.5
 31
0.0
  0
LINE
  5
238
  8
DETAIL
  6
CONTINUOUS
 62
     5
 10
199.731561
 20
44.666665
 30
0.0
 11
196.431561
 21
44.666665
 31
0.0
  0
LINE
  5
239
  8
DETAIL
  6
CONTINUOUS
 62
     5
 10
192.931561
 20
200.0
 30
0.0
 11
192.931561
 21
226.6666649999999
 31
0.0
  0
LINE
  5
23A
  8
DETAIL
  6
CONTINUOUS
 62
     5
 10
196.431561
 20
0.0
 30
0.0
 11
196.431561
 21
226.6666649999999
 31
0.0
  0
LINE
  5
23B
  8
DETAIL
  6
CONTINUOUS
 62
     5
 10
196.431561
 20
226.6666649999999
 30
0.0
 11
192.931561
 21
226.6666649999999
 31
0.0
  0
LINE
  5
23C
  8
DETAIL
  6
CONTINUOUS
 62
     5
 10
192.931561
 20
50.166665
 30
0.0
 11
192.931561
 21
200.1666649999999
 31
0.0
  0
LINE
  5
23D
  8
DETAIL
  6
CONTINUOUS
 62
     5
 10
416.931561
 20
208.0
 30
0.0
 11
416.931561
 21
62.0
 31
0.0
  0
LINE
  5
23E
  8
DETAIL
  6
CONTINUOUS
 62
     5
 10
-0.0684389999999837
 20
-37.0
 30
0.0
 11
222.5684389999999
 21
-37.0
 31
0.0
  0
LINE
  5
23F
  8
DETAIL
  6
CONTINUOUS
 62
     5
 10
-0.0684389999999837
 20
-55.0
 30
0.0
 11
214.1337409999999
 21
-55.0
 31
0.0
  0
LINE
  5
240
  8
DETAIL
  6
CONTINUOUS
 62
     5
 10
222.5684389999999
 20
-37.0
 30
0.0
 11
222.5684389999999
 21
-39.0
 31
0.0
  0
LINE
  5
241
  8
DETAIL
  6
CONTINUOUS
 62
     5
 10
222.5684389999999
 20
-37.0
 30
0.0
 11
222.5684389999999
 21
-38.73796099999999
 31
0.0
  0
LINE
  5
242
  8
DETAIL
  6
CONTINUOUS
 62
     5
 10
221.5926549999999
 20
-48.283963
 30
0.0
 11
222.5684389999999
 21
-39.0
 31
0.0
  0
ARC
  5
243
  8
DETAIL
  6
CONTINUOUS
 62
     5
 10
214.1337409999999
 20
-47.5
 30
0.0
 40
7.5
 50
270.0
 51
354.0
  0
LINE
  5
244
  8
DETAIL
  6
CONTINUOUS
 62
     5
 10
-0.0684389999999837
 20
-55.0
 30
0.0
 11
-213.996863
 21
-55.0
 31
0.0
  0
LINE
  5
245
  8
DETAIL
  6
CONTINUOUS
 62
     5
 10
-222.4315610000001
 20
-37.0
 30
0.0
 11
-222.4315610000001
 21
-39.0
 31
0.0
  0
LINE
  5
246
  8
DETAIL
  6
CONTINUOUS
 62
     5
 10
-0.0684389999999837
 20
-37.0
 30
0.0
 11
-222.4315610000001
 21
-37.0
 31
0.0
  0
LINE
  5
247
  8
DETAIL
  6
CONTINUOUS
 62
     5
 10
-222.4315610000001
 20
-37.0
 30
0.0
 11
-222.4315610000001
 21
-38.73796099999999
 31
0.0
  0
LINE
  5
248
  8
DETAIL
  6
CONTINUOUS
 62
     5
 10
-221.4557769999999
 20
-48.283963
 30
0.0
 11
-222.4315610000001
 21
-39.0
 31
0.0
  0
ARC
  5
249
  8
DETAIL
  6
CONTINUOUS
 62
     5
 10
-213.996863
 20
-47.5
 30
0.0
 40
7.5
 50
185.9999999999999
 51
270.0
  0
LINE
  5
24A
  8
DETAIL
  6
CONTINUOUS
 62
     5
 10
197.0684389999998
 20
-14.0
 30
0.0
 11
197.0684389999998
 21
-37.0
 31
0.0
  0
LINE
  5
24B
  8
DETAIL
  6
CONTINUOUS
 62
     5
 10
-196.9315609999998
 20
-14.0
 30
0.0
 11
-196.9315609999998
 21
-37.0
 31
0.0
  0
LINE
  5
24C
  8
DETAIL
  6
CONTINUOUS
 62
     5
 10
-0.0684389999999837
 20
-37.0
 30
0.0
 11
-0.0684389999999837
 21
-14.0
 31
0.0
  0
LINE
  5
24D
  8
DETAIL
  6
CONTINUOUS
 62
     5
 10
-206.9315609999998
 20
-14.0
 30
0.0
 11
-206.9315609999998
 21
-37.0
 31
0.0
  0
LINE
  5
24E
  8
DETAIL
  6
CONTINUOUS
 62
     5
 10
-186.931561
 20
-14.0
 30
0.0
 11
-186.931561
 21
-37.0
 31
0.0
  0
LINE
  5
24F
  8
DETAIL
  6
CONTINUOUS
 62
     5
 10
2.431561000000016
 20
-37.0
 30
0.0
 11
2.431561000000016
 21
-14.0
 31
0.0
  0
LINE
  5
250
  8
DETAIL
  6
CONTINUOUS
 62
     5
 10
-194.681561
 20
-14.0
 30
0.0
 11
-194.681561
 21
-37.0
 31
0.0
  0
LINE
  5
251
  8
DETAIL
  6
CONTINUOUS
 62
     5
 10
-199.1815609999998
 20
-14.0
 30
0.0
 11
-199.1815609999998
 21
-37.0
 31
0.0
  0
LINE
  5
252
  8
DETAIL
  6
CONTINUOUS
 62
     5
 10
19.93156100000002
 20
-37.0
 30
0.0
 11
19.93156100000002
 21
-14.0
 31
0.0
  0
LINE
  5
253
  8
DETAIL
  6
CONTINUOUS
 62
     5
 10
199.3184389999999
 20
-14.0
 30
0.0
 11
199.3184389999999
 21
-37.0
 31
0.0
  0
LINE
  5
254
  8
DETAIL
  6
CONTINUOUS
 62
     5
 10
194.8184389999999
 20
-14.0
 30
0.0
 11
194.8184389999999
 21
-37.0
 31
0.0
  0
LINE
  5
255
  8
DETAIL
  6
CONTINUOUS
 62
     5
 10
-2.568438999999984
 20
-37.0
 30
0.0
 11
-2.568438999999984
 21
-14.0
 31
0.0
  0
LINE
  5
256
  8
DETAIL
  6
CONTINUOUS
 62
     5
 10
-8.068438999999984
 20
-37.0
 30
0.0
 11
-8.068438999999984
 21
-14.0
 31
0.0
  0
LINE
  5
257
  8
DETAIL
  6
CONTINUOUS
 62
     5
 10
187.068439
 20
-14.0
 30
0.0
 11
187.068439
 21
-37.0
 31
0.0
  0
LINE
  5
258
  8
DETAIL
  6
CONTINUOUS
 62
     5
 10
207.0684389999999
 20
-14.0
 30
0.0
 11
207.0684389999999
 21
-37.0
 31
0.0
  0
LINE
  5
259
  8
DETAIL
  6
CONTINUOUS
 62
     5
 10
-235.068439
 20
0.0
 30
0.0
 11
235.0684389999999
 21
0.0
 31
0.0
  0
ARC
  5
25A
  8
DETAIL
  6
CONTINUOUS
 62
     5
 10
231.3895149999999
 20
-11.0
 30
0.0
 40
3.0
 50
270.0
 51
354.0
  0
LINE
  5
25B
  8
DETAIL
  6
CONTINUOUS
 62
     5
 10
231.3895149999999
 20
-14.0
 30
0.0
 11
-231.252637
 21
-14.0
 31
0.0
  0
LINE
  5
25C
  8
DETAIL
  6
CONTINUOUS
 62
     5
 10
234.9041699999998
 20
-2.260602999999997
 30
0.0
 11
234.373081
 21
-11.31358499999998
 31
0.0
  0
LINE
  5
25D
  8
DETAIL
  6
CONTINUOUS
 62
     5
 10
234.931561
 20
0.0
 30
0.0
 11
234.931561
 21
-1.737961
 31
0.0
  0
LINE
  5
25E
  8
DETAIL
  6
CONTINUOUS
 62
     5
 10
234.931561
 20
-2.0
 30
0.0
 11
234.9041699999998
 21
-2.260602999999997
 31
0.0
  0
ARC
  5
25F
  8
DETAIL
  6
CONTINUOUS
 62
     5
 10
229.931561
 20
-1.737961
 30
0.0
 40
5.0
 50
354.0
 51
0.0
  0
ARC
  5
260
  8
DETAIL
  6
CONTINUOUS
 62
     5
 10
229.931561
 20
-1.737961
 30
0.0
 40
5.0
 50
354.0
 51
0.0
  0
LINE
  5
261
  8
DETAIL
  6
CONTINUOUS
 62
     5
 10
234.931561
 20
-1.737961
 30
0.0
 11
234.931561
 21
-2.0
 31
0.0
  0
ARC
  5
262
  8
DETAIL
  6
CONTINUOUS
 62
     5
 10
-231.252637
 20
-11.0
 30
0.0
 40
3.0
 50
187.4999999999998
 51
270.0
  0
LINE
  5
263
  8
DETAIL
  6
CONTINUOUS
 62
     5
 10
-235.068439
 20
-1.0
 30
0.0
 11
-234.226972
 21
-11.391579
 31
0.0
  0
LINE
  5
264
  8
DETAIL
  6
CONTINUOUS
 62
     5
 10
-235.068439
 20
0.0
 30
0.0
 11
-235.068439
 21
-1.0
 31
0.0
  0
LINE
  5
265
  8
BASIS
  6
DASHDOT
 62
     6
 10
-60.06843899999998
 20
164.025775
 30
0.0
 11
-60.06843899999998
 21
254.4756369999999
 31
0.0
  0
LINE
  5
266
  8
DETAIL
  6
CONTINUOUS
 62
     5
 10
-94.86843899999998
 20
221.3899999999999
 30
0.0
 11
-59.87878599999998
 21
221.3899999999999
 31
0.0
  0
LINE
  5
267
  8
DETAIL
  6
CONTINUOUS
 62
     5
 10
-67.17042699999999
 20
221.3899999999999
 30
0.0
 11
-66.83529499999999
 21
222.060263
 31
0.0
  0
ARC
  5
268
  8
DETAIL
  6
CONTINUOUS
 62
     5
 10
-65.31476899999998
 20
221.3
 30
0.0
 40
1.7
 50
90.0
 51
153.4349489999994
  0
LINE
  5
269
  8
DETAIL
  6
CONTINUOUS
 62
     5
 10
-65.31476899999998
 20
223.0
 30
0.0
 11
-59.87878599999998
 21
223.0
 31
0.0
  0
LINE
  5
26A
  8
DETAIL
  6
CONTINUOUS
 62
     5
 10
-52.96645099999999
 20
221.3899999999999
 30
0.0
 11
-53.30158299999999
 21
222.060263
 31
0.0
  0
ARC
  5
26B
  8
DETAIL
  6
CONTINUOUS
 62
     5
 10
-54.82210899999998
 20
221.3
 30
0.0
 40
1.7
 50
26.56505099999962
 51
90.0
  0
LINE
  5
26C
  8
DETAIL
  6
CONTINUOUS
 62
     5
 10
-54.82210899999998
 20
223.0
 30
0.0
 11
-60.25809199999998
 21
223.0
 31
0.0
  0
LINE
  5
26D
  8
DETAIL
  6
CONTINUOUS
 62
     5
 10
-25.25809199999998
 20
221.3899999999999
 30
0.0
 11
-35.62529199999997
 21
221.3899999999999
 31
0.0
  0
LINE
  5
26E
  8
DETAIL
  6
CONTINUOUS
 62
     5
 10
-25.26843899999998
 20
221.3899999999999
 30
0.0
 11
-60.25809199999998
 21
221.3899999999999
 31
0.0
  0
LINE
  5
26F
  8
DETAIL
  6
CONTINUOUS
 62
     5
 10
192.931561
 20
200.0
 30
0.0
 11
124.931561
 21
200.0
 31
0.0
  0
LINE
  5
270
  8
DETAIL
  6
CONTINUOUS
 62
     5
 10
192.931561
 20
0.0
 30
0.0
 11
192.931561
 21
200.0
 31
0.0
  0
LINE
  5
271
  8
DETAIL
  6
CONTINUOUS
 62
     5
 10
-193.068439
 20
0.0
 30
0.0
 11
-193.068439
 21
200.0
 31
0.0
  0
LINE
  5
272
  8
BASIS
  6
DASHDOT
 62
     6
 10
-0.0684389999999837
 20
276.3586669999999
 30
0.0
 11
-0.0684389999999837
 21
-97.60516700000004
 31
0.0
  0
TEXT
  5
273
  8
NOTE
  6
CONTINUOUS
 62
     4
 10
466.2879419999999
 20
80.91416399999999
 30
0.0
 40
64.0
  1
EA
 41
0.9
  0
CIRCLE
  5
274
  8
FIX
  6
CONTINUOUS
 62
    11
 10
149.931561
 20
0.0
 30
0.0
 40
2.5
  0
CIRCLE
  5
275
  8
FIX
  6
CONTINUOUS
 62
    11
 10
204.931561
 20
0.0
 30
0.0
 40
2.5
  0
CIRCLE
  5
276
  8
FIX
  6
CONTINUOUS
 62
    11
 10
-150.068439
 20
0.0
 30
0.0
 40
2.5
  0
CIRCLE
  5
277
  8
FIX
  6
CONTINUOUS
 62
    11
 10
-205.068439
 20
0.0
 30
0.0
 40
2.5
  0
TEXT
  5
278
  8
NOTE
  6
CONTINUOUS
 62
     4
 10
520.4490269999999
 20
424.661079
 30
0.0
 40
64.0
  1
AH 4-φ15×22
 41
0.9
  0
LINE
  5
279
  8
NOTE
  6
CONTINUOUS
 62
     4
 10
1130.463561
 20
387.171469
 30
0.0
 11
497.5365640000001
 21
387.171469
 31
0.0
  0
LINE
  5
27A
  8
DETAIL
  6
CONTINUOUS
 62
     5
 10
223.931561
 20
208.0
 30
0.0
 11
416.931561
 21
208.0
 31
0.0
  0
LINE
  5
27B
  8
DETAIL
  6
CONTINUOUS
 62
     5
 10
223.931561
 20
62.0
 30
0.0
 11
416.931561
 21
62.0
 31
0.0
  0
LINE
  5
27C
  8
DETAIL
  6
DASHDOT
 62
     5
 10
-19.56843899999998
 20
200.0
 30
0.0
 11
-19.56843899999998
 21
215.6899999999999
 31
0.0
  0
ARC
  5
27D
  8
DETAIL
  6
CONTINUOUS
 62
     5
 10
-25.26843899999998
 20
215.6899999999999
 30
0.0
 40
5.7
 50
0.0
 51
90.0
  0
CIRCLE
  5
27E
  8
FIX
  6
CONTINUOUS
 62
    11
 10
-100.068439
 20
210.4999999999999
 30
0.0
 40
7.5
  0
LINE
  5
27F
  8
DETAIL
  6
CONTINUOUS
 62
     5
 10
-125.068439
 20
207.0
 30
0.0
 11
-75.06843899999998
 21
207.0
 31
0.0
  0
LINE
  5
280
  8
DETAIL
  6
CONTINUOUS
 62
     5
 10
-125.068439
 20
9.5
 30
0.0
 11
-125.068439
 21
210.4999999999999
 31
0.0
  0
LINE
  5
281
  8
DETAIL
  6
CONTINUOUS
 62
     5
 10
-75.06843899999998
 20
9.5
 30
0.0
 11
-75.06843899999998
 21
210.4999999999999
 31
0.0
  0
LINE
  5
282
  8
DETAIL
  6
CONTINUOUS
 62
     5
 10
-125.068439
 20
210.4999999999999
 30
0.0
 11
-75.06843899999998
 21
210.4999999999999
 31
0.0
  0
LINE
  5
283
  8
DETAIL
  6
CONTINUOUS
 62
     5
 10
-125.068439
 20
210.4999999999999
 30
0.0
 11
-75.06843899999998
 21
210.4999999999999
 31
0.0
  0
LINE
  5
284
  8
DETAIL
  6
CONTINUOUS
 62
     5
 10
-125.068439
 20
9.5
 30
0.0
 11
-75.06843899999998
 21
9.5
 31
0.0
  0
LINE
  5
285
  8
DETAIL
  6
CONTINUOUS
 62
     5
 10
124.931561
 20
9.5
 30
0.0
 11
74.93156100000002
 21
9.5
 31
0.0
  0
LINE
  5
286
  8
DETAIL
  6
CONTINUOUS
 62
     5
 10
124.931561
 20
210.4999999999999
 30
0.0
 11
74.93156100000002
 21
210.4999999999999
 31
0.0
  0
LINE
  5
287
  8
DETAIL
  6
CONTINUOUS
 62
     5
 10
124.931561
 20
210.4999999999999
 30
0.0
 11
74.93156100000002
 21
210.4999999999999
 31
0.0
  0
LINE
  5
288
  8
DETAIL
  6
CONTINUOUS
 62
     5
 10
74.93156100000002
 20
9.5
 30
0.0
 11
74.93156100000002
 21
210.4999999999999
 31
0.0
  0
LINE
  5
289
  8
DETAIL
  6
CONTINUOUS
 62
     5
 10
124.931561
 20
9.5
 30
0.0
 11
124.931561
 21
210.4999999999999
 31
0.0
  0
LINE
  5
28A
  8
DETAIL
  6
CONTINUOUS
 62
     5
 10
124.931561
 20
207.0
 30
0.0
 11
74.93156100000002
 21
207.0
 31
0.0
  0
CIRCLE
  5
28B
  8
FIX
  6
CONTINUOUS
 62
    11
 10
99.93156100000002
 20
210.4999999999999
 30
0.0
 40
7.5
  0
LINE
  5
28C
  8
SIZE
  6
CONTINUOUS
 62
    30
 10
-544.7191079999997
 20
-55.0
 30
0.0
 11
-544.7191079999997
 21
-188.1666859999999
 31
0.0
  0
LINE
  5
28D
  8
SIZE
  6
CONTINUOUS
 62
    30
 10
-33.06843899999998
 20
425.5660429999998
 30
0.0
 11
-338.3269129999999
 21
425.5660429999998
 31
0.0
  0
LINE
  5
28E
  8
SIZE
  6
CONTINUOUS
 62
    30
 10
420.5684390000001
 20
524.574618
 30
0.0
 11
622.3561069999998
 21
524.574618
 31
0.0
  0
TEXT
  5
28F
  8
NOTE
  6
CONTINUOUS
 62
     4
 10
-794.817387
 20
-284.1104149999998
 30
0.0
 40
64.0
  1
8-φ5×8.4
 41
0.9
  0
LINE
  5
290
  8
NOTE
  6
CONTINUOUS
 62
     4
 10
-809.212617
 20
-316.1975249999999
 30
0.0
 11
-334.3833319999999
 21
-316.1975249999999
 31
0.0
  0
LINE
  5
291
  8
NOTE
  6
CONTINUOUS
 62
     4
 10
-205.068439
 20
0.0
 30
0.0
 11
-334.3833319999999
 21
-316.1975249999999
 31
0.0
  0
LINE
  5
292
  8
DETAIL
  6
CONTINUOUS
 62
     5
 10
-125.068439
 20
200.0
 30
0.0
 11
-193.068439
 21
200.0
 31
0.0
  0
LINE
  5
293
  8
DETAIL
  6
CONTINUOUS
 62
     5
 10
74.93156100000002
 20
200.0
 30
0.0
 11
-75.06843899999998
 21
200.0
 31
0.0
  0
LINE
  5
294
  8
DETAIL
  6
DASHDOT
 62
     5
 10
-100.568439
 20
210.4999999999999
 30
0.0
 11
-100.568439
 21
215.6899999999999
 31
0.0
  0
ARC
  5
295
  8
DETAIL
  6
CONTINUOUS
 62
     5
 10
-94.86843899999998
 20
215.6899999999999
 30
0.0
 40
5.7
 50
90.0
 51
180.0
  0
LINE
  5
296
  8
SIZE
  6
CONTINUOUS
 62
    30
 10
-100.568439
 20
558.9392199999999
 30
0.0
 11
-372.9603579999999
 21
558.9392199999999
 31
0.0
  0
LINE
  5
297
  8
SIZE
  6
CONTINUOUS
 62
    30
 10
-411.1421089999999
 20
212.5
 30
0.0
 11
-411.1421089999999
 21
415.708677
 31
0.0
  0
LINE
  5
298
  8
SIZE
  6
CONTINUOUS
 62
    30
 10
223.931561
 20
663.123939
 30
0.0
 11
365.7293969999998
 21
663.123939
 31
0.0
  0
LINE
  5
299
  8
SIZE
  6
CONTINUOUS
 62
    30
 10
781.406522
 20
58.0
 30
0.0
 11
781.406522
 21
-172.611143
 31
0.0
  0
LINE
  5
29A
  8
SIZE
  6
CONTINUOUS
 62
    30
 10
626.9939079999998
 20
0.0
 30
0.0
 11
626.9939079999998
 21
-173.93106
 31
0.0
  0
LINE
  5
29B
  8
NOTE
  6
CONTINUOUS
 62
     4
 10
99.93156100000002
 20
210.4999999999999
 30
0.0
 11
497.5365640000001
 21
387.171469
 31
0.0
  0
LINE
  5
29C
  8
SIZE
  6
BYBLOCK
 62
    30
 10
-213.068439
 20
200.0
 30
0.0
 11
-440.3153899999999
 21
200.0
 31
0.0
  0
LINE
  5
29D
  8
SIZE
  6
BYBLOCK
 62
    30
 10
-145.068439
 20
210.4999999999999
 30
0.0
 11
-440.3153899999999
 21
210.4999999999999
 31
0.0
  0
LINE
  5
29E
  8
SIZE
  6
BYBLOCK
 62
    30
 10
-410.3153899999998
 20
212.5
 30
0.0
 11
-410.3153899999998
 21
214.5
 31
0.0
  0
LINE
  5
29F
  8
SIZE
  6
BYBLOCK
 62
    30
 10
-410.3153899999998
 20
198.0
 30
0.0
 11
-410.3153899999998
 21
196.0
 31
0.0
  0
LINE
  5
2A0
  8
SIZE
  6
BYBLOCK
 62
    30
 10
-410.3153899999998
 20
210.4999999999999
 30
0.0
 11
-410.3153899999998
 21
200.0
 31
0.0
  0
TEXT
  5
2A1
  8
SIZE
  6
BYBLOCK
 62
    30
 10
-442.3153899999999
 20
241.7863849999999
 30
0.0
 40
64.0
  1
10.5
 50
90.0
 41
0.9
  0
LINE
  5
2A2
  8
SIZE
  6
BYBLOCK
 62
    30
 10
-255.068439
 20
0.0
 30
0.0
 11
-440.3153899999999
 21
0.0
 31
0.0
  0
LINE
  5
2A3
  8
SIZE
  6
BYBLOCK
 62
    30
 10
-213.068439
 20
200.0
 30
0.0
 11
-440.3153899999999
 21
200.0
 31
0.0
  0
LINE
  5
2A4
  8
SIZE
  6
BYBLOCK
 62
    30
 10
-410.3153899999998
 20
2.0
 30
0.0
 11
-410.3153899999998
 21
100.0
 31
0.0
  0
LINE
  5
2A5
  8
SIZE
  6
BYBLOCK
 62
    30
 10
-410.3153899999998
 20
198.0
 30
0.0
 11
-410.3153899999998
 21
100.0
 31
0.0
  0
TEXT
  5
2A6
  8
SIZE
  6
BYBLOCK
 62
    30
 10
-442.3153899999999
 20
25.942857
 30
0.0
 40
64.0
  1
200
 50
90.0
 41
0.9
  0
LINE
  5
2A7
  8
SIZE
  6
BYBLOCK
 62
    30
 10
-255.068439
 20
0.0
 30
0.0
 11
-574.719108
 21
0.0
 31
0.0
  0
LINE
  5
2A8
  8
SIZE
  6
BYBLOCK
 62
    30
 10
-80.06843899999998
 20
223.0
 30
0.0
 11
-574.719108
 21
223.0
 31
0.0
  0
LINE
  5
2A9
  8
SIZE
  6
BYBLOCK
 62
    30
 10
-544.7191079999997
 20
2.0
 30
0.0
 11
-544.7191079999997
 21
111.4999999999999
 31
0.0
  0
LINE
  5
2AA
  8
SIZE
  6
BYBLOCK
 62
    30
 10
-544.7191079999997
 20
221.0
 30
0.0
 11
-544.7191079999997
 21
111.4999999999999
 31
0.0
  0
TEXT
  5
2AB
  8
SIZE
  6
BYBLOCK
 62
    30
 10
-576.7191079999999
 20
37.44285699999999
 30
0.0
 40
64.0
  1
223
 50
90.0
 41
0.9
  0
LINE
  5
2AC
  8
SIZE
  6
BYBLOCK
 62
    30
 10
-233.996863
 20
-55.0
 30
0.0
 11
-574.719108
 21
-55.0
 31
0.0
  0
LINE
  5
2AD
  8
SIZE
  6
BYBLOCK
 62
    30
 10
-245.068439
 20
0.0
 30
0.0
 11
-574.719108
 21
0.0
 31
0.0
  0
LINE
  5
2AE
  8
SIZE
  6
BYBLOCK
 62
    30
 10
-544.7191079999997
 20
2.0
 30
0.0
 11
-544.7191079999997
 21
4.0
 31
0.0
  0
LINE
  5
2AF
  8
SIZE
  6
BYBLOCK
 62
    30
 10
-544.7191079999997
 20
-57.0
 30
0.0
 11
-544.7191079999997
 21
-59.0
 31
0.0
  0
LINE
  5
2B0
  8
SIZE
  6
BYBLOCK
 62
    30
 10
-544.7191079999997
 20
0.0
 30
0.0
 11
-544.7191079999997
 21
-55.0
 31
0.0
  0
TEXT
  5
2B1
  8
SIZE
  6
BYBLOCK
 62
    30
 10
-576.7191079999999
 20
-175.976086
 30
0.0
 40
64.0
  1
55
 50
90.0
 41
0.9
  0
LINE
  5
2B2
  8
SIZE
  6
BYBLOCK
 62
    30
 10
436.931561
 20
62.0
 30
0.0
 11
811.406522
 21
62.0
 31
0.0
  0
LINE
  5
2B3
  8
SIZE
  6
BYBLOCK
 62
    30
 10
436.931561
 20
208.0
 30
0.0
 11
811.406522
 21
208.0
 31
0.0
  0
LINE
  5
2B4
  8
SIZE
  6
BYBLOCK
 62
    30
 10
781.406522
 20
210.0
 30
0.0
 11
781.406522
 21
212.0
 31
0.0
  0
LINE
  5
2B5
  8
SIZE
  6
BYBLOCK
 62
    30
 10
781.406522
 20
60.0
 30
0.0
 11
781.406522
 21
58.0
 31
0.0
  0
LINE
  5
2B6
  8
SIZE
  6
BYBLOCK
 62
    30
 10
781.406522
 20
208.0
 30
0.0
 11
781.406522
 21
62.0
 31
0.0
  0
TEXT
  5
2B7
  8
SIZE
  6
BYBLOCK
 62
    30
 10
749.406522
 20
-181.4262219999999
 30
0.0
 40
64.0
  1
φ146
 50
90.0
 41
0.9
  0
LINE
  5
2B8
  8
SIZE
  6
BYBLOCK
 62
    30
 10
244.931561
 20
0.0
 30
0.0
 11
656.9939079999998
 21
0.0
 31
0.0
  0
LINE
  5
2B9
  8
SIZE
  6
BYBLOCK
 62
    30
 10
465.1589089999999
 20
135.0
 30
0.0
 11
656.9939079999998
 21
135.0
 31
0.0
  0
LINE
  5
2BA
  8
SIZE
  6
BYBLOCK
 62
    30
 10
626.9939079999998
 20
137.0
 30
0.0
 11
626.9939079999998
 21
139.0
 31
0.0
  0
LINE
  5
2BB
  8
SIZE
  6
BYBLOCK
 62
    30
 10
626.9939079999998
 20
-2.0
 30
0.0
 11
626.9939079999998
 21
-4.0
 31
0.0
  0
LINE
  5
2BC
  8
SIZE
  6
BYBLOCK
 62
    30
 10
626.9939079999998
 20
135.0
 30
0.0
 11
626.9939079999998
 21
0.0
 31
0.0
  0
TEXT
  5
2BD
  8
SIZE
  6
BYBLOCK
 62
    30
 10
594.9939079999998
 20
-163.421281
 30
0.0
 40
64.0
  1
135
 50
90.0
 41
0.9
  0
LINE
  5
2BE
  8
SIZE
  6
BYBLOCK
 62
    30
 10
-193.068439
 20
220.0
 30
0.0
 11
-193.068439
 21
817.9941149999999
 31
0.0
  0
LINE
  5
2BF
  8
SIZE
  6
BYBLOCK
 62
    30
 10
192.931561
 20
220.0
 30
0.0
 11
192.931561
 21
817.9941149999999
 31
0.0
  0
LINE
  5
2C0
  8
SIZE
  6
BYBLOCK
 62
    30
 10
-191.068439
 20
787.9941149999999
 30
0.0
 11
190.931561
 21
787.9941149999999
 31
0.0
  0
TEXT
  5
2C1
  8
SIZE
  6
BYBLOCK
 62
    30
 10
-105.3941529999999
 20
819.9941149999999
 30
0.0
 40
64.0
  1
□386
 41
0.9
  0
LINE
  5
2C2
  8
SIZE
  6
BYBLOCK
 62
    30
 10
-0.0684389999999837
 20
296.3586669999999
 30
0.0
 11
-0.0684389999999837
 21
554.574618
 31
0.0
  0
LINE
  5
2C3
  8
SIZE
  6
BYBLOCK
 62
    30
 10
416.931561
 20
228.0
 30
0.0
 11
416.931561
 21
554.574618
 31
0.0
  0
LINE
  5
2C4
  8
SIZE
  6
BYBLOCK
 62
    30
 10
1.931561000000016
 20
524.574618
 30
0.0
 11
208.4315609999999
 21
524.574618
 31
0.0
  0
LINE
  5
2C5
  8
SIZE
  6
BYBLOCK
 62
    30
 10
414.931561
 20
524.574618
 30
0.0
 11
208.4315609999999
 21
524.574618
 31
0.0
  0
TEXT
  5
2C6
  8
SIZE
  6
BYBLOCK
 62
    30
 10
454.6021919999997
 20
556.5746179999996
 30
0.0
 40
64.0
  1
417
 41
0.9
  0
LINE
  5
2C7
  8
SIZE
  6
BYBLOCK
 62
    30
 10
-100.068439
 20
250.4999999999999
 30
0.0
 11
-100.068439
 21
690.297679
 31
0.0
  0
LINE
  5
2C8
  8
SIZE
  6
BYBLOCK
 62
    30
 10
99.93156100000002
 20
250.4999999999999
 30
0.0
 11
99.93156100000002
 21
690.297679
 31
0.0
  0
LINE
  5
2C9
  8
SIZE
  6
BYBLOCK
 62
    30
 10
-98.06843899999998
 20
660.297679
 30
0.0
 11
97.93156100000002
 21
660.297679
 31
0.0
  0
TEXT
  5
2CA
  8
SIZE
  6
BYBLOCK
 62
    30
 10
-74.12558200000001
 20
692.2976789999997
 30
0.0
 40
64.0
  1
200
 41
0.9
  0
LINE
  5
2CB
  8
SIZE
  6
BYBLOCK
 62
    30
 10
-19.56843899999998
 20
235.6899999999999
 30
0.0
 11
-19.56843899999998
 21
588.9392199999998
 31
0.0
  0
LINE
  5
2CC
  8
SIZE
  6
BYBLOCK
 62
    30
 10
-100.568439
 20
235.6899999999999
 30
0.0
 11
-100.568439
 21
588.9392199999998
 31
0.0
  0
LINE
  5
2CD
  8
SIZE
  6
BYBLOCK
 62
    30
 10
-102.5684389999999
 20
558.9392199999999
 30
0.0
 11
-104.5684389999999
 21
558.9392199999999
 31
0.0
  0
LINE
  5
2CE
  8
SIZE
  6
BYBLOCK
 62
    30
 10
-17.56843899999998
 20
558.9392199999999
 30
0.0
 11
-15.56843899999998
 21
558.9392199999999
 31
0.0
  0
LINE
  5
2CF
  8
SIZE
  6
BYBLOCK
 62
    30
 10
-100.568439
 20
558.9392199999999
 30
0.0
 11
-19.56843899999998
 21
558.9392199999999
 31
0.0
  0
TEXT
  5
2D0
  8
SIZE
  6
BYBLOCK
 62
    30
 10
-345.011338
 20
590.93922
 30
0.0
 40
64.0
  1
φ81
 41
0.9
  0
LINE
  5
2D1
  8
SIZE
  6
BYBLOCK
 62
    30
 10
-0.0684389999999837
 20
296.3586669999999
 30
0.0
 11
-0.0684389999999837
 21
455.5660429999999
 31
0.0
  0
LINE
  5
2D2
  8
SIZE
  6
BYBLOCK
 62
    30
 10
-60.06843899999998
 20
274.475637
 30
0.0
 11
-60.06843899999998
 21
455.5660429999999
 31
0.0
  0
LINE
  5
2D3
  8
SIZE
  6
BYBLOCK
 62
    30
 10
-62.06843899999998
 20
425.5660429999998
 30
0.0
 11
-64.06843899999998
 21
425.5660429999998
 31
0.0
  0
LINE
  5
2D4
  8
SIZE
  6
BYBLOCK
 62
    30
 10
1.931561000000016
 20
425.5660429999998
 30
0.0
 11
3.931561000000016
 21
425.5660429999998
 31
0.0
  0
LINE
  5
2D5
  8
SIZE
  6
BYBLOCK
 62
    30
 10
-60.06843899999998
 20
425.5660429999998
 30
0.0
 11
-0.0684389999999837
 21
425.5660429999998
 31
0.0
  0
TEXT
  5
2D6
  8
SIZE
  6
BYBLOCK
 62
    30
 10
-319.8722099999999
 20
457.566043
 30
0.0
 40
64.0
  1
60
 41
0.9
  0
LINE
  5
2D7
  8
SIZE
  6
BYBLOCK
 62
    30
 10
-150.068439
 20
-40.0
 30
0.0
 11
-150.068439
 21
-291.3559479999999
 31
0.0
  0
LINE
  5
2D8
  8
SIZE
  6
BYBLOCK
 62
    30
 10
149.931561
 20
-40.0
 30
0.0
 11
149.931561
 21
-291.3559479999999
 31
0.0
  0
LINE
  5
2D9
  8
SIZE
  6
BYBLOCK
 62
    30
 10
-148.068439
 20
-261.355948
 30
0.0
 11
-0.0684389999999837
 21
-261.355948
 31
0.0
  0
LINE
  5
2DA
  8
SIZE
  6
BYBLOCK
 62
    30
 10
147.931561
 20
-261.355948
 30
0.0
 11
-0.0684389999999837
 21
-261.355948
 31
0.0
  0
TEXT
  5
2DB
  8
SIZE
  6
BYBLOCK
 62
    30
 10
-74.12558200000001
 20
-229.355948
 30
0.0
 40
64.0
  1
300
 41
0.9
  0
LINE
  5
2DC
  8
SIZE
  6
BYBLOCK
 62
    30
 10
-205.068439
 20
-40.0
 30
0.0
 11
-205.068439
 21
-424.295663
 31
0.0
  0
LINE
  5
2DD
  8
SIZE
  6
BYBLOCK
 62
    30
 10
204.931561
 20
-40.0
 30
0.0
 11
204.931561
 21
-424.295663
 31
0.0
  0
LINE
  5
2DE
  8
SIZE
  6
BYBLOCK
 62
    30
 10
-203.068439
 20
-394.2956629999999
 30
0.0
 11
-0.0684389999999837
 21
-394.2956629999999
 31
0.0
  0
LINE
  5
2DF
  8
SIZE
  6
BYBLOCK
 62
    30
 10
202.931561
 20
-394.2956629999999
 30
0.0
 11
-0.0684389999999837
 21
-394.2956629999999
 31
0.0
  0
TEXT
  5
2E0
  8
SIZE
  6
BYBLOCK
 62
    30
 10
-101.279868
 20
-362.295663
 30
0.0
 40
64.0
  1
□410
 41
0.9
  0
LINE
  5
2E1
  8
SIZE
  6
BYBLOCK
 62
    30
 10
-222.4315610000001
 20
-59.0
 30
0.0
 11
-222.4315610000001
 21
-554.533625
 31
0.0
  0
LINE
  5
2E2
  8
SIZE
  6
BYBLOCK
 62
    30
 10
222.5684389999999
 20
-57.0
 30
0.0
 11
222.5684389999999
 21
-554.533625
 31
0.0
  0
LINE
  5
2E3
  8
SIZE
  6
BYBLOCK
 62
    30
 10
-220.4315610000001
 20
-524.533625
 30
0.0
 11
0.0684390000000163
 21
-524.533625
 31
0.0
  0
LINE
  5
2E4
  8
SIZE
  6
BYBLOCK
 62
    30
 10
220.5684389999999
 20
-524.533625
 30
0.0
 11
0.0684390000000163
 21
-524.533625
 31
0.0
  0
TEXT
  5
2E5
  8
SIZE
  6
BYBLOCK
 62
    30
 10
-106.6287039999999
 20
-492.5336249999999
 30
0.0
 40
64.0
  1
□445
 41
0.9
  0
LINE
  5
2E6
  8
SIZE
  6
BYBLOCK
 62
    30
 10
-235.068439
 20
-21.0
 30
0.0
 11
-235.068439
 21
-683.340842
 31
0.0
  0
LINE
  5
2E7
  8
SIZE
  6
BYBLOCK
 62
    30
 10
234.931561
 20
-20.0
 30
0.0
 11
234.931561
 21
-683.340842
 31
0.0
  0
LINE
  5
2E8
  8
SIZE
  6
BYBLOCK
 62
    30
 10
-233.068439
 20
-653.340842
 30
0.0
 11
-0.0684389999999837
 21
-653.340842
 31
0.0
  0
LINE
  5
2E9
  8
SIZE
  6
BYBLOCK
 62
    30
 10
232.931561
 20
-653.340842
 30
0.0
 11
-0.0684389999999837
 21
-653.340842
 31
0.0
  0
TEXT
  5
2EA
  8
SIZE
  6
BYBLOCK
 62
    30
 10
-106.7655819999999
 20
-621.340842
 30
0.0
 40
64.0
  1
□470
 41
0.9
  0
LINE
  5
2EB
  8
SIZE
  6
BYBLOCK
 62
    30
 10
192.931561
 20
220.0
 30
0.0
 11
192.931561
 21
693.123939
 31
0.0
  0
LINE
  5
2EC
  8
SIZE
  6
BYBLOCK
 62
    30
 10
223.931561
 20
228.0
 30
0.0
 11
223.931561
 21
693.123939
 31
0.0
  0
LINE
  5
2ED
  8
SIZE
  6
BYBLOCK
 62
    30
 10
225.931561
 20
663.123939
 30
0.0
 11
227.931561
 21
663.123939
 31
0.0
  0
LINE
  5
2EE
  8
SIZE
  6
BYBLOCK
 62
    30
 10
190.931561
 20
663.123939
 30
0.0
 11
188.931561
 21
663.123939
 31
0.0
  0
LINE
  5
2EF
  8
SIZE
  6
BYBLOCK
 62
    30
 10
223.931561
 20
663.123939
 30
0.0
 11
192.931561
 21
663.123939
 31
0.0
  0
TEXT
  5
2F0
  8
SIZE
  6
BYBLOCK
 62
    30
 10
262.138251
 20
695.123939
 30
0.0
 40
64.0
  1
31
 41
0.9
  0
LINE
  5
2F1
  8
SIZE
  6
BYBLOCK
 62
    30
 10
192.931561
 20
220.0
 30
0.0
 11
192.931561
 21
817.9941149999999
 31
0.0
  0
LINE
  5
2F2
  8
SIZE
  6
BYBLOCK
 62
    30
 10
416.931561
 20
228.0
 30
0.0
 11
416.931561
 21
817.9941149999999
 31
0.0
  0
LINE
  5
2F3
  8
SIZE
  6
BYBLOCK
 62
    30
 10
194.931561
 20
787.9941149999999
 30
0.0
 11
304.931561
 21
787.9941149999999
 31
0.0
  0
LINE
  5
2F4
  8
SIZE
  6
BYBLOCK
 62
    30
 10
414.931561
 20
787.9941149999999
 30
0.0
 11
304.931561
 21
787.9941149999999
 31
0.0
  0
TEXT
  5
2F5
  8
SIZE
  6
BYBLOCK
 62
    30
 10
229.5029899999998
 20
819.9941149999999
 30
0.0
 40
64.0
  1
224
 41
0.9
  0
CIRCLE
  5
2F6
  8
SIZE
  6
CONTINUOUS
 62
    30
 10
416.931561
 20
787.9941149999999
 30
0.0
 40
6.0
  0
CIRCLE
  5
2F7
  8
SIZE
  6
CONTINUOUS
 62
    30
 10
192.931561
 20
787.9941149999999
 30
0.0
 40
6.0
  0
CIRCLE
  5
2F8
  8
SIZE
  6
CONTINUOUS
 62
    30
 10
192.931561
 20
663.123939
 30
0.0
 40
6.0
  0
CIRCLE
  5
2F9
  8
SIZE
  6
CONTINUOUS
 62
    30
 10
223.931561
 20
663.123939
 30
0.0
 40
6.0
  0
CIRCLE
  5
2FA
  8
SIZE
  6
CONTINUOUS
 62
    30
 10
234.931561
 20
-653.340842
 30
0.0
 40
6.0
  0
CIRCLE
  5
2FB
  8
SIZE
  6
CONTINUOUS
 62
    30
 10
-235.068439
 20
-653.340842
 30
0.0
 40
6.0
  0
CIRCLE
  5
2FC
  8
SIZE
  6
CONTINUOUS
 62
    30
 10
222.5684389999999
 20
-524.533625
 30
0.0
 40
6.0
  0
CIRCLE
  5
2FD
  8
SIZE
  6
CONTINUOUS
 62
    30
 10
-222.4315610000001
 20
-524.533625
 30
0.0
 40
6.0
  0
CIRCLE
  5
2FE
  8
SIZE
  6
CONTINUOUS
 62
    30
 10
204.931561
 20
-394.2956629999999
 30
0.0
 40
6.0
  0
CIRCLE
  5
2FF
  8
SIZE
  6
CONTINUOUS
 62
    30
 10
-205.068439
 20
-394.2956629999999
 30
0.0
 40
6.0
  0
CIRCLE
  5
300
  8
SIZE
  6
CONTINUOUS
 62
    30
 10
149.931561
 20
-261.355948
 30
0.0
 40
6.0
  0
CIRCLE
  5
301
  8
SIZE
  6
CONTINUOUS
 62
    30
 10
-150.068439
 20
-261.355948
 30
0.0
 40
6.0
  0
CIRCLE
  5
302
  8
SIZE
  6
CONTINUOUS
 62
    30
 10
-0.0684389999999837
 20
425.5660429999998
 30
0.0
 40
6.0
  0
CIRCLE
  5
303
  8
SIZE
  6
CONTINUOUS
 62
    30
 10
-60.06843899999998
 20
425.5660429999998
 30
0.0
 40
6.0
  0
CIRCLE
  5
304
  8
SIZE
  6
CONTINUOUS
 62
    30
 10
-19.56843899999998
 20
558.9392199999999
 30
0.0
 40
6.0
  0
CIRCLE
  5
305
  8
SIZE
  6
CONTINUOUS
 62
    30
 10
-100.568439
 20
558.9392199999999
 30
0.0
 40
6.0
  0
CIRCLE
  5
306
  8
SIZE
  6
CONTINUOUS
 62
    30
 10
99.93156100000002
 20
660.297679
 30
0.0
 40
6.0
  0
CIRCLE
  5
307
  8
SIZE
  6
CONTINUOUS
 62
    30
 10
-100.068439
 20
660.297679
 30
0.0
 40
6.0
  0
CIRCLE
  5
308
  8
SIZE
  6
CONTINUOUS
 62
    30
 10
416.931561
 20
524.574618
 30
0.0
 40
6.0
  0
CIRCLE
  5
309
  8
SIZE
  6
CONTINUOUS
 62
    30
 10
-0.0684389999999837
 20
524.574618
 30
0.0
 40
6.0
  0
CIRCLE
  5
30A
  8
SIZE
  6
CONTINUOUS
 62
    30
 10
192.931561
 20
787.9941149999999
 30
0.0
 40
6.0
  0
CIRCLE
  5
30B
  8
SIZE
  6
CONTINUOUS
 62
    30
 10
-193.068439
 20
787.9941149999999
 30
0.0
 40
6.0
  0
CIRCLE
  5
30C
  8
SIZE
  6
CONTINUOUS
 62
    30
 10
626.9939079999998
 20
0.0
 30
0.0
 40
6.0
  0
CIRCLE
  5
30D
  8
SIZE
  6
CONTINUOUS
 62
    30
 10
626.9939079999998
 20
135.0
 30
0.0
 40
6.0
  0
CIRCLE
  5
30E
  8
SIZE
  6
CONTINUOUS
 62
    30
 10
781.406522
 20
62.0
 30
0.0
 40
6.0
  0
CIRCLE
  5
30F
  8
SIZE
  6
CONTINUOUS
 62
    30
 10
781.406522
 20
208.0
 30
0.0
 40
6.0
  0
CIRCLE
  5
310
  8
SIZE
  6
CONTINUOUS
 62
    30
 10
-544.7191079999997
 20
-55.0
 30
0.0
 40
6.0
  0
CIRCLE
  5
311
  8
SIZE
  6
CONTINUOUS
 62
    30
 10
-544.7191079999997
 20
0.0
 30
0.0
 40
6.0
  0
CIRCLE
  5
312
  8
SIZE
  6
CONTINUOUS
 62
    30
 10
-544.7191079999997
 20
223.0
 30
0.0
 40
6.0
  0
CIRCLE
  5
313
  8
SIZE
  6
CONTINUOUS
 62
    30
 10
-544.7191079999997
 20
0.0
 30
0.0
 40
6.0
  0
CIRCLE
  5
314
  8
SIZE
  6
CONTINUOUS
 62
    30
 10
-410.3153899999998
 20
200.0
 30
0.0
 40
6.0
  0
CIRCLE
  5
315
  8
SIZE
  6
CONTINUOUS
 62
    30
 10
-410.3153899999998
 20
0.0
 30
0.0
 40
6.0
  0
CIRCLE
  5
316
  8
SIZE
  6
CONTINUOUS
 62
    30
 10
-410.3153899999998
 20
200.0
 30
0.0
 40
6.0
  0
CIRCLE
  5
317
  8
SIZE
  6
CONTINUOUS
 62
    30
 10
-410.3153899999998
 20
210.4999999999999
 30
0.0
 40
6.0
  0
LINE
  5
318
  8
NOTE
  6
CONTINUOUS
 62
     4
 10
99.93156100000002
 20
190.5
 30
0.0
 11
99.93156100000002
 21
230.5
 31
0.0
  0
LINE
  5
319
  8
NOTE
  6
CONTINUOUS
 62
     4
 10
79.93156100000002
 20
210.4999999999999
 30
0.0
 11
119.931561
 21
210.4999999999999
 31
0.0
  0
LINE
  5
31A
  8
NOTE
  6
CONTINUOUS
 62
     4
 10
-100.068439
 20
190.5
 30
0.0
 11
-100.068439
 21
230.5
 31
0.0
  0
LINE
  5
31B
  8
NOTE
  6
CONTINUOUS
 62
     4
 10
-80.06843899999998
 20
210.4999999999999
 30
0.0
 11
-120.068439
 21
210.4999999999999
 31
0.0
  0
LINE
  5
31C
  8
NOTE
  6
CONTINUOUS
 62
     4
 10
-205.068439
 20
20.0
 30
0.0
 11
-205.068439
 21
-20.0
 31
0.0
  0
LINE
  5
31D
  8
NOTE
  6
CONTINUOUS
 62
     4
 10
-185.068439
 20
0.0
 30
0.0
 11
-225.068439
 21
0.0
 31
0.0
  0
LINE
  5
31E
  8
NOTE
  6
CONTINUOUS
 62
     4
 10
-150.068439
 20
20.0
 30
0.0
 11
-150.068439
 21
-20.0
 31
0.0
  0
LINE
  5
31F
  8
NOTE
  6
CONTINUOUS
 62
     4
 10
-130.068439
 20
0.0
 30
0.0
 11
-170.068439
 21
0.0
 31
0.0
  0
LINE
  5
320
  8
NOTE
  6
CONTINUOUS
 62
     4
 10
204.931561
 20
20.0
 30
0.0
 11
204.931561
 21
-20.0
 31
0.0
  0
LINE
  5
321
  8
NOTE
  6
CONTINUOUS
 62
     4
 10
184.931561
 20
0.0
 30
0.0
 11
224.931561
 21
0.0
 31
0.0
  0
LINE
  5
322
  8
NOTE
  6
CONTINUOUS
 62
     4
 10
149.931561
 20
20.0
 30
0.0
 11
149.931561
 21
-20.0
 31
0.0
  0
LINE
  5
323
  8
NOTE
  6
CONTINUOUS
 62
     4
 10
129.931561
 20
0.0
 30
0.0
 11
169.931561
 21
0.0
 31
0.0
  0
TEXT
  5
324
  8
ETC
  6
CONTINUOUS
 62
    61
 10
662.7846634878315
 20
910.3892407611079
 30
0.0
 40
64.0
  1
VD-23ZDS8-W_5
 41
0.9
  0
TEXT
  5
325
  8
ETC
  6
CONTINUOUS
 62
    61
 10
660.4457234878313
 20
812.1549667611082
 30
0.0
 40
64.0
  1
換気扇
 41
0.9
  0
TEXT
  5
326
  8
ETC
  6
CONTINUOUS
 62
    61
 10
801.0231959924547
 20
723.3854372298572
 30
0.0
 40
50.0
  1
VD-23ZDS7-W
 41
0.9
  0
CIRCLE
  5
327
  8
ARRANGE
  6
CONTINUOUS
 62
     1
 10
0.0
 20
0.0
 30
0.0
 40
40.0
  0
LINE
  5
328
  8
OUTLINE
  6
CONTINUOUS
 62
     3
 10
192.9999999999999
 20
200.0
 30
0.0
 11
-192.9999999999999
 21
200.0
 31
0.0
  0
LINE
  5
329
  8
OUTLINE
  6
CONTINUOUS
 62
     3
 10
-235.068439
 20
0.0
 30
0.0
 11
235.0684389999999
 21
0.0
 31
0.0
  0
LINE
  5
32B
  8
OUTLINE
  6
CONTINUOUS
 62
     3
 10
-192.9999999999999
 20
0.0
 30
0.0
 11
-192.9999999999999
 21
200.0
 31
0.0
  0
LINE
  5
33B
  8
OUTLINE
  6
CONTINUOUS
 62
     3
 10
192.9999999999999
 20
0.0
 30
0.0
 11
192.9999999999999
 21
200.0
 31
0.0
  0
POINT
  5
34E
  8
ARRANGE
  6
CONTINUOUS
 62
     1
 10
0.0
 20
0.0
 30
0.0
  0
LINE
  5
34F
  8
NOTE
  6
CONTINUOUS
 62
     4
 10
-228.893877
 20
-32.130181
 30
0.0
 11
-205.068439
 21
0.0
 31
0.0
  0
LINE
  5
350
  8
NOTE
  6
CONTINUOUS
 62
     4
 10
-205.068439
 20
0.0
 30
0.0
 11
-209.636783
 21
-39.73827199999999
 31
0.0
  0
LINE
  5
351
  8
NOTE
  6
CONTINUOUS
 62
     4
 10
130.6887529999998
 20
236.0733279999998
 30
0.0
 11
99.93156100000002
 21
210.4999999999999
 31
0.0
  0
LINE
  5
352
  8
NOTE
  6
CONTINUOUS
 62
     4
 10
99.93156100000002
 20
210.4999999999999
 30
0.0
 11
139.3547349999999
 21
217.268556
 31
0.0
  0
TEXT
  5
425
  8
ETC
  6
CONTINUOUS
 62
    61
 10
801.0231959924547
 20
637.4814712171589
 30
0.0
 40
50.0
  1
VD-23ZDS8-W
 41
0.9
  0
ENDSEC
  0
EOF
