  0
SECTION
  2
HEADER
  9
$ACADVER
  1
AC1009
  9
$DWGCODEPAGE
  3
dos932
  9
$INSBASE
 10
0.0
 20
0.0
 30
0.0
  9
$EXTMIN
 10
-806.49877472706135
 20
-654.17441779762612
 30
0.0
  9
$EXTMAX
 10
1198.119609477395
 20
699.90606002989171
 30
0.0
  9
$LIMMIN
 10
-2970.0
 20
-2100.0
  9
$LIMMAX
 10
2970.0
 20
2100.0
  9
$ORTHOMODE
 70
     1
  9
$REGENMODE
 70
     1
  9
$FILLMODE
 70
     1
  9
$QTEXTMODE
 70
     0
  9
$MIRRTEXT
 70
     0
  9
$LTSCALE
 40
20.0
  9
$ATTMODE
 70
     1
  9
$TEXTSIZE
 40
64.0
  9
$TRACEWID
 40
0.05
  9
$TEXTSTYLE
  7
STANDARD
  9
$CLAYER
  8
NOTE
  9
$CELTYPE
  6
CONTINUOUS
  9
$CECOLOR
 62
     7
  9
$DIMSCALE
 40
1.0
  9
$DIMASZ
 40
12.0
  9
$DIMEXO
 40
20.0
  9
$DIMDLI
 40
200.0
  9
$DIMRND
 40
0.0
  9
$DIMDLE
 40
0.0
  9
$DIMEXE
 40
20.0
  9
$DIMTP
 40
0.0
  9
$DIMTM
 40
0.0
  9
$DIMTXT
 40
64.0
  9
$DIMCEN
 40
0.09
  9
$DIMTSZ
 40
0.0
  9
$DIMTOL
 70
     0
  9
$DIMLIM
 70
     0
  9
$DIMTIH
 70
     0
  9
$DIMTOH
 70
     0
  9
$DIMSE1
 70
     0
  9
$DIMSE2
 70
     0
  9
$DIMTAD
 70
     1
  9
$DIMZIN
 70
     8
  9
$DIMBLK
  1

  9
$DIMASO
 70
     1
  9
$DIMSHO
 70
     0
  9
$DIMPOST
  1

  9
$DIMAPOST
  1

  9
$DIMALT
 70
     0
  9
$DIMALTD
 70
     2
  9
$DIMALTF
 40
25.399999999999999
  9
$DIMLFAC
 40
1.0
  9
$DIMTOFL
 70
     1
  9
$DIMTVP
 40
0.0
  9
$DIMTIX
 70
     1
  9
$DIMSOXD
 70
     0
  9
$DIMSAH
 70
     0
  9
$DIMBLK1
  1

  9
$DIMBLK2
  1

  9
$DIMSTYLE
  2
STANDARD
  9
$DIMCLRD
 70
     7
  9
$DIMCLRE
 70
     7
  9
$DIMCLRT
 70
     7
  9
$DIMTFAC
 40
1.0
  9
$DIMGAP
 40
25.0
  9
$LUNITS
 70
     2
  9
$LUPREC
 70
     4
  9
$SKETCHINC
 40
0.1
  9
$FILLETRAD
 40
3.0
  9
$AUNITS
 70
     1
  9
$AUPREC
 70
     3
  9
$MENU
  1
ACAD
  9
$ELEVATION
 40
0.0
  9
$PELEVATION
 40
0.0
  9
$THICKNESS
 40
50.0
  9
$LIMCHECK
 70
     0
  9
$CHAMFERA
 40
0.0
  9
$CHAMFERB
 40
0.0
  9
$SKPOLY
 70
     0
  9
$TDCREATE
 40
2453019.62301037
  9
$TDUPDATE
 40
2458899.644684572
  9
$TDINDWG
 40
1.7216242014
  9
$TDUSRTIMER
 40
1.7216242014
  9
$USRTIMER
 70
     1
  9
$ANGBASE
 50
0.0
  9
$ANGDIR
 70
     0
  9
$PDMODE
 70
     3
  9
$PDSIZE
 40
-2.0
  9
$PLINEWID
 40
0.0
  9
$SPLFRAME
 70
     0
  9
$SPLINETYPE
 70
     6
  9
$SPLINESEGS
 70
     8
  9
$SURFTAB1
 70
     6
  9
$SURFTAB2
 70
     6
  9
$SURFTYPE
 70
     6
  9
$SURFU
 70
     6
  9
$SURFV
 70
     6
  9
$UCSNAME
  2

  9
$UCSORG
 10
0.0
 20
0.0
 30
0.0
  9
$UCSXDIR
 10
1.0
 20
0.0
 30
0.0
  9
$UCSYDIR
 10
0.0
 20
1.0
 30
0.0
  9
$PUCSNAME
  2

  9
$PUCSORG
 10
0.0
 20
0.0
 30
0.0
  9
$PUCSXDIR
 10
1.0
 20
0.0
 30
0.0
  9
$PUCSYDIR
 10
0.0
 20
1.0
 30
0.0
  9
$USERI1
 70
     0
  9
$USERI2
 70
     0
  9
$USERI3
 70
     0
  9
$USERI4
 70
     0
  9
$USERI5
 70
     0
  9
$USERR1
 40
20.0
  9
$USERR2
 40
0.0
  9
$USERR3
 40
0.0
  9
$USERR4
 40
0.0
  9
$USERR5
 40
0.0
  9
$WORLDVIEW
 70
     1
  9
$SHADEDGE
 70
     3
  9
$SHADEDIF
 70
    70
  9
$TILEMODE
 70
     1
  9
$MAXACTVP
 70
    48
  9
$PINSBASE
 10
0.0
 20
0.0
 30
0.0
  9
$PLIMCHECK
 70
     0
  9
$PEXTMIN
 10
-100000000000000000000.0
 20
-100000000000000000000.0
 30
-100000000000000000000.0
  9
$PEXTMAX
 10
100000000000000000000.0
 20
100000000000000000000.0
 30
100000000000000000000.0
  9
$PLIMMIN
 10
0.0
 20
0.0
  9
$PLIMMAX
 10
12.0
 20
9.0
  9
$UNITMODE
 70
     0
  9
$VISRETAIN
 70
     0
  9
$PLINEGEN
 70
     0
  9
$PSLTSCALE
 70
     0
  9
$TREEDEPTH
 70
  3020
  9
$ATTDIA
 70
     0
  9
$ATTREQ
 70
     1
  9
$BLIPMODE
 70
     1
  9
$COORDS
 70
     1
  9
$DRAGMODE
 70
     2
  9
$OSMODE
 70
     0
  9
$HANDLING
 70
     0
  9
$HANDSEED
  5
FD58
  0
ENDSEC
  0
SECTION
  2
TABLES
  0
TABLE
  2
LTYPE
 70
     2
  0
LTYPE
  2
CONTINUOUS
 70
     0
  3
実線
 72
    65
 73
     0
 40
0.0
  0
LTYPE
  2
DASHDOT
 70
     0
  3
____ _ ____ _ ____ _ ____ _ ____ _ ____ _ ____
 72
    65
 73
     4
 40
5.5
 49
4.0
 49
-0.6
 49
0.3
 49
-0.6
  0
ENDTAB
  0
TABLE
  2
LAYER
 70
    12
  0
LAYER
  2
0
 70
     0
 62
     7
  6
CONTINUOUS
  0
LAYER
  2
BASIS
 70
     0
 62
     6
  6
DASHDOT
  0
LAYER
  2
OUTLINE
 70
     0
 62
     3
  6
CONTINUOUS
  0
LAYER
  2
DETAIL
 70
     0
 62
     5
  6
CONTINUOUS
  0
LAYER
  2
SIZE
 70
     0
 62
    30
  6
CONTINUOUS
  0
LAYER
  2
ARRANGE
 70
     0
 62
     1
  6
CONTINUOUS
  0
LAYER
  2
DEFPOINTS
 70
     0
 62
     7
  6
CONTINUOUS
  0
LAYER
  2
ETC
 70
     0
 62
    61
  6
CONTINUOUS
  0
LAYER
  2
FIX
 70
     0
 62
    11
  6
CONTINUOUS
  0
LAYER
  2
NOTE
 70
     0
 62
     4
  6
CONTINUOUS
  0
LAYER
  2
SERVICESPACE
 70
    64
 62
     2
  6
DASHDOT
  0
LAYER
  2
SYMBOLLINE
 70
    64
 62
    15
  6
CONTINUOUS
  0
ENDTAB
  0
TABLE
  2
STYLE
 70
     1
  0
STYLE
  2
STANDARD
 70
     0
 40
64.0
 41
0.9
 50
0.0
 71
     0
 42
64.0
  3
SIMPLEX.shx
  4
BIGFONT.shx
  0
ENDTAB
  0
TABLE
  2
APPID
 70
    17
  0
APPID
  2
ACAD
 70
     0
  0
APPID
  2
AUTOCAD_POSTSCRIPT_FIGURE
 70
     0
  0
APPID
  2
ACAD_EXEMPT_FROM_CAD_STANDARDS
 70
     0
  0
APPID
  2
ACAD_PSEXT
 70
     0
  0
APPID
  2
ACAUTHENVIRON
 70
     0
  0
APPID
  2
GENIUS_GENOENT_13
 70
     0
  0
APPID
  2
GENIUS_GENCFG_13
 70
     0
  0
APPID
  2
GENIUS_GENCFG0_13
 70
     0
  0
APPID
  2
GENIUS_GENCFG1_13
 70
     0
  0
APPID
  2
GENIUS_GENCFG2_13
 70
     0
  0
APPID
  2
GENIUS_GENCFG3_13
 70
     0
  0
APPID
  2
GENIUS_GENCFG4_13
 70
     0
  0
APPID
  2
GENIUS_GEVCFG0_13
 70
     0
  0
APPID
  2
CONTENTBLOCKICON
 70
     0
  0
APPID
  2
CONTENTBLOCKDESCRIPTION
 70
     0
  0
APPID
  2
ACAD_NAV_VCDISPLAY
 70
     0
  0
APPID
  2
ACAD_MLEADERVER
 70
     0
  0
ENDTAB
  0
TABLE
  2
DIMSTYLE
 70
     1
  0
DIMSTYLE
  2
STANDARD
 70
     0
  3

  4

  5
_ORIGIN
  6

  7

 40
1.0
 41
12.0
 42
20.0
 43
200.0
 44
20.0
 45
0.0
 46
0.0
 47
0.0
 48
0.0
140
64.0
141
0.09
142
0.0
143
25.399999999999999
144
1.0
145
0.0
146
1.0
147
25.0
 71
     0
 72
     0
 73
     0
 74
     0
 75
     0
 76
     0
 77
     1
 78
     8
170
     0
171
     2
172
     1
173
     0
174
     1
175
     0
176
     7
177
     7
178
     7
  0
ENDTAB
  0
TABLE
  2
VIEW
 70
     1
  0
VIEW
  2
ALL
 70
     0
 40
4282.6198079999986
 10
0.0
 20
41.309904000000003
 41
5940.0
 11
0.0
 21
0.0
 31
1.0
 12
0.0
 22
0.0
 32
0.0
 42
50.0
 43
0.0
 44
0.0
 50
0.0
 71
     0
  0
ENDTAB
  0
TABLE
  2
UCS
 70
     0
  0
ENDTAB
  0
TABLE
  2
VPORT
 70
     1
  0
VPORT
  2
*ACTIVE
 70
     0
 10
0.0
 20
0.0
 11
1.0
 21
1.0
 12
195.77638124555349
 22
91.444244518067876
 13
0.0
 23
0.0
 14
1.0
 24
1.0
 15
0.0
 25
0.0
 16
0.0
 26
0.0
 36
1.0
 17
0.0
 27
0.0
 37
0.0
 40
1501.807263091411
 41
1.6339193381592549
 42
50.0
 43
0.0
 44
0.0
 50
0.0
 51
0.0
 71
     0
 72
  1000
 73
     1
 74
     3
 75
     0
 76
     0
 77
     0
 78
     0
  0
ENDTAB
  0
ENDSEC
  0
SECTION
  2
BLOCKS
  0
BLOCK
  8
0
  2
_ORIGIN
 70
     0
 10
0.0
 20
0.0
 30
0.0
  3
_ORIGIN
  1
_ORIGIN
  0
CIRCLE
  8
0
  6
CONTINUOUS
 62
     7
 10
0.0
 20
0.0
 30
0.0
 40
0.5
  0
LINE
  8
0
  6
CONTINUOUS
 62
     7
 10
0.0
 20
0.0
 30
0.0
 11
-1.0
 21
0.0
 31
0.0
  0
ENDBLK
  8
0
  0
ENDSEC
  0
SECTION
  2
ENTITIES
  0
POINT
  8
ARRANGE
  6
CONTINUOUS
 62
     1
 10
0.0
 20
0.0
 30
0.0
  0
LINE
  8
OUTLINE
  6
CONTINUOUS
 62
     3
 10
-213.99999999999989
 20
0.0
 30
0.0
 11
213.99999999999989
 21
0.0
 31
0.0
  0
CIRCLE
  8
ARRANGE
  6
CONTINUOUS
 62
     1
 10
0.0
 20
0.0
 30
0.0
 40
40.0
  0
LINE
  8
OUTLINE
  6
CONTINUOUS
 62
     3
 10
-192.99999999999989
 20
200.0
 30
0.0
 11
192.21791700000011
 21
200.0
 31
0.0
  0
LINE
  8
SIZE
  6
CONTINUOUS
 62
    30
 10
-65.527390999999966
 20
333.10775699999999
 30
0.0
 11
8.472609000000034
 21
333.10775699999999
 31
0.0
  0
LINE
  8
DETAIL
  6
CONTINUOUS
 62
     5
 10
213.99999999999989
 20
0.0
 30
0.0
 11
-213.99999999999989
 21
0.0
 31
0.0
  0
LINE
  8
DETAIL
  6
CONTINUOUS
 62
     5
 10
-72.527390999999966
 20
232.0
 30
0.0
 11
15.47225500000002
 21
232.0
 31
0.0
  0
LINE
  8
DETAIL
  6
CONTINUOUS
 62
     5
 10
-193.02739099999999
 20
193.0
 30
0.0
 11
192.97260900000001
 21
193.0
 31
0.0
  0
TEXT
  8
SIZE
  6
CONTINUOUS
 62
    30
 10
-68.598819571428521
 20
635.90606002989171
 30
0.0
 40
64.0
  1
418
 41
0.9
 72
     1
 11
-0.027390999999966
 21
635.90606002989171
 31
0.0
  0
LINE
  8
SIZE
  6
CONTINUOUS
 62
    30
 10
-197.02739099999999
 20
610.90606002989171
 30
0.0
 11
196.97260900000001
 21
610.90606002989171
 31
0.0
  0
TEXT
  8
SIZE
  6
CONTINUOUS
 62
    30
 10
-68.598819571428521
 20
-490.25317995752363
 30
0.0
 40
64.0
  1
410
 41
0.9
 72
     1
 11
-0.027390999999966
 21
-490.25317995752363
 31
0.0
  0
LINE
  8
SIZE
  6
CONTINUOUS
 62
    30
 10
-193.02739099999999
 20
-512.88381195752368
 30
0.0
 11
192.97260900000001
 21
-512.88381195752368
 31
0.0
  0
TEXT
  8
SIZE
  6
CONTINUOUS
 62
    30
 10
-109.1931052857143
 20
515.09613585549118
 30
0.0
 40
64.0
  1
□386
 41
0.9
 72
     1
 11
-0.027390999999966
 21
515.09613585549118
 31
0.0
  0
LINE
  8
SIZE
  6
CONTINUOUS
 62
    30
 10
180.97260900000001
 20
483.83205199999998
 30
0.0
 11
-181.02739099999999
 21
483.83205199999998
 31
0.0
  0
TEXT
  8
SIZE
  6
CONTINUOUS
 62
    30
 10
-74.084533857142816
 20
-225.08864800000001
 30
0.0
 40
64.0
  1
300
 41
0.9
 72
     1
 11
-0.027390999999966
 21
-225.08864800000001
 31
0.0
  0
LINE
  8
SIZE
  6
CONTINUOUS
 62
    30
 10
-138.02739099999999
 20
-246.81686300000001
 30
0.0
 11
137.97260900000001
 21
-246.81686300000001
 31
0.0
  0
LINE
  8
DETAIL
  6
CONTINUOUS
 62
     5
 10
-193.02739099999999
 20
200.0
 30
0.0
 11
192.97260900000001
 21
200.0
 31
0.0
  0
LINE
  8
OUTLINE
  6
CONTINUOUS
 62
     3
 10
-192.99999999999989
 20
0.0
 30
0.0
 11
-192.99999999999989
 21
200.0
 31
0.0
  0
LINE
  8
SIZE
  6
CONTINUOUS
 62
    30
 10
-373.45396477697642
 20
0.0
 30
0.0
 11
-373.45396477697642
 21
12.0
 31
0.0
  0
CIRCLE
  8
SIZE
  6
CONTINUOUS
 62
    30
 10
-373.45396477697642
 20
0.0
 30
0.0
 40
6.0
  0
LINE
  8
SIZE
  6
CONTINUOUS
 62
    30
 10
-373.45396477697642
 20
0.0
 30
0.0
 11
-373.45396477697642
 21
12.0
 31
0.0
  0
CIRCLE
  8
SIZE
  6
CONTINUOUS
 62
    30
 10
-373.45396477697642
 20
0.0
 30
0.0
 40
6.0
  0
LINE
  8
NOTE
  6
CONTINUOUS
 62
     4
 10
-205.02739099999999
 20
-20.0
 30
0.0
 11
-205.02739099999999
 21
20.0
 31
0.0
  0
LINE
  8
NOTE
  6
CONTINUOUS
 62
     4
 10
-150.02739099999999
 20
-20.0
 30
0.0
 11
-150.02739099999999
 21
20.0
 31
0.0
  0
CIRCLE
  8
FIX
  6
CONTINUOUS
 62
    11
 10
-150.02739099999999
 20
0.0
 30
0.0
 40
2.5
  0
CIRCLE
  8
FIX
  6
CONTINUOUS
 62
    11
 10
-205.02739099999999
 20
0.0
 30
0.0
 40
2.5
  0
LINE
  8
DETAIL
  6
CONTINUOUS
 62
     5
 10
-193.02739099999999
 20
0.0
 30
0.0
 11
-193.02739099999999
 21
200.0
 31
0.0
  0
LINE
  8
BASIS
  6
DASHDOT
 62
     6
 10
0.0
 20
-96.452677999999992
 30
0.0
 11
0.0
 21
280.0
 31
0.0
  0
LINE
  8
SIZE
  6
CONTINUOUS
 62
    30
 10
-255.05478199999999
 20
0.0
 30
0.0
 11
-393.45396477697642
 21
0.0
 31
0.0
  0
LINE
  8
SIZE
  6
CONTINUOUS
 62
    30
 10
-255.05478199999999
 20
0.0
 30
0.0
 11
-393.45396477697642
 21
0.0
 31
0.0
  0
LINE
  8
SIZE
  6
CONTINUOUS
 62
    30
 10
-205.02739099999999
 20
-40.0
 30
0.0
 11
-205.02739099999999
 21
-532.88381195752368
 31
0.0
  0
LINE
  8
SIZE
  6
CONTINUOUS
 62
    30
 10
-193.02739099999999
 20
20.0
 30
0.0
 11
-193.02739099999999
 21
503.83205199999998
 31
0.0
  0
LINE
  8
SIZE
  6
CONTINUOUS
 62
    30
 10
-205.02739099999999
 20
-512.88381195752368
 30
0.0
 11
-193.02739099999999
 21
-512.88381195752368
 31
0.0
  0
CIRCLE
  8
SIZE
  6
CONTINUOUS
 62
    30
 10
-205.02739099999999
 20
-512.88381195752368
 30
0.0
 40
6.0
  0
LINE
  8
SIZE
  6
CONTINUOUS
 62
    30
 10
-193.02739099999999
 20
483.83205199999998
 30
0.0
 11
-181.02739099999999
 21
483.83205199999998
 31
0.0
  0
CIRCLE
  8
SIZE
  6
CONTINUOUS
 62
    30
 10
-193.02739099999999
 20
483.83205199999998
 30
0.0
 40
6.0
  0
LINE
  8
DETAIL
  6
CONTINUOUS
 62
     5
 10
-213.99999999999989
 20
0.0
 30
0.0
 11
-213.99999999999989
 21
-1.0
 31
0.0
  0
LINE
  8
SIZE
  6
CONTINUOUS
 62
    30
 10
-150.02739099999999
 20
-40.0
 30
0.0
 11
-150.02739099999999
 21
-266.81686300000001
 31
0.0
  0
CIRCLE
  8
SIZE
  6
CONTINUOUS
 62
    30
 10
-150.02739099999999
 20
-246.81686300000001
 30
0.0
 40
6.0
  0
LINE
  8
SIZE
  6
CONTINUOUS
 62
    30
 10
-150.02739099999999
 20
-246.81686300000001
 30
0.0
 11
-138.02739099999999
 21
-246.81686300000001
 31
0.0
  0
LINE
  8
NOTE
  6
CONTINUOUS
 62
     4
 10
-185.02739099999999
 20
0.0
 30
0.0
 11
-225.02739099999999
 21
0.0
 31
0.0
  0
LINE
  8
NOTE
  6
CONTINUOUS
 62
     4
 10
-130.02739099999999
 20
0.0
 30
0.0
 11
-170.02739099999999
 21
0.0
 31
0.0
  0
LINE
  8
NOTE
  6
CONTINUOUS
 62
     4
 10
-550.61553599999991
 20
372.73769199999992
 30
0.0
 11
-806.49877472706135
 21
372.73769199999992
 31
0.0
  0
TEXT
  8
NOTE
  6
CONTINUOUS
 62
     4
 10
-789.4622738569667
 20
402.69467400000008
 30
0.0
 40
64.0
  1
AH 4
 41
0.9
  0
LINE
  8
SIZE
  6
CONTINUOUS
 62
    30
 10
-209.02739099999999
 20
248.0
 30
0.0
 11
-209.02739099999999
 21
630.90606002989171
 31
0.0
  0
LINE
  8
NOTE
  6
CONTINUOUS
 62
     4
 10
-209.02739099999999
 20
207.0
 30
0.0
 11
-550.61553599999991
 21
372.73769199999992
 31
0.0
  0
LINE
  8
SIZE
  6
CONTINUOUS
 62
    30
 10
-92.527390999999966
 20
232.0
 30
0.0
 11
-393.45396477697642
 21
232.0
 31
0.0
  0
LINE
  8
NOTE
  6
CONTINUOUS
 62
     4
 10
-169.02739099999999
 20
200.0
 30
0.0
 11
-541.75169699999992
 21
496.77206299999989
 31
0.0
  0
TEXT
  8
SIZE
  6
CONTINUOUS
 62
    30
 10
-399.99060377697629
 20
44.512503142857071
 30
0.0
 40
64.0
  1
232
 50
90.0
 41
0.9
 72
     1
 11
-399.99060377697629
 21
118.56964599999991
 31
0.0
  0
LINE
  8
SIZE
  6
CONTINUOUS
 62
    30
 10
-373.45396477697642
 20
12.0
 30
0.0
 11
-373.45396477697642
 21
220.0
 31
0.0
  0
LINE
  8
SIZE
  6
CONTINUOUS
 62
    30
 10
-373.45396477697642
 20
12.0
 30
0.0
 11
-373.45396477697642
 21
24.0
 31
0.0
  0
CIRCLE
  8
SIZE
  6
CONTINUOUS
 62
    30
 10
-373.45396477697642
 20
232.0
 30
0.0
 40
6.0
  0
LINE
  8
SIZE
  6
CONTINUOUS
 62
    30
 10
-373.45396477697642
 20
232.0
 30
0.0
 11
-373.45396477697642
 21
220.0
 31
0.0
  0
TEXT
  8
NOTE
  6
CONTINUOUS
 62
     4
 10
-640.52781594894975
 20
523.72574900000018
 30
0.0
 40
64.0
  1
EL
 41
0.9
  0
LINE
  8
NOTE
  6
CONTINUOUS
 62
     4
 10
-541.75169699999992
 20
496.77206299999989
 30
0.0
 11
-650.46878694894986
 21
496.77206299999989
 31
0.0
  0
CIRCLE
  8
SIZE
  6
CONTINUOUS
 62
    30
 10
-77.527390999999966
 20
333.10775699999999
 30
0.0
 40
6.0
  0
LINE
  8
SIZE
  6
CONTINUOUS
 62
    30
 10
-77.527390999999966
 20
247.0
 30
0.0
 11
-77.527390999999966
 21
353.10775699999982
 31
0.0
  0
LINE
  8
NOTE
  6
CONTINUOUS
 62
     4
 10
-209.02739099999999
 20
207.0
 30
0.0
 11
-239.748549
 21
233.61660499999991
 31
0.0
  0
LINE
  8
NOTE
  6
CONTINUOUS
 62
     4
 10
-248.44099699999981
 20
214.82405099999991
 30
0.0
 11
-209.02739099999999
 21
207.0
 31
0.0
  0
LINE
  8
DETAIL
  6
CONTINUOUS
 62
     5
 10
-194.77739099999991
 20
207.0
 30
0.0
 11
-194.77739099999991
 21
7.0
 31
0.0
  0
LINE
  8
DETAIL
  6
CONTINUOUS
 62
     5
 10
-198.27739099999999
 20
203.49999999999989
 30
0.0
 11
-198.27739099999999
 21
7.0
 31
0.0
  0
LINE
  8
DETAIL
  6
CONTINUOUS
 62
     5
 10
-198.27739099999999
 20
7.0
 30
0.0
 11
-193.02739099999999
 21
7.0
 31
0.0
  0
LINE
  8
NOTE
  6
CONTINUOUS
 62
     4
 10
-169.02739099999999
 20
200.0
 30
0.0
 11
-205.66486
 21
216.0529079999998
 31
0.0
  0
LINE
  8
NOTE
  6
CONTINUOUS
 62
     4
 10
-192.72991599999989
 20
232.22096099999999
 30
0.0
 11
-169.02739099999999
 21
200.0
 31
0.0
  0
LINE
  8
NOTE
  6
CONTINUOUS
 62
     4
 10
-149.02739099999999
 20
200.0
 30
0.0
 11
-189.02739099999991
 21
200.0
 31
0.0
  0
CIRCLE
  8
FIX
  6
CONTINUOUS
 62
    11
 10
-209.02739099999999
 20
207.0
 30
0.0
 40
7.5
  0
LINE
  8
NOTE
  6
CONTINUOUS
 62
     4
 10
-189.02739099999999
 20
207.0
 30
0.0
 11
-229.02739099999999
 21
207.0
 31
0.0
  0
LINE
  8
NOTE
  6
CONTINUOUS
 62
     4
 10
-209.02739099999999
 20
188.0
 30
0.0
 11
-209.02739099999999
 21
228.0
 31
0.0
  0
LINE
  8
DETAIL
  6
CONTINUOUS
 62
     5
 10
-225.27739099999999
 20
207.0
 30
0.0
 11
-225.27739099999999
 21
203.49999999999989
 31
0.0
  0
LINE
  8
DETAIL
  6
CONTINUOUS
 62
     5
 10
-225.27739099999999
 20
207.0
 30
0.0
 11
-193.02739099999999
 21
207.0
 31
0.0
  0
LINE
  8
DETAIL
  6
CONTINUOUS
 62
     5
 10
-225.27739099999999
 20
203.49999999999989
 30
0.0
 11
-198.27739099999999
 21
203.49999999999989
 31
0.0
  0
LINE
  8
DETAIL
  6
CONTINUOUS
 62
     5
 10
-193.02739099999999
 20
200.0
 30
0.0
 11
-193.02739099999999
 21
207.0
 31
0.0
  0
LINE
  8
NOTE
  6
CONTINUOUS
 62
     4
 10
-169.02739099999999
 20
180.0
 30
0.0
 11
-169.02739099999999
 21
220.0
 31
0.0
  0
ARC
  8
DETAIL
  6
CONTINUOUS
 62
     5
 10
-72.527390999999966
 20
227.0
 30
0.0
 40
5.0
 50
90.0
 51
180.0
  0
LINE
  8
DETAIL
  6
CONTINUOUS
 62
     5
 10
-77.527390999999966
 20
200.0
 30
0.0
 11
-77.527390999999966
 21
227.0
 31
0.0
  0
LINE
  8
SIZE
  6
CONTINUOUS
 62
    30
 10
-77.527390999999966
 20
333.10775699999999
 30
0.0
 11
-65.527390999999966
 21
333.10775699999999
 31
0.0
  0
CIRCLE
  8
SIZE
  6
CONTINUOUS
 62
    30
 10
-209.02739099999999
 20
610.90606002989171
 30
0.0
 40
6.0
  0
LINE
  8
SIZE
  6
CONTINUOUS
 62
    30
 10
-209.02739099999999
 20
610.90606002989171
 30
0.0
 11
-197.02739099999999
 21
610.90606002989171
 31
0.0
  0
LINE
  8
OUTLINE
  6
CONTINUOUS
 62
     3
 10
193.00000000000011
 20
0.0
 30
0.0
 11
193.00000000000011
 21
200.0
 31
0.0
  0
LINE
  8
DETAIL
  6
CONTINUOUS
 62
     5
 10
192.97260900000001
 20
0.0
 30
0.0
 11
192.97260900000001
 21
200.0
 31
0.0
  0
LINE
  8
NOTE
  6
CONTINUOUS
 62
     4
 10
204.9020949999998
 20
0.0649100000000544
 30
0.0
 11
236.39631299999991
 21
-24.595061999999981
 31
0.0
  0
LINE
  8
NOTE
  6
CONTINUOUS
 62
     4
 10
219.84690199999989
 20
-37.038361000000009
 30
0.0
 11
204.9020949999998
 21
0.0649100000000544
 31
0.0
  0
LINE
  8
NOTE
  6
CONTINUOUS
 62
     4
 10
204.94671600000001
 20
0.0222559999999703
 30
0.0
 11
328.69178100000011
 21
-167.89204699999991
 31
0.0
  0
LINE
  8
NOTE
  6
CONTINUOUS
 62
     4
 10
149.97260900000001
 20
-20.0
 30
0.0
 11
149.97260900000001
 21
20.0
 31
0.0
  0
CIRCLE
  8
FIX
  6
CONTINUOUS
 62
    11
 10
149.97260900000001
 20
0.0
 30
0.0
 40
2.5
  0
CIRCLE
  8
FIX
  6
CONTINUOUS
 62
    11
 10
204.97260900000001
 20
0.0
 30
0.0
 40
2.5
  0
LINE
  8
NOTE
  6
CONTINUOUS
 62
     4
 10
204.97260900000001
 20
-20.0
 30
0.0
 11
204.97260900000001
 21
20.0
 31
0.0
  0
LINE
  8
NOTE
  6
CONTINUOUS
 62
     4
 10
719.55015000000014
 20
-167.89204699999991
 30
0.0
 11
328.69178100000011
 21
-167.89204699999991
 31
0.0
  0
TEXT
  8
NOTE
  6
CONTINUOUS
 62
     4
 10
356.03437000000002
 20
-134.92777699999999
 30
0.0
 40
64.0
  1
8-φ5×8
 41
0.9
  0
LINE
  8
SIZE
  6
CONTINUOUS
 62
    30
 10
204.97260900000001
 20
-40.0
 30
0.0
 11
204.97260900000001
 21
-532.88381195752368
 31
0.0
  0
LINE
  8
SIZE
  6
CONTINUOUS
 62
    30
 10
192.97260900000001
 20
20.0
 30
0.0
 11
192.97260900000001
 21
503.83205199999998
 31
0.0
  0
LINE
  8
SIZE
  6
CONTINUOUS
 62
    30
 10
204.97260900000001
 20
-512.88381195752368
 30
0.0
 11
192.97260900000001
 21
-512.88381195752368
 31
0.0
  0
CIRCLE
  8
SIZE
  6
CONTINUOUS
 62
    30
 10
204.97260900000001
 20
-512.88381195752368
 30
0.0
 40
6.0
  0
LINE
  8
SIZE
  6
CONTINUOUS
 62
    30
 10
192.97260900000001
 20
483.83205199999998
 30
0.0
 11
180.97260900000001
 21
483.83205199999998
 31
0.0
  0
CIRCLE
  8
SIZE
  6
CONTINUOUS
 62
    30
 10
192.97260900000001
 20
483.83205199999998
 30
0.0
 40
6.0
  0
LINE
  8
SIZE
  6
CONTINUOUS
 62
    30
 10
149.97260900000001
 20
-40.0
 30
0.0
 11
149.97260900000001
 21
-266.81686300000001
 31
0.0
  0
CIRCLE
  8
SIZE
  6
CONTINUOUS
 62
    30
 10
149.97260900000001
 20
-246.81686300000001
 30
0.0
 40
6.0
  0
LINE
  8
SIZE
  6
CONTINUOUS
 62
    30
 10
149.97260900000001
 20
-246.81686300000001
 30
0.0
 11
137.97260900000001
 21
-246.81686300000001
 31
0.0
  0
LINE
  8
NOTE
  6
CONTINUOUS
 62
     4
 10
129.97260900000001
 20
0.0
 30
0.0
 11
169.97260900000001
 21
0.0
 31
0.0
  0
LINE
  8
NOTE
  6
CONTINUOUS
 62
     4
 10
184.97260900000001
 20
0.0
 30
0.0
 11
224.97260900000001
 21
0.0
 31
0.0
  0
LINE
  8
DETAIL
  6
CONTINUOUS
 62
     5
 10
213.99999999999989
 20
0.0
 30
0.0
 11
213.99999999999989
 21
-1.0
 31
0.0
  0
LINE
  8
SIZE
  6
CONTINUOUS
 62
    30
 10
208.97260900000001
 20
248.0
 30
0.0
 11
208.97260900000001
 21
630.90606002989171
 31
0.0
  0
CIRCLE
  8
SIZE
  6
CONTINUOUS
 62
    30
 10
20.47260900000003
 20
333.10775699999999
 30
0.0
 40
6.0
  0
LINE
  8
SIZE
  6
CONTINUOUS
 62
    30
 10
20.47260900000003
 20
247.0
 30
0.0
 11
20.47260900000003
 21
353.10775699999982
 31
0.0
  0
LINE
  8
DETAIL
  6
CONTINUOUS
 62
     5
 10
194.72260899999981
 20
207.0
 30
0.0
 11
194.72260899999981
 21
7.0
 31
0.0
  0
LINE
  8
DETAIL
  6
CONTINUOUS
 62
     5
 10
198.22260900000001
 20
203.49999999999989
 30
0.0
 11
198.22260900000001
 21
7.0
 31
0.0
  0
LINE
  8
DETAIL
  6
CONTINUOUS
 62
     5
 10
203.97260900000001
 20
61.959362000000063
 30
0.0
 11
203.97260900000001
 21
203.49999999999989
 31
0.0
  0
LINE
  8
DETAIL
  6
CONTINUOUS
 62
     5
 10
198.22260900000001
 20
7.0
 30
0.0
 11
192.97260900000001
 21
7.0
 31
0.0
  0
ARC
  8
DETAIL
  6
CONTINUOUS
 62
     5
 10
188.97260900000001
 20
61.959362000000063
 30
0.0
 40
15.0
 50
308.07312332292531
 51
0.0
  0
LINE
  8
DETAIL
  6
CONTINUOUS
 62
     5
 10
20.055185000000051
 20
229.0
 30
0.0
 11
185.97260900000001
 21
229.0
 31
0.0
  0
ARC
  8
DETAIL
  6
CONTINUOUS
 62
     5
 10
15.47260900000003
 20
227.0
 30
0.0
 40
5.0
 50
0.0
 51
90.0
  0
LINE
  8
DETAIL
  6
CONTINUOUS
 62
     5
 10
20.47260900000003
 20
200.0
 30
0.0
 11
20.47260900000003
 21
227.0
 31
0.0
  0
CIRCLE
  8
FIX
  6
CONTINUOUS
 62
    11
 10
208.97260900000001
 20
207.0
 30
0.0
 40
7.5
  0
LINE
  8
DETAIL
  6
CONTINUOUS
 62
     5
 10
225.22260900000001
 20
207.0
 30
0.0
 11
225.22260900000001
 21
203.49999999999989
 31
0.0
  0
LINE
  8
DETAIL
  6
CONTINUOUS
 62
     5
 10
225.22260900000001
 20
207.0
 30
0.0
 11
192.97260900000001
 21
207.0
 31
0.0
  0
LINE
  8
DETAIL
  6
CONTINUOUS
 62
     5
 10
225.22260900000001
 20
203.49999999999989
 30
0.0
 11
198.22260900000001
 21
203.49999999999989
 31
0.0
  0
LINE
  8
DETAIL
  6
CONTINUOUS
 62
     5
 10
192.97260900000001
 20
200.0
 30
0.0
 11
192.97260900000001
 21
207.0
 31
0.0
  0
LINE
  8
NOTE
  6
CONTINUOUS
 62
     4
 10
188.97260900000001
 20
207.0
 30
0.0
 11
228.97260900000001
 21
207.0
 31
0.0
  0
LINE
  8
NOTE
  6
CONTINUOUS
 62
     4
 10
208.97260900000001
 20
188.0
 30
0.0
 11
208.97260900000001
 21
228.0
 31
0.0
  0
ARC
  8
DETAIL
  6
CONTINUOUS
 62
     5
 10
181.20437419828099
 20
206.40290414771189
 30
0.0
 40
22.766024668337089
 50
1.5028980429975081
 51
83.015835339031582
  0
LINE
  8
SIZE
  6
CONTINUOUS
 62
    30
 10
20.47260900000003
 20
333.10775699999999
 30
0.0
 11
8.472609000000034
 21
333.10775699999999
 31
0.0
  0
TEXT
  8
SIZE
  6
CONTINUOUS
 62
    30
 10
-112.37979079977291
 20
358.10775699999999
 30
0.0
 40
64.0
  1
φ98
 41
0.9
 72
     1
 11
-35.579790799772923
 21
358.10775699999999
 31
0.0
  0
CIRCLE
  8
SIZE
  6
CONTINUOUS
 62
    30
 10
208.97260900000001
 20
610.90606002989171
 30
0.0
 40
6.0
  0
LINE
  8
SIZE
  6
CONTINUOUS
 62
    30
 10
208.97260900000001
 20
610.90606002989171
 30
0.0
 11
196.97260900000001
 21
610.90606002989171
 31
0.0
  0
TEXT
  8
ETC
  6
CONTINUOUS
 62
    61
 10
391.71960947739461
 20
630.60275825424401
 30
0.0
 40
64.0
  1
VD-23ZLX13-IN_3
 41
0.9
  0
TEXT
  8
ETC
  6
CONTINUOUS
 62
    61
 10
387.53361547739422
 20
512.64744823941282
 30
0.0
 40
64.0
  1
換気扇
 41
0.9
  0
TEXT
  8
ETC
  6
CONTINUOUS
 62
    61
 10
438.14111812965092
 20
433.21177372082821
 30
0.0
 40
40.0
  1
VD-23ZLX13-IN
 41
0.9
  0
LINE
  8
SIZE
  6
CONTINUOUS
 62
    30
 10
203.96256734631211
 20
227.00000031772959
 30
0.0
 11
203.96256734631211
 21
503.83205199999998
 31
0.0
  0
LINE
  8
SIZE
  6
CONTINUOUS
 62
    30
 10
192.97260900000001
 20
227.0
 30
0.0
 11
192.97260900000001
 21
503.83205199999998
 31
0.0
  0
LINE
  8
SIZE
  6
CONTINUOUS
 62
    30
 10
180.97260900000001
 20
483.83205199999998
 30
0.0
 11
168.97260900000001
 21
483.83205199999998
 31
0.0
  0
LINE
  8
SIZE
  6
CONTINUOUS
 62
    30
 10
215.96256734631211
 20
483.83205199999998
 30
0.0
 11
335.56256734631199
 21
483.83205199999998
 31
0.0
  0
LINE
  8
SIZE
  6
CONTINUOUS
 62
    30
 10
192.97260900000001
 20
483.83205199999998
 30
0.0
 11
203.96256734631211
 21
483.83205199999998
 31
0.0
  0
CIRCLE
  8
SIZE
  6
CONTINUOUS
 62
    30
 10
192.97260900000001
 20
483.83205199999998
 30
0.0
 40
6.0
  0
LINE
  8
SIZE
  6
CONTINUOUS
 62
    30
 10
192.97260900000001
 20
483.83205199999998
 30
0.0
 11
180.97260900000001
 21
483.83205199999998
 31
0.0
  0
CIRCLE
  8
SIZE
  6
CONTINUOUS
 62
    30
 10
203.96256734631211
 20
483.83205199999998
 30
0.0
 40
6.0
  0
LINE
  8
SIZE
  6
CONTINUOUS
 62
    30
 10
203.96256734631211
 20
483.83205199999998
 30
0.0
 11
215.96256734631211
 21
483.83205199999998
 31
0.0
  0
TEXT
  8
SIZE
  6
CONTINUOUS
 62
    30
 10
252.962567346312
 20
508.83205199999998
 30
0.0
 40
64.0
  1
11
 41
0.9
 72
     1
 11
281.76256734631198
 21
508.83205199999998
 31
0.0
  0
POINT
  8
DEFPOINTS
  6
CONTINUOUS
 62
    30
 10
203.96256734631211
 20
207.00000031772959
 30
0.0
  0
POINT
  8
DEFPOINTS
  6
CONTINUOUS
 62
    30
 10
192.97260900000001
 20
207.0
 30
0.0
  0
POINT
  8
DEFPOINTS
  6
CONTINUOUS
 62
    30
 10
192.97260900000001
 20
483.83205199999998
 30
0.0
  0
LINE
  8
SIZE
  6
CONTINUOUS
 62
    30
 10
233.99999999999989
 20
0.0
 30
0.0
 11
460.6287806710526
 21
0.0
 31
0.0
  0
LINE
  8
SIZE
  6
CONTINUOUS
 62
    30
 10
218.22260900000001
 20
50.150996321380489
 30
0.0
 11
460.6287806710526
 21
50.150996321380489
 31
0.0
  0
LINE
  8
SIZE
  6
CONTINUOUS
 62
    30
 10
440.6287806710526
 20
-12.0
 30
0.0
 11
440.6287806710526
 21
-24.0
 31
0.0
  0
LINE
  8
SIZE
  6
CONTINUOUS
 62
    30
 10
440.6287806710526
 20
62.150996321380489
 30
0.0
 11
440.6287806710526
 21
219.40813917852341
 31
0.0
  0
LINE
  8
SIZE
  6
CONTINUOUS
 62
    30
 10
440.6287806710526
 20
0.0
 30
0.0
 11
440.6287806710526
 21
50.150996321380489
 31
0.0
  0
CIRCLE
  8
SIZE
  6
CONTINUOUS
 62
    30
 10
440.6287806710526
 20
0.0
 30
0.0
 40
6.0
  0
LINE
  8
SIZE
  6
CONTINUOUS
 62
    30
 10
440.6287806710526
 20
0.0
 30
0.0
 11
440.6287806710526
 21
-12.0
 31
0.0
  0
CIRCLE
  8
SIZE
  6
CONTINUOUS
 62
    30
 10
440.6287806710526
 20
50.150996321380489
 30
0.0
 40
6.0
  0
LINE
  8
SIZE
  6
CONTINUOUS
 62
    30
 10
440.6287806710526
 20
50.150996321380489
 30
0.0
 11
440.6287806710526
 21
62.150996321380489
 31
0.0
  0
TEXT
  8
SIZE
  6
CONTINUOUS
 62
    30
 10
415.6287806710526
 20
101.1509963213804
 30
0.0
 40
64.0
  1
50
 50
90.0
 41
0.9
 72
     1
 11
415.6287806710526
 21
147.77956774995189
 31
0.0
  0
POINT
  8
DEFPOINTS
  6
CONTINUOUS
 62
    30
 10
213.99999999999989
 20
0.0
 30
0.0
  0
POINT
  8
DEFPOINTS
  6
CONTINUOUS
 62
    30
 10
198.22260900000001
 20
50.150996321380489
 30
0.0
  0
POINT
  8
DEFPOINTS
  6
CONTINUOUS
 62
    30
 10
440.6287806710526
 20
50.150996321380489
 30
0.0
  0
LINE
  8
SIZE
  6
CONTINUOUS
 62
    30
 10
245.22260900000001
 20
207.0
 30
0.0
 11
608.99274665012319
 21
206.99999999999989
 31
0.0
  0
LINE
  8
SIZE
  6
CONTINUOUS
 62
    30
 10
233.99999999999989
 20
0.0
 30
0.0
 11
608.99274665012319
 21
0.0
 31
0.0
  0
LINE
  8
SIZE
  6
CONTINUOUS
 62
    30
 10
588.99274665012319
 20
194.99999999999989
 30
0.0
 11
588.99274665012319
 21
12.0
 31
0.0
  0
CIRCLE
  8
SIZE
  6
CONTINUOUS
 62
    30
 10
588.99274665012319
 20
206.99999999999989
 30
0.0
 40
6.0
  0
LINE
  8
SIZE
  6
CONTINUOUS
 62
    30
 10
588.99274665012319
 20
206.99999999999989
 30
0.0
 11
588.99274665012319
 21
194.99999999999989
 31
0.0
  0
CIRCLE
  8
SIZE
  6
CONTINUOUS
 62
    30
 10
588.99274665012319
 20
0.0
 30
0.0
 40
6.0
  0
LINE
  8
SIZE
  6
CONTINUOUS
 62
    30
 10
588.99274665012319
 20
0.0
 30
0.0
 11
588.99274665012319
 21
12.0
 31
0.0
  0
TEXT
  8
SIZE
  6
CONTINUOUS
 62
    30
 10
563.99274665012319
 20
29.44285714285715
 30
0.0
 40
64.0
  1
207
 50
90.0
 41
0.9
 72
     1
 11
563.99274665012319
 21
103.5
 31
0.0
  0
POINT
  8
DEFPOINTS
  6
CONTINUOUS
 62
    30
 10
225.22260900000001
 20
207.0
 30
0.0
  0
POINT
  8
DEFPOINTS
  6
CONTINUOUS
 62
    30
 10
213.99999999999989
 20
0.0
 30
0.0
  0
POINT
  8
DEFPOINTS
  6
CONTINUOUS
 62
    30
 10
588.99274665012319
 20
0.0
 30
0.0
  0
LINE
  8
DETAIL
  6
CONTINUOUS
 62
     5
 10
195.97260900000001
 20
8.0
 30
0.0
 11
195.97260900000001
 21
28.0
 31
0.0
  0
LINE
  8
DETAIL
  6
CONTINUOUS
 62
     5
 10
195.97260900000001
 20
8.0
 30
0.0
 11
192.97260900000001
 21
8.0
 31
0.0
  0
LINE
  8
DETAIL
  6
CONTINUOUS
 62
     5
 10
195.97260900000001
 20
28.0
 30
0.0
 11
192.97260900000001
 21
28.0
 31
0.0
  0
LINE
  8
DETAIL
  6
CONTINUOUS
 62
     5
 10
-196.02739099999999
 20
8.0
 30
0.0
 11
-196.02739099999999
 21
28.0
 31
0.0
  0
LINE
  8
DETAIL
  6
CONTINUOUS
 62
     5
 10
-196.02739099999999
 20
8.0
 30
0.0
 11
-193.02739099999999
 21
8.0
 31
0.0
  0
LINE
  8
DETAIL
  6
CONTINUOUS
 62
     5
 10
-196.02739099999999
 20
28.0
 30
0.0
 11
-193.02739099999999
 21
28.0
 31
0.0
  0
LINE
  8
SIZE
  6
CONTINUOUS
 62
    30
 10
-196.02739099999999
 20
-12.0
 30
0.0
 11
-196.02739099999999
 21
-399.55048994033859
 31
0.0
  0
LINE
  8
SIZE
  6
CONTINUOUS
 62
    30
 10
195.97260900000001
 20
-12.0
 30
0.0
 11
195.97260900000001
 21
-399.55048994033859
 31
0.0
  0
LINE
  8
SIZE
  6
CONTINUOUS
 62
    30
 10
-184.02739099999999
 20
-379.55048994033859
 30
0.0
 11
183.97260900000001
 21
-379.55048994033859
 31
0.0
  0
CIRCLE
  8
SIZE
  6
CONTINUOUS
 62
    30
 10
-196.02739099999999
 20
-379.55048994033859
 30
0.0
 40
6.0
  0
LINE
  8
SIZE
  6
CONTINUOUS
 62
    30
 10
-196.02739099999999
 20
-379.55048994033859
 30
0.0
 11
-184.02739099999999
 21
-379.55048994033859
 31
0.0
  0
CIRCLE
  8
SIZE
  6
CONTINUOUS
 62
    30
 10
195.97260900000001
 20
-379.55048994033859
 30
0.0
 40
6.0
  0
LINE
  8
SIZE
  6
CONTINUOUS
 62
    30
 10
195.97260900000001
 20
-379.55048994033859
 30
0.0
 11
183.97260900000001
 21
-379.55048994033859
 31
0.0
  0
TEXT
  8
SIZE
  6
CONTINUOUS
 62
    30
 10
-74.084533857142816
 20
-354.55048994033859
 30
0.0
 40
64.0
  1
392
 41
0.9
 72
     1
 11
-0.027390999999966
 21
-354.55048994033859
 31
0.0
  0
POINT
  8
DEFPOINTS
  6
CONTINUOUS
 62
    30
 10
-196.02739099999999
 20
8.0
 30
0.0
  0
POINT
  8
DEFPOINTS
  6
CONTINUOUS
 62
    30
 10
195.97260900000001
 20
8.0
 30
0.0
  0
POINT
  8
DEFPOINTS
  6
CONTINUOUS
 62
    30
 10
195.97260900000001
 20
-379.55048994033859
 30
0.0
  0
LINE
  8
DETAIL
  6
CONTINUOUS
 62
     5
 10
213.99999999999989
 20
-1.0
 30
0.0
 11
-213.99999999999989
 21
-1.0
 31
0.0
  0
LINE
  8
SIZE
  6
CONTINUOUS
 62
    30
 10
213.99999999999989
 20
-21.0
 30
0.0
 11
213.9999999999998
 21
-654.17441779762612
 31
0.0
  0
LINE
  8
SIZE
  6
CONTINUOUS
 62
    30
 10
-213.99999999999989
 20
-21.0
 30
0.0
 11
-213.99999999999989
 21
-654.17441779762612
 31
0.0
  0
LINE
  8
SIZE
  6
CONTINUOUS
 62
    30
 10
201.9999999999998
 20
-634.17441779762612
 30
0.0
 11
-201.99999999999989
 21
-634.17441779762612
 31
0.0
  0
CIRCLE
  8
SIZE
  6
CONTINUOUS
 62
    30
 10
213.9999999999998
 20
-634.17441779762612
 30
0.0
 40
6.0
  0
LINE
  8
SIZE
  6
CONTINUOUS
 62
    30
 10
213.9999999999998
 20
-634.17441779762612
 30
0.0
 11
201.9999999999998
 21
-634.17441779762612
 31
0.0
  0
CIRCLE
  8
SIZE
  6
CONTINUOUS
 62
    30
 10
-213.99999999999989
 20
-634.17441779762612
 30
0.0
 40
6.0
  0
LINE
  8
SIZE
  6
CONTINUOUS
 62
    30
 10
-213.99999999999989
 20
-634.17441779762612
 30
0.0
 11
-201.99999999999989
 21
-634.17441779762612
 31
0.0
  0
TEXT
  8
SIZE
  6
CONTINUOUS
 62
    30
 10
-74.057142857142836
 20
-609.17441779762612
 30
0.0
 40
64.0
  1
428
 41
0.9
 72
     1
 11
0.0
 21
-609.17441779762612
 31
0.0
  0
POINT
  8
DEFPOINTS
  6
CONTINUOUS
 62
    30
 10
213.99999999999989
 20
-1.0
 30
0.0
  0
POINT
  8
DEFPOINTS
  6
CONTINUOUS
 62
    30
 10
-213.99999999999989
 20
-1.0
 30
0.0
  0
POINT
  8
DEFPOINTS
  6
CONTINUOUS
 62
    30
 10
-213.99999999999989
 20
-634.17441779762612
 30
0.0
  0
ENDSEC
  0
EOF
