  0
SECTION
  2
HEADER
  9
$ACADVER
  1
AC1009
  9
$DWGCODEPAGE
  3
dos932
  9
$INSBASE
 10
0.0
 20
0.0
 30
0.0
  9
$EXTMIN
 10
-1001.087935537902
 20
-682.8460579072671
 30
-0.0015258207003583
  9
$EXTMAX
 10
971.630870878731
 20
944.00025257375091
 30
0.0000000349246037
  9
$LIMMIN
 10
-2970.0
 20
-2100.0
  9
$LIMMAX
 10
2970.0
 20
2100.0
  9
$ORTHOMODE
 70
     1
  9
$REGENMODE
 70
     1
  9
$FILLMODE
 70
     1
  9
$QTEXTMODE
 70
     0
  9
$MIRRTEXT
 70
     0
  9
$LTSCALE
 40
20.0
  9
$ATTMODE
 70
     1
  9
$TEXTSIZE
 40
64.0
  9
$TRACEWID
 40
0.05
  9
$TEXTSTYLE
  7
STANDARD
  9
$CLAYER
  8
SIZE
  9
$CELTYPE
  6
CONTINUOUS
  9
$CECOLOR
 62
     7
  9
$DIMSCALE
 40
1.0
  9
$DIMASZ
 40
12.0
  9
$DIMEXO
 40
20.0
  9
$DIMDLI
 40
200.0
  9
$DIMRND
 40
0.0
  9
$DIMDLE
 40
0.0
  9
$DIMEXE
 40
20.0
  9
$DIMTP
 40
0.0
  9
$DIMTM
 40
0.0
  9
$DIMTXT
 40
64.0
  9
$DIMCEN
 40
0.09
  9
$DIMTSZ
 40
0.0
  9
$DIMTOL
 70
     0
  9
$DIMLIM
 70
     0
  9
$DIMTIH
 70
     0
  9
$DIMTOH
 70
     0
  9
$DIMSE1
 70
     0
  9
$DIMSE2
 70
     0
  9
$DIMTAD
 70
     1
  9
$DIMZIN
 70
     8
  9
$DIMBLK
  1

  9
$DIMASO
 70
     1
  9
$DIMSHO
 70
     0
  9
$DIMPOST
  1

  9
$DIMAPOST
  1

  9
$DIMALT
 70
     0
  9
$DIMALTD
 70
     2
  9
$DIMALTF
 40
25.399999999999999
  9
$DIMLFAC
 40
1.0
  9
$DIMTOFL
 70
     1
  9
$DIMTVP
 40
0.0
  9
$DIMTIX
 70
     1
  9
$DIMSOXD
 70
     0
  9
$DIMSAH
 70
     0
  9
$DIMBLK1
  1

  9
$DIMBLK2
  1

  9
$DIMSTYLE
  2
STANDARD
  9
$DIMCLRD
 70
     7
  9
$DIMCLRE
 70
     7
  9
$DIMCLRT
 70
     7
  9
$DIMTFAC
 40
1.0
  9
$DIMGAP
 40
25.0
  9
$LUNITS
 70
     2
  9
$LUPREC
 70
     4
  9
$SKETCHINC
 40
0.1
  9
$FILLETRAD
 40
3.0
  9
$AUNITS
 70
     1
  9
$AUPREC
 70
     3
  9
$MENU
  1
ACAD
  9
$ELEVATION
 40
0.0
  9
$PELEVATION
 40
0.0
  9
$THICKNESS
 40
0.0
  9
$LIMCHECK
 70
     0
  9
$CHAMFERA
 40
0.0
  9
$CHAMFERB
 40
0.0
  9
$SKPOLY
 70
     0
  9
$TDCREATE
 40
2453019.62301037
  9
$TDUPDATE
 40
2459025.520308877
  9
$TDINDWG
 40
1.7276780208
  9
$TDUSRTIMER
 40
1.7276780208
  9
$USRTIMER
 70
     1
  9
$ANGBASE
 50
0.0
  9
$ANGDIR
 70
     0
  9
$PDMODE
 70
     3
  9
$PDSIZE
 40
-2.0
  9
$PLINEWID
 40
0.0
  9
$SPLFRAME
 70
     0
  9
$SPLINETYPE
 70
     6
  9
$SPLINESEGS
 70
     8
  9
$SURFTAB1
 70
     6
  9
$SURFTAB2
 70
     6
  9
$SURFTYPE
 70
     6
  9
$SURFU
 70
     6
  9
$SURFV
 70
     6
  9
$UCSNAME
  2

  9
$UCSORG
 10
0.0
 20
0.0
 30
0.0
  9
$UCSXDIR
 10
1.0
 20
0.0
 30
0.0
  9
$UCSYDIR
 10
0.0
 20
1.0
 30
0.0
  9
$PUCSNAME
  2

  9
$PUCSORG
 10
0.0
 20
0.0
 30
0.0
  9
$PUCSXDIR
 10
1.0
 20
0.0
 30
0.0
  9
$PUCSYDIR
 10
0.0
 20
1.0
 30
0.0
  9
$USERI1
 70
     0
  9
$USERI2
 70
     0
  9
$USERI3
 70
     0
  9
$USERI4
 70
     0
  9
$USERI5
 70
     0
  9
$USERR1
 40
20.0
  9
$USERR2
 40
0.0
  9
$USERR3
 40
0.0
  9
$USERR4
 40
0.0
  9
$USERR5
 40
0.0
  9
$WORLDVIEW
 70
     1
  9
$SHADEDGE
 70
     3
  9
$SHADEDIF
 70
    70
  9
$TILEMODE
 70
     1
  9
$MAXACTVP
 70
    48
  9
$PINSBASE
 10
0.0
 20
0.0
 30
0.0
  9
$PLIMCHECK
 70
     0
  9
$PEXTMIN
 10
-100000000000000000000.0
 20
-100000000000000000000.0
 30
-100000000000000000000.0
  9
$PEXTMAX
 10
100000000000000000000.0
 20
100000000000000000000.0
 30
100000000000000000000.0
  9
$PLIMMIN
 10
0.0
 20
0.0
  9
$PLIMMAX
 10
12.0
 20
9.0
  9
$UNITMODE
 70
     0
  9
$VISRETAIN
 70
     0
  9
$PLINEGEN
 70
     0
  9
$PSLTSCALE
 70
     0
  9
$TREEDEPTH
 70
  3020
  9
$ATTDIA
 70
     0
  9
$ATTREQ
 70
     1
  9
$BLIPMODE
 70
     1
  9
$COORDS
 70
     1
  9
$DRAGMODE
 70
     2
  9
$OSMODE
 70
     0
  9
$HANDLING
 70
     0
  9
$HANDSEED
  5
F1A0
  0
ENDSEC
  0
SECTION
  2
TABLES
  0
TABLE
  2
LTYPE
 70
     3
  0
LTYPE
  2
CONTINUOUS
 70
     0
  3
実線
 72
    65
 73
     0
 40
0.0
  0
LTYPE
  2
DASHDOT
 70
     0
  3
____ _ ____ _ ____ _ ____ _ ____ _ ____ _ ____
 72
    65
 73
     4
 40
5.5
 49
4.0
 49
-0.6
 49
0.3
 49
-0.6
  0
LTYPE
  2
DASHED
 70
     0
  3
-- -- -- -- -- -- -- -- -- -- -- -- -- -- --
 72
    65
 73
     2
 40
0.75
 49
0.5
 49
-0.25
  0
ENDTAB
  0
TABLE
  2
LAYER
 70
    12
  0
LAYER
  2
0
 70
     0
 62
     7
  6
CONTINUOUS
  0
LAYER
  2
BASIS
 70
     0
 62
     6
  6
DASHDOT
  0
LAYER
  2
OUTLINE
 70
     0
 62
     3
  6
CONTINUOUS
  0
LAYER
  2
DETAIL
 70
     0
 62
     5
  6
CONTINUOUS
  0
LAYER
  2
SIZE
 70
     0
 62
    30
  6
CONTINUOUS
  0
LAYER
  2
ARRANGE
 70
     0
 62
     1
  6
CONTINUOUS
  0
LAYER
  2
DEFPOINTS
 70
     0
 62
     7
  6
CONTINUOUS
  0
LAYER
  2
ETC
 70
     0
 62
    61
  6
CONTINUOUS
  0
LAYER
  2
FIX
 70
     0
 62
    11
  6
CONTINUOUS
  0
LAYER
  2
NOTE
 70
     0
 62
     4
  6
CONTINUOUS
  0
LAYER
  2
SERVICESPACE
 70
    64
 62
     2
  6
DASHDOT
  0
LAYER
  2
SYMBOLLINE
 70
    64
 62
    15
  6
CONTINUOUS
  0
ENDTAB
  0
TABLE
  2
STYLE
 70
     1
  0
STYLE
  2
STANDARD
 70
     0
 40
64.0
 41
0.9
 50
0.0
 71
     0
 42
64.0
  3
SIMPLEX.shx
  4
BIGFONT.shx
  0
ENDTAB
  0
TABLE
  2
APPID
 70
    19
  0
APPID
  2
ACAD
 70
     0
  0
APPID
  2
AUTOCAD_POSTSCRIPT_FIGURE
 70
     0
  0
APPID
  2
ACAD_EXEMPT_FROM_CAD_STANDARDS
 70
     0
  0
APPID
  2
ACAD_PSEXT
 70
     0
  0
APPID
  2
ACAUTHENVIRON
 70
     0
  0
APPID
  2
GENIUS_GENOENT_13
 70
     0
  0
APPID
  2
GENIUS_GENCFG_13
 70
     0
  0
APPID
  2
GENIUS_GENCFG0_13
 70
     0
  0
APPID
  2
GENIUS_GENCFG1_13
 70
     0
  0
APPID
  2
GENIUS_GENCFG2_13
 70
     0
  0
APPID
  2
GENIUS_GENCFG3_13
 70
     0
  0
APPID
  2
GENIUS_GENCFG4_13
 70
     0
  0
APPID
  2
GENIUS_GEVCFG0_13
 70
     0
  0
APPID
  2
CONTENTBLOCKICON
 70
     0
  0
APPID
  2
CONTENTBLOCKDESCRIPTION
 70
     0
  0
APPID
  2
ACAD_NAV_VCDISPLAY
 70
     0
  0
APPID
  2
ACAD_MLEADERVER
 70
     0
  0
APPID
  2
ACDBDYNAMICBLOCKTRUENAME
 70
     0
  0
APPID
  2
ACDBDYNAMICBLOCKGUID
 70
     0
  0
ENDTAB
  0
TABLE
  2
DIMSTYLE
 70
     1
  0
DIMSTYLE
  2
STANDARD
 70
     0
  3

  4

  5
_ORIGIN
  6

  7

 40
1.0
 41
12.0
 42
20.0
 43
200.0
 44
20.0
 45
0.0
 46
0.0
 47
0.0
 48
0.0
140
64.0
141
0.09
142
0.0
143
25.399999999999999
144
1.0
145
0.0
146
1.0
147
25.0
 71
     0
 72
     0
 73
     0
 74
     0
 75
     0
 76
     0
 77
     1
 78
     8
170
     0
171
     2
172
     1
173
     0
174
     1
175
     0
176
     7
177
     7
178
     7
  0
ENDTAB
  0
TABLE
  2
VIEW
 70
     1
  0
VIEW
  2
ALL
 70
     0
 40
4282.6198079999986
 10
0.0
 20
41.309904000000003
 41
5940.0
 11
0.0
 21
0.0
 31
1.0
 12
0.0
 22
0.0
 32
0.0
 42
50.0
 43
0.0
 44
0.0
 50
0.0
 71
     0
  0
ENDTAB
  0
TABLE
  2
UCS
 70
     0
  0
ENDTAB
  0
TABLE
  2
VPORT
 70
     1
  0
VPORT
  2
*ACTIVE
 70
     0
 10
0.0
 20
0.0
 11
1.0
 21
1.0
 12
-14.72853232958545
 22
130.57709733324191
 13
0.0
 23
0.0
 14
1.0
 24
1.0
 15
0.0
 25
0.0
 16
0.0
 26
0.0
 36
1.0
 17
0.0
 27
0.0
 37
0.0
 40
1637.632031876472
 41
1.747787610619469
 42
50.0
 43
0.0
 44
0.0
 50
0.0
 51
0.0
 71
     0
 72
  1000
 73
     1
 74
     3
 75
     0
 76
     0
 77
     0
 78
     0
  0
ENDTAB
  0
ENDSEC
  0
SECTION
  2
BLOCKS
  0
BLOCK
  8
0
  2
_ORIGIN
 70
     0
 10
0.0
 20
0.0
 30
0.0
  3
_ORIGIN
  1
_ORIGIN
  0
CIRCLE
  8
0
  6
CONTINUOUS
 62
     7
 10
0.0
 20
0.0
 30
0.0
 40
0.5
  0
LINE
  8
0
  6
CONTINUOUS
 62
     7
 10
0.0
 20
0.0
 30
0.0
 11
-1.0
 21
0.0
 31
0.0
  0
ENDBLK
  8
0
  0
ENDSEC
  0
SECTION
  2
ENTITIES
  0
POINT
  8
ARRANGE
  6
CONTINUOUS
 62
     1
 10
0.0
 20
0.0
 30
0.0
  0
LINE
  8
OUTLINE
  6
CONTINUOUS
 62
     3
 10
-234.9999999999998
 20
0.0
 30
0.0
 11
235.0
 21
0.0
 31
0.0
  0
LINE
  8
OUTLINE
  6
CONTINUOUS
 62
     3
 10
193.0
 20
230.0
 30
0.0
 11
-10.59999995658336
 21
230.0
 31
0.0
  0
CIRCLE
  8
ARRANGE
  6
CONTINUOUS
 62
     1
 10
0.0
 20
0.0
 30
0.0
 40
40.0
  0
LINE
  8
SIZE
  6
CONTINUOUS
 62
    30
 10
-11.5
 20
567.50290122288789
 30
0.0
 11
0.5
 21
567.50290122288789
 31
0.0
  0
TEXT
  8
SIZE
  6
CONTINUOUS
 62
    30
 10
-68.571428571428555
 20
879.75352251203503
 30
0.0
 40
64.0
  1
418
 41
0.9
 72
     1
 11
0.0
 21
879.75352251203503
 31
0.0
  0
LINE
  8
SIZE
  6
CONTINUOUS
 62
    30
 10
197.0
 20
861.70854351203525
 30
0.0
 11
-197.0
 21
861.70854351203525
 31
0.0
  0
TEXT
  8
SIZE
  6
CONTINUOUS
 62
    30
 10
-68.571428571428555
 20
-488.84994937269471
 30
0.0
 40
64.0
  1
410
 41
0.9
 72
     1
 11
0.0
 21
-488.84994937269471
 31
0.0
  0
LINE
  8
SIZE
  6
CONTINUOUS
 62
    30
 10
193.0
 20
-517.04867037269457
 30
0.0
 11
-193.0
 21
-517.04867037269457
 31
0.0
  0
TEXT
  8
SIZE
  6
CONTINUOUS
 62
    30
 10
-74.05714285714285
 20
-224.53384721193299
 30
0.0
 40
64.0
  1
300
 41
0.9
 72
     1
 11
0.0
 21
-224.53384721193299
 31
0.0
  0
LINE
  8
SIZE
  6
CONTINUOUS
 62
    30
 10
138.0
 20
-250.11618521193299
 30
0.0
 11
-138.0
 21
-250.11618521193299
 31
0.0
  0
LINE
  8
OUTLINE
  6
CONTINUOUS
 62
     3
 10
-192.9999999999998
 20
0.0
 30
0.0
 11
-192.9998682289006
 21
81.499984210691991
 31
0.0
  0
LINE
  8
NOTE
  6
CONTINUOUS
 62
     4
 10
-204.95665099999999
 20
0.0514439999999468
 30
0.0
 11
-240.90945400000001
 21
-17.481266999999999
 31
0.0
  0
LINE
  8
NOTE
  6
CONTINUOUS
 62
     4
 10
-227.326336
 20
-33.108731000000027
 30
0.0
 11
-204.95665099999999
 21
0.0514439999999468
 31
0.0
  0
LINE
  8
NOTE
  6
CONTINUOUS
 62
     4
 10
-204.9811319999998
 20
0.0028320000000122
 30
0.0
 11
-607.90549299999975
 21
-360.04109499999998
 31
0.0
  0
LINE
  8
NOTE
  6
CONTINUOUS
 62
     4
 10
-150.0
 20
-20.0
 30
0.0
 11
-150.0
 21
20.0
 31
0.0
  0
CIRCLE
  8
FIX
  6
CONTINUOUS
 62
    11
 10
-150.0
 20
0.0
 30
0.0
 40
2.5
  0
CIRCLE
  8
FIX
  6
CONTINUOUS
 62
    11
 10
-205.0
 20
0.0
 30
0.0
 40
2.5
  0
LINE
  8
NOTE
  6
CONTINUOUS
 62
     4
 10
-205.0
 20
-20.0
 30
0.0
 11
-205.0
 21
20.0
 31
0.0
  0
LINE
  8
BASIS
  6
DASHDOT
 62
     6
 10
0.0
 20
-72.855032999999935
 30
0.0
 11
0.0
 21
326.0
 31
0.0
  0
LINE
  8
NOTE
  6
CONTINUOUS
 62
     4
 10
-607.90549299999975
 20
-360.04109499999998
 30
0.0
 11
-1000.914
 21
-360.04109499999998
 31
0.0
  0
TEXT
  8
NOTE
  6
CONTINUOUS
 62
     4
 10
-977.2502099999997
 20
-327.07682499999987
 30
0.0
 40
64.0
  1
8-φ5×8
 41
0.9
  0
LINE
  8
SIZE
  6
CONTINUOUS
 62
    30
 10
-205.0
 20
-40.0
 30
0.0
 11
-205.0
 21
-551.33945847516918
 31
0.0
  0
LINE
  8
SIZE
  6
CONTINUOUS
 62
    30
 10
-150.0
 20
-40.0
 30
0.0
 11
-150.0
 21
-270.11618521193299
 31
0.0
  0
LINE
  8
SIZE
  6
CONTINUOUS
 62
    30
 10
-205.0
 20
-517.04867037269457
 30
0.0
 11
-193.0
 21
-517.04867037269457
 31
0.0
  0
CIRCLE
  8
SIZE
  6
CONTINUOUS
 62
    30
 10
-205.0
 20
-517.04867037269457
 30
0.0
 40
6.0
  0
LINE
  8
SIZE
  6
CONTINUOUS
 62
    30
 10
-150.0
 20
-250.11618521193299
 30
0.0
 11
-138.0
 21
-250.11618521193299
 31
0.0
  0
CIRCLE
  8
SIZE
  6
CONTINUOUS
 62
    30
 10
-150.0
 20
-250.11618521193299
 30
0.0
 40
6.0
  0
LINE
  8
NOTE
  6
CONTINUOUS
 62
     4
 10
-185.0
 20
0.0
 30
0.0
 11
-225.0
 21
0.0
 31
0.0
  0
LINE
  8
NOTE
  6
CONTINUOUS
 62
     4
 10
-130.0
 20
0.0
 30
0.0
 11
-170.0
 21
0.0
 31
0.0
  0
CIRCLE
  8
FIX
  6
CONTINUOUS
 62
    11
 10
-209.0
 20
237.0
 30
0.0
 40
6.0
  0
LINE
  8
SIZE
  6
CONTINUOUS
 62
    30
 10
-209.0
 20
274.5
 30
0.0
 11
-209.0
 21
881.70854351203525
 31
0.0
  0
LINE
  8
SIZE
  6
CONTINUOUS
 62
    30
 10
-11.5
 20
292.94001400000002
 30
0.0
 11
-11.5
 21
587.50290122288789
 31
0.0
  0
LINE
  8
BASIS
  6
DASHDOT
 62
     6
 10
-110.9999999999999
 20
53.692090000000007
 30
0.0
 11
-110.9999999999999
 21
288.98522400000002
 31
0.0
  0
TEXT
  8
NOTE
  6
CONTINUOUS
 62
     4
 10
-156.08182600000001
 20
117.9838669999999
 30
0.0
 40
64.0
  1
EA
 41
0.9
  0
LINE
  8
BASIS
  6
DASHDOT
 62
     6
 10
-3.982269000000088
 20
162.0
 30
0.0
 11
-219.43466099999981
 21
162.0
 31
0.0
  0
LINE
  8
NOTE
  6
CONTINUOUS
 62
     4
 10
-209.0
 20
217.0
 30
0.0
 11
-209.0
 21
257.0
 31
0.0
  0
LINE
  8
NOTE
  6
CONTINUOUS
 62
     4
 10
-189.0
 20
237.0
 30
0.0
 11
-229.0
 21
237.0
 31
0.0
  0
CIRCLE
  8
SIZE
  6
CONTINUOUS
 62
    30
 10
-11.5
 20
567.50290122288789
 30
0.0
 40
6.0
  0
LINE
  8
SIZE
  6
CONTINUOUS
 62
    30
 10
-209.0
 20
861.70854351203525
 30
0.0
 11
-197.0
 21
861.70854351203525
 31
0.0
  0
CIRCLE
  8
SIZE
  6
CONTINUOUS
 62
    30
 10
-209.0
 20
861.70854351203525
 30
0.0
 40
6.0
  0
LINE
  8
OUTLINE
  6
CONTINUOUS
 62
     3
 10
193.0
 20
0.0
 30
0.0
 11
193.0
 21
230.0
 31
0.0
  0
LINE
  8
NOTE
  6
CONTINUOUS
 62
     4
 10
205.0
 20
-20.0
 30
0.0
 11
205.0
 21
20.0
 31
0.0
  0
LINE
  8
NOTE
  6
CONTINUOUS
 62
     4
 10
150.0
 20
-20.0
 30
0.0
 11
150.0
 21
20.0
 31
0.0
  0
CIRCLE
  8
FIX
  6
CONTINUOUS
 62
    11
 10
150.0
 20
0.0
 30
0.0
 40
2.5
  0
CIRCLE
  8
FIX
  6
CONTINUOUS
 62
    11
 10
205.0
 20
0.0
 30
0.0
 40
2.5
  0
LINE
  8
SIZE
  6
CONTINUOUS
 62
    30
 10
205.0
 20
-40.0
 30
0.0
 11
205.0
 21
-544.60966352433445
 31
0.0
  0
LINE
  8
SIZE
  6
CONTINUOUS
 62
    30
 10
150.0
 20
-40.0
 30
0.0
 11
150.0
 21
-270.11618521193299
 31
0.0
  0
LINE
  8
SIZE
  6
CONTINUOUS
 62
    30
 10
205.0
 20
-517.04867037269457
 30
0.0
 11
193.0
 21
-517.04867037269457
 31
0.0
  0
CIRCLE
  8
SIZE
  6
CONTINUOUS
 62
    30
 10
205.0
 20
-517.04867037269457
 30
0.0
 40
6.0
  0
LINE
  8
SIZE
  6
CONTINUOUS
 62
    30
 10
150.0
 20
-250.11618521193299
 30
0.0
 11
138.0
 21
-250.11618521193299
 31
0.0
  0
CIRCLE
  8
SIZE
  6
CONTINUOUS
 62
    30
 10
150.0
 20
-250.11618521193299
 30
0.0
 40
6.0
  0
LINE
  8
NOTE
  6
CONTINUOUS
 62
     4
 10
130.0
 20
0.0
 30
0.0
 11
170.0
 21
0.0
 31
0.0
  0
LINE
  8
NOTE
  6
CONTINUOUS
 62
     4
 10
185.0
 20
0.0
 30
0.0
 11
225.0
 21
0.0
 31
0.0
  0
CIRCLE
  8
FIX
  6
CONTINUOUS
 62
    11
 10
209.0
 20
237.0
 30
0.0
 40
6.0
  0
LINE
  8
NOTE
  6
CONTINUOUS
 62
     4
 10
315.80514363168407
 20
314.72107538876162
 30
0.0
 11
558.46617996928762
 21
314.72107538876162
 31
0.0
  0
TEXT
  8
NOTE
  6
CONTINUOUS
 62
     4
 10
346.60447563168418
 20
352.81191038876159
 30
0.0
 40
64.0
  1
AH 4
 41
0.9
  0
LINE
  8
SIZE
  6
CONTINUOUS
 62
    30
 10
209.0
 20
274.5
 30
0.0
 11
209.0
 21
881.70854351203525
 31
0.0
  0
LINE
  8
NOTE
  6
CONTINUOUS
 62
     4
 10
208.98682287394439
 20
236.99823242457049
 30
0.0
 11
315.80514363168407
 21
314.72107538876162
 31
0.0
  0
TEXT
  8
NOTE
  6
CONTINUOUS
 62
     4
 10
303.26076008201858
 20
508.33267595057993
 30
0.0
 40
64.0
  1
EL
 41
0.9
  0
LINE
  8
NOTE
  6
CONTINUOUS
 62
     4
 10
276.58141708201828
 20
481.37898995057998
 30
0.0
 11
407.39102287411788
 21
481.37898995057998
 31
0.0
  0
LINE
  8
SIZE
  6
CONTINUOUS
 62
    30
 10
86.5
 20
292.94001400000002
 30
0.0
 11
86.5
 21
587.50290122288789
 31
0.0
  0
LINE
  8
NOTE
  6
CONTINUOUS
 62
     4
 10
208.98682287394439
 20
236.99823242457049
 30
0.0
 11
234.44088419248851
 21
268.59954406167162
 31
0.0
  0
LINE
  8
NOTE
  6
CONTINUOUS
 62
     4
 10
246.31371162193321
 20
251.63620936753159
 30
0.0
 11
208.98682287394439
 21
236.99823242457049
 31
0.0
  0
LINE
  8
NOTE
  6
CONTINUOUS
 62
     4
 10
169.00000222420161
 20
229.99999046502239
 30
0.0
 11
276.58141708201828
 21
481.37898995057998
 31
0.0
  0
LINE
  8
NOTE
  6
CONTINUOUS
 62
     4
 10
169.0
 20
210.0
 30
0.0
 11
169.0
 21
250.0
 31
0.0
  0
LINE
  8
NOTE
  6
CONTINUOUS
 62
     4
 10
209.0
 20
218.0
 30
0.0
 11
209.0
 21
258.0
 31
0.0
  0
LINE
  8
NOTE
  6
CONTINUOUS
 62
     4
 10
174.59179586368299
 20
269.60721042873138
 30
0.0
 11
169.00000222420161
 21
229.99999046502239
 31
0.0
  0
LINE
  8
NOTE
  6
CONTINUOUS
 62
     4
 10
149.0
 20
230.0
 30
0.0
 11
188.9999999999998
 21
230.0
 31
0.0
  0
LINE
  8
NOTE
  6
CONTINUOUS
 62
     4
 10
169.00000222420161
 20
229.99999046502239
 30
0.0
 11
193.64624838205759
 21
261.50495150621009
 31
0.0
  0
LINE
  8
NOTE
  6
CONTINUOUS
 62
     4
 10
189.0
 20
237.0
 30
0.0
 11
229.0
 21
237.0
 31
0.0
  0
TEXT
  8
SIZE
  6
CONTINUOUS
 62
    30
 10
-53.169000048017907
 20
611.92359967935772
 30
0.0
 40
64.0
  1
φ98
 41
0.9
 72
     1
 11
33.779571380553527
 21
611.92359967935772
 31
0.0
  0
LINE
  8
SIZE
  6
CONTINUOUS
 62
    30
 10
74.5
 20
567.50290122288789
 30
0.0
 11
0.5
 21
567.50290122288789
 31
0.0
  0
LINE
  8
SIZE
  6
CONTINUOUS
 62
    30
 10
86.5
 20
567.50290122288789
 30
0.0
 11
74.5
 21
567.50290122288789
 31
0.0
  0
CIRCLE
  8
SIZE
  6
CONTINUOUS
 62
    30
 10
86.5
 20
567.50290122288789
 30
0.0
 40
6.0
  0
LINE
  8
SIZE
  6
CONTINUOUS
 62
    30
 10
209.0
 20
861.70854351203525
 30
0.0
 11
197.0
 21
861.70854351203525
 31
0.0
  0
CIRCLE
  8
SIZE
  6
CONTINUOUS
 62
    30
 10
209.0
 20
861.70854351203525
 30
0.0
 40
6.0
  0
TEXT
  8
ETC
  6
CONTINUOUS
 62
    61
 10
409.03148553562642
 20
865.7035412439493
 30
0.0
 40
64.0
  1
VD-23ZV6_2
 41
0.9
  0
TEXT
  8
ETC
  6
CONTINUOUS
 62
    61
 10
404.84549153562602
 20
747.74823122911812
 30
0.0
 40
64.0
  1
換気扇
 41
0.9
  0
TEXT
  8
ETC
  6
CONTINUOUS
 62
    61
 10
455.45299418788272
 20
639.91245118957067
 30
0.0
 40
40.0
  1
VD-23ZV6
 41
0.9
  0
LINE
  8
SIZE
  6
CONTINUOUS
 62
    30
 10
-110.9999999999999
 20
308.48522400000002
 30
0.0
 11
-110.9999999999999
 21
540.69555169948399
 31
0.0
  0
LINE
  8
SIZE
  6
CONTINUOUS
 62
    30
 10
0.0
 20
346.0
 30
0.0
 11
0.0
 21
540.69555169948399
 31
0.0
  0
LINE
  8
SIZE
  6
CONTINUOUS
 62
    30
 10
-12.0
 20
520.69555169948399
 30
0.0
 11
-98.999999999999886
 21
520.69555169948399
 31
0.0
  0
LINE
  8
SIZE
  6
CONTINUOUS
 62
    30
 10
-110.9999999999999
 20
520.69555169948399
 30
0.0
 11
-382.23638328752082
 21
520.69555169948399
 31
0.0
  0
CIRCLE
  8
SIZE
  6
CONTINUOUS
 62
    30
 10
0.0
 20
520.69555169948399
 30
0.0
 40
6.0
  0
LINE
  8
SIZE
  6
CONTINUOUS
 62
    30
 10
0.0
 20
520.69555169948399
 30
0.0
 11
-12.0
 21
520.69555169948399
 31
0.0
  0
CIRCLE
  8
SIZE
  6
CONTINUOUS
 62
    30
 10
-110.9999999999999
 20
520.69555169948399
 30
0.0
 40
6.0
  0
LINE
  8
SIZE
  6
CONTINUOUS
 62
    30
 10
-110.9999999999999
 20
520.69555169948399
 30
0.0
 11
-98.999999999999886
 21
520.69555169948399
 31
0.0
  0
TEXT
  8
SIZE
  6
CONTINUOUS
 62
    30
 10
-357.23638328752071
 20
545.69555169948399
 30
0.0
 40
64.0
  1
111
 41
0.9
 72
     1
 11
-306.49352614466352
 21
545.69555169948399
 31
0.0
  0
POINT
  8
DEFPOINTS
  6
CONTINUOUS
 62
    30
 10
-110.9999999999999
 20
288.48522400000002
 30
0.0
  0
POINT
  8
DEFPOINTS
  6
CONTINUOUS
 62
    30
 10
0.0
 20
326.0
 30
0.0
  0
POINT
  8
DEFPOINTS
  6
CONTINUOUS
 62
    30
 10
0.0
 20
520.69555169948399
 30
0.0
  0
LINE
  8
SIZE
  6
CONTINUOUS
 62
    30
 10
-498.98553041382962
 20
444.55793432040127
 30
0.0
 11
-182.1350405004832
 21
213.80546315780401
 31
0.0
  0
LINE
  8
SIZE
  6
CONTINUOUS
 62
    30
 10
-39.864959499516537
 20
110.194536842196
 30
0.0
 11
-30.164726703996049
 21
103.1301555024955
 31
0.0
  0
TEXT
  8
SIZE
  6
CONTINUOUS
 62
    30
 10
-475.58867051669949
 20
458.44581334092783
 30
0.0
 40
64.0
  1
φ152
 50
323.93529978934367
 41
0.9
 72
     1
 11
-387.56598663506259
 21
394.34159866981622
 31
0.0
  0
LINE
  8
SIZE
  6
CONTINUOUS
 62
    30
 10
-49.565192295036923
 20
117.25891818189641
 30
0.0
 11
-172.43480770496299
 21
206.74108181810331
 31
0.0
  0
CIRCLE
  8
SIZE
  6
CONTINUOUS
 62
    30
 10
-49.565192295036923
 20
117.25891818189641
 30
0.0
 40
6.0
  0
LINE
  8
SIZE
  6
CONTINUOUS
 62
    30
 10
-49.565192295036923
 20
117.25891818189641
 30
0.0
 11
-39.864959499516537
 21
110.194536842196
 31
0.0
  0
CIRCLE
  8
SIZE
  6
CONTINUOUS
 62
    30
 10
-172.43480770496299
 20
206.74108181810331
 30
0.0
 40
6.0
  0
LINE
  8
SIZE
  6
CONTINUOUS
 62
    30
 10
-172.43480770496299
 20
206.74108181810331
 30
0.0
 11
-182.1350405004832
 21
213.80546315780401
 31
0.0
  0
POINT
  8
DEFPOINTS
  6
CONTINUOUS
 62
    30
 10
-172.43480770496299
 20
206.74108181810331
 30
0.0
  0
POINT
  8
DEFPOINTS
  6
CONTINUOUS
 62
    30
 10
-49.565192295036923
 20
117.25891818189641
 30
0.0
  0
LINE
  8
SIZE
  6
CONTINUOUS
 62
    30
 10
-670.23594924063616
 20
365.04673040613238
 30
0.0
 11
-189.95677631817281
 21
190.66753343840381
 31
0.0
  0
LINE
  8
SIZE
  6
CONTINUOUS
 62
    30
 10
-32.04322368182693
 20
133.33246656159639
 30
0.0
 11
-20.763684207802161
 21
129.2371046418244
 31
0.0
  0
TEXT
  8
SIZE
  6
CONTINUOUS
 62
    30
 10
-651.61144301649574
 20
384.88139714499289
 30
0.0
 40
64.0
  1
φ144
 50
340.04511246737337
 41
0.9
 72
     1
 11
-547.96858887802875
 21
347.25087161931668
 31
0.0
  0
LINE
  8
SIZE
  6
CONTINUOUS
 62
    30
 10
-43.322763155851703
 20
137.42782848136821
 30
0.0
 11
-178.6772368441481
 21
186.57217151863179
 31
0.0
  0
CIRCLE
  8
SIZE
  6
CONTINUOUS
 62
    30
 10
-43.322763155851703
 20
137.42782848136821
 30
0.0
 40
6.0
  0
LINE
  8
SIZE
  6
CONTINUOUS
 62
    30
 10
-43.322763155851703
 20
137.42782848136821
 30
0.0
 11
-32.04322368182693
 21
133.33246656159631
 31
0.0
  0
CIRCLE
  8
SIZE
  6
CONTINUOUS
 62
    30
 10
-178.6772368441481
 20
186.57217151863179
 30
0.0
 40
6.0
  0
LINE
  8
SIZE
  6
CONTINUOUS
 62
    30
 10
-178.6772368441481
 20
186.57217151863179
 30
0.0
 11
-189.95677631817281
 21
190.66753343840369
 31
0.0
  0
POINT
  8
DEFPOINTS
  6
CONTINUOUS
 62
    30
 10
-178.6772368441481
 20
186.57217151863179
 30
0.0
  0
POINT
  8
DEFPOINTS
  6
CONTINUOUS
 62
    30
 10
-43.322763155851703
 20
137.42782848136821
 30
0.0
  0
LINE
  8
SIZE
  6
CONTINUOUS
 62
    30
 10
255.0
 20
0.0
 30
0.0
 11
506.96352367884259
 21
0.0
 31
0.0
  0
LINE
  8
SIZE
  6
CONTINUOUS
 62
    30
 10
16.017730999999909
 20
162.0
 30
0.0
 11
506.96352367884259
 21
161.99999999999989
 31
0.0
  0
LINE
  8
SIZE
  6
CONTINUOUS
 62
    30
 10
486.96352367884259
 20
12.0
 30
0.0
 11
486.96352367884259
 21
149.99999999999989
 31
0.0
  0
CIRCLE
  8
SIZE
  6
CONTINUOUS
 62
    30
 10
486.96352367884259
 20
0.0
 30
0.0
 40
6.0
  0
LINE
  8
SIZE
  6
CONTINUOUS
 62
    30
 10
486.96352367884259
 20
0.0
 30
0.0
 11
486.96352367884259
 21
12.0
 31
0.0
  0
CIRCLE
  8
SIZE
  6
CONTINUOUS
 62
    30
 10
486.96352367884259
 20
161.99999999999989
 30
0.0
 40
6.0
  0
LINE
  8
SIZE
  6
CONTINUOUS
 62
    30
 10
486.96352367884259
 20
161.99999999999989
 30
0.0
 11
486.96352367884259
 21
149.99999999999989
 31
0.0
  0
TEXT
  8
SIZE
  6
CONTINUOUS
 62
    30
 10
461.96352367884259
 20
12.42857142857132
 30
0.0
 40
64.0
  1
162
 50
90.0
 41
0.9
 72
     1
 11
461.96352367884259
 21
80.999999999999886
 31
0.0
  0
POINT
  8
DEFPOINTS
  6
CONTINUOUS
 62
    30
 10
235.0
 20
0.0
 30
0.0
  0
POINT
  8
DEFPOINTS
  6
CONTINUOUS
 62
    30
 10
-3.982269000000088
 20
162.0
 30
0.0
  0
POINT
  8
DEFPOINTS
  6
CONTINUOUS
 62
    30
 10
486.96352367884259
 20
161.99999999999989
 30
0.0
  0
LINE
  8
SIZE
  6
CONTINUOUS
 62
    30
 10
-254.9999999999998
 20
0.0
 30
0.0
 11
-621.48175843240926
 21
0.0
 31
0.0
  0
LINE
  8
SIZE
  6
CONTINUOUS
 62
    30
 10
-211.0
 20
80.036535999999955
 30
0.0
 11
-621.48175843240926
 21
80.036536000000069
 31
0.0
  0
LINE
  8
SIZE
  6
CONTINUOUS
 62
    30
 10
-601.48175843240926
 20
12.0
 30
0.0
 11
-601.48175843240926
 21
68.036536000000069
 31
0.0
  0
LINE
  8
SIZE
  6
CONTINUOUS
 62
    30
 10
-601.48175843240926
 20
80.036536000000069
 30
0.0
 11
-601.48175843240926
 21
235.29367885714279
 31
0.0
  0
CIRCLE
  8
SIZE
  6
CONTINUOUS
 62
    30
 10
-601.48175843240926
 20
0.0
 30
0.0
 40
6.0
  0
LINE
  8
SIZE
  6
CONTINUOUS
 62
    30
 10
-601.48175843240926
 20
0.0
 30
0.0
 11
-601.48175843240926
 21
12.0
 31
0.0
  0
CIRCLE
  8
SIZE
  6
CONTINUOUS
 62
    30
 10
-601.48175843240926
 20
80.036536000000069
 30
0.0
 40
6.0
  0
LINE
  8
SIZE
  6
CONTINUOUS
 62
    30
 10
-601.48175843240926
 20
80.036536000000069
 30
0.0
 11
-601.48175843240926
 21
68.036536000000069
 31
0.0
  0
TEXT
  8
SIZE
  6
CONTINUOUS
 62
    30
 10
-626.48175843240926
 20
117.036536
 30
0.0
 40
64.0
  1
80
 50
90.0
 41
0.9
 72
     1
 11
-626.48175843240926
 21
163.66510742857139
 31
0.0
  0
POINT
  8
DEFPOINTS
  6
CONTINUOUS
 62
    30
 10
-234.9999999999998
 20
0.0
 30
0.0
  0
POINT
  8
DEFPOINTS
  6
CONTINUOUS
 62
    30
 10
-191.0
 20
80.036535999999955
 30
0.0
  0
POINT
  8
DEFPOINTS
  6
CONTINUOUS
 62
    30
 10
-601.48175843240926
 20
80.036536000000069
 30
0.0
  0
LINE
  8
DETAIL
  6
CONTINUOUS
 62
     5
 10
-196.0
 20
8.0
 30
0.0
 11
-196.0
 21
28.0
 31
0.0
  0
LINE
  8
SIZE
  6
CONTINUOUS
 62
    30
 10
-192.99999999999969
 20
279.40900201648287
 30
0.0
 11
-192.99999999999969
 21
724.03508567557424
 31
0.0
  0
LINE
  8
SIZE
  6
CONTINUOUS
 62
    30
 10
-204.0
 20
268.66315670507078
 30
0.0
 11
-204.0
 21
724.03508567557424
 31
0.0
  0
LINE
  8
SIZE
  6
CONTINUOUS
 62
    30
 10
-180.99999999999969
 20
704.03508567557401
 30
0.0
 11
-168.99999999999969
 21
704.03508567557401
 31
0.0
  0
LINE
  8
SIZE
  6
CONTINUOUS
 62
    30
 10
-216.0
 20
704.03508567557401
 30
0.0
 11
-353.57809778240221
 21
704.03508567557401
 31
0.0
  0
LINE
  8
SIZE
  6
CONTINUOUS
 62
    30
 10
-192.99999999999969
 20
704.03508567557401
 30
0.0
 11
-204.0
 21
704.03508567557401
 31
0.0
  0
CIRCLE
  8
SIZE
  6
CONTINUOUS
 62
    30
 10
-192.99999999999969
 20
704.03508567557401
 30
0.0
 40
6.0
  0
LINE
  8
SIZE
  6
CONTINUOUS
 62
    30
 10
-192.99999999999969
 20
704.03508567557401
 30
0.0
 11
-180.99999999999969
 21
704.03508567557401
 31
0.0
  0
CIRCLE
  8
SIZE
  6
CONTINUOUS
 62
    30
 10
-204.0
 20
704.03508567557401
 30
0.0
 40
6.0
  0
LINE
  8
SIZE
  6
CONTINUOUS
 62
    30
 10
-204.0
 20
704.03508567557401
 30
0.0
 11
-216.0
 21
704.03508567557401
 31
0.0
  0
TEXT
  8
SIZE
  6
CONTINUOUS
 62
    30
 10
-328.57809778240232
 20
729.03508567557424
 30
0.0
 40
64.0
  1
11
 41
0.9
 72
     1
 11
-299.77809778240231
 21
729.03508567557424
 31
0.0
  0
POINT
  8
DEFPOINTS
  6
CONTINUOUS
 62
    30
 10
-192.99999999999969
 20
259.40900201648287
 30
0.0
  0
POINT
  8
DEFPOINTS
  6
CONTINUOUS
 62
    30
 10
-204.0
 20
248.6631567050708
 30
0.0
  0
POINT
  8
DEFPOINTS
  6
CONTINUOUS
 62
    30
 10
-204.0
 20
704.03508567557401
 30
0.0
  0
LINE
  8
SIZE
  6
CONTINUOUS
 62
    30
 10
245.25
 20
237.0
 30
0.0
 11
663.13547707034286
 21
236.99999999999989
 31
0.0
  0
LINE
  8
SIZE
  6
CONTINUOUS
 62
    30
 10
255.0
 20
0.0
 30
0.0
 11
663.13547707034286
 21
0.0
 31
0.0
  0
LINE
  8
SIZE
  6
CONTINUOUS
 62
    30
 10
643.13547707034286
 20
224.99999999999989
 30
0.0
 11
643.13547707034286
 21
12.0
 31
0.0
  0
CIRCLE
  8
SIZE
  6
CONTINUOUS
 62
    30
 10
643.13547707034286
 20
236.99999999999989
 30
0.0
 40
6.0
  0
LINE
  8
SIZE
  6
CONTINUOUS
 62
    30
 10
643.13547707034286
 20
236.99999999999989
 30
0.0
 11
643.13547707034286
 21
224.99999999999989
 31
0.0
  0
CIRCLE
  8
SIZE
  6
CONTINUOUS
 62
    30
 10
643.13547707034286
 20
0.0
 30
0.0
 40
6.0
  0
LINE
  8
SIZE
  6
CONTINUOUS
 62
    30
 10
643.13547707034286
 20
0.0
 30
0.0
 11
643.13547707034286
 21
12.0
 31
0.0
  0
TEXT
  8
SIZE
  6
CONTINUOUS
 62
    30
 10
618.13547707034286
 20
44.442857142857022
 30
0.0
 40
64.0
  1
237
 50
90.0
 41
0.9
 72
     1
 11
618.13547707034286
 21
118.4999999999999
 31
0.0
  0
POINT
  8
DEFPOINTS
  6
CONTINUOUS
 62
    30
 10
225.25
 20
237.0
 30
0.0
  0
POINT
  8
DEFPOINTS
  6
CONTINUOUS
 62
    30
 10
235.0
 20
0.0
 30
0.0
  0
POINT
  8
DEFPOINTS
  6
CONTINUOUS
 62
    30
 10
643.13547707034286
 20
0.0
 30
0.0
  0
LINE
  8
BASIS
  6
DASHDOT
 62
     6
 10
0.0
 20
-95.609780000000001
 30
0.0
 11
0.0
 21
280.0
 31
0.0
  0
ARC
  8
DETAIL
  6
CONTINUOUS
 62
     5
 10
191.45001834891261
 20
223.2998823225212
 30
0.0
 40
1.249999994880012
 50
270.0
 51
0.0
  0
LINE
  8
DETAIL
  6
CONTINUOUS
 62
     5
 10
192.70001834379261
 20
223.2998823225212
 30
0.0
 11
192.70001834379261
 21
228.7499799564464
 31
0.0
  0
ARC
  8
DETAIL
  6
CONTINUOUS
 62
     5
 10
191.45001834891261
 20
228.7499799564464
 30
0.0
 40
1.249999994880012
 50
0.0
 51
90.0
  0
ARC
  8
DETAIL
  6
CONTINUOUS
 62
     5
 10
192.10001834625061
 20
221.14988233132701
 30
0.0
 40
0.8999999963132751
 50
0.0
 51
90.0
  0
ARC
  8
DETAIL
  6
CONTINUOUS
 62
     5
 10
-194.00001833846821
 20
0.9999999959054549
 30
0.0
 40
0.999999995904
 50
270.0
 51
0.0
  0
ARC
  8
DETAIL
  6
CONTINUOUS
 62
     5
 10
194.00001833846861
 20
0.9999999959054549
 30
0.0
 40
0.9999999959039748
 50
180.0
 51
270.0
  0
ARC
  8
DETAIL
  6
CONTINUOUS
 62
     5
 10
-194.00001833846821
 20
0.9999999959054549
 30
0.0
 40
0.999999995904
 50
270.0
 51
0.0
  0
LINE
  8
DETAIL
  6
CONTINUOUS
 62
     5
 10
-193.00001834256409
 20
0.9999999959054549
 30
0.0
 11
-193.00001834256409
 21
3.0004630023163368
 31
0.0
  0
LINE
  8
DETAIL
  6
CONTINUOUS
 62
     5
 10
193.00001834256409
 20
0.9999999959054549
 30
0.0
 11
193.00001834256409
 21
220.4998823313272
 31
0.0
  0
LINE
  8
DETAIL
  6
CONTINUOUS
 62
     5
 10
-193.00001834256409
 20
0.9999999959054549
 30
0.0
 11
-192.9999999999998
 21
90.642253864539725
 31
0.0
  0
LINE
  8
DETAIL
  6
CONTINUOUS
 62
     5
 10
-10.499868976420659
 20
229.99999566311701
 30
0.0
 11
191.45001834891261
 21
229.99999566311701
 31
0.0
  0
LINE
  8
DETAIL
  6
CONTINUOUS
 62
     5
 10
237.00012522654649
 20
0.0
 30
0.0
 11
-236.99987283194969
 21
0.0
 31
0.0
  0
LINE
  8
DETAIL
  6
CONTINUOUS
 62
     5
 10
237.00012522654649
 20
-0.6000976537920906
 30
0.0
 11
-236.99987283194969
 21
-0.6000976537920906
 31
0.0
  0
ARC
  8
DETAIL
  6
CONTINUOUS
 62
     5
 10
-204.99987296302149
 20
54.999999774721353
 30
0.0
 40
69.999999713280019
 50
245.68423604435031
 51
270.0
  0
ARC
  8
DETAIL
  6
CONTINUOUS
 62
     5
 10
-232.99987284833381
 20
-6.9677734089591468
 30
0.0
 40
1.999999991808038
 50
180.000000683243
 51
245.68368962921031
  0
LINE
  8
DETAIL
  6
CONTINUOUS
 62
     5
 10
-234.99987284014151
 20
-1.6000976496948169
 30
0.0
 11
-234.99987284014151
 21
-6.9677734089591468
 31
0.0
  0
LINE
  8
DETAIL
  6
CONTINUOUS
 62
     5
 10
-236.99987283194969
 20
-0.6000976537920906
 30
0.0
 11
-235.99987283604611
 21
-0.6000976537920906
 31
0.0
  0
LINE
  8
DETAIL
  6
CONTINUOUS
 62
     5
 10
-236.99987283194969
 20
0.0
 30
0.0
 11
-236.99987283194969
 21
-0.6000976537920906
 31
0.0
  0
ARC
  8
DETAIL
  6
CONTINUOUS
 62
     5
 10
-235.99987283604611
 20
-1.6000976496948169
 30
0.0
 40
0.9999999959039748
 50
0.0
 51
90.0
  0
LINE
  8
DETAIL
  6
CONTINUOUS
 62
     5
 10
-204.99987296302149
 20
-14.99999993855954
 30
0.0
 11
205.0001253576188
 21
-14.99999993855954
 31
0.0
  0
ARC
  8
DETAIL
  6
CONTINUOUS
 62
     5
 10
205.0001253576188
 20
54.999999774721353
 30
0.0
 40
69.99999971327999
 50
270.0
 51
294.31567470843908
  0
ARC
  8
DETAIL
  6
CONTINUOUS
 62
     5
 10
233.00012524293021
 20
-6.9677734089591468
 30
0.0
 40
1.9999999918080129
 50
294.31627599245871
 51
0.0000366554210658
  0
LINE
  8
DETAIL
  6
CONTINUOUS
 62
     5
 10
235.00012523473831
 20
-1.6000976496948169
 30
0.0
 11
235.00012523473831
 21
-6.9677734089591468
 31
0.0
  0
ARC
  8
DETAIL
  6
CONTINUOUS
 62
     5
 10
236.0001252306424
 20
-1.6000976496948169
 30
0.0
 40
0.9999999959039748
 50
90.0
 51
180.0
  0
LINE
  8
DETAIL
  6
CONTINUOUS
 62
     5
 10
237.00012522654649
 20
0.0
 30
0.0
 11
237.00012522654649
 21
-0.6000976537920906
 31
0.0
  0
LINE
  8
DETAIL
  6
CONTINUOUS
 62
     5
 10
193.00001834256409
 20
189.0499992256523
 30
0.0
 11
194.200018337649
 21
188.04999922974781
 31
0.0
  0
LINE
  8
DETAIL
  6
CONTINUOUS
 62
     5
 10
193.00001834256409
 20
199.0499991846909
 30
0.0
 11
194.200018337649
 21
200.0499991805959
 31
0.0
  0
LINE
  8
DETAIL
  6
CONTINUOUS
 62
     5
 10
193.00001834256409
 20
65.54999973150916
 30
0.0
 11
193.00001834256409
 21
37.549999846195988
 31
0.0
  0
LINE
  8
DETAIL
  6
CONTINUOUS
 62
     5
 10
194.200018337649
 20
66.549999727412342
 30
0.0
 11
193.00001834256409
 21
65.54999973150916
 31
0.0
  0
LINE
  8
DETAIL
  6
CONTINUOUS
 62
     5
 10
195.40001833273391
 20
37.549999846195988
 30
0.0
 11
193.00001834256409
 21
37.549999846195988
 31
0.0
  0
ARC
  8
DETAIL
  6
CONTINUOUS
 62
     5
 10
196.20001832945721
 20
40.149999835545707
 30
0.0
 40
0.7999999967229375
 50
90.0
 51
180.0
  0
ARC
  8
DETAIL
  6
CONTINUOUS
 62
     5
 10
196.20001832945721
 20
48.949999799500802
 30
0.0
 40
0.7999999967233752
 50
180.0
 51
270.0
  0
ARC
  8
DETAIL
  6
CONTINUOUS
 62
     5
 10
196.20001832945721
 20
55.149999774107073
 30
0.0
 40
0.7999999967229375
 50
90.0
 51
180.0
  0
ARC
  8
DETAIL
  6
CONTINUOUS
 62
     5
 10
196.20001832945721
 20
63.949999738060797
 30
0.0
 40
0.7999999967233752
 50
180.0
 51
270.0
  0
ARC
  8
DETAIL
  6
CONTINUOUS
 62
     5
 10
196.400018328638
 20
235.9499990335494
 30
0.0
 40
2.1999999909889998
 50
90.0
 51
180.0
  0
ARC
  8
DETAIL
  6
CONTINUOUS
 62
     5
 10
193.20001834174491
 20
232.74999904665671
 30
0.0
 40
2.1999999909890882
 50
270.0
 51
0.0
  0
ARC
  8
DETAIL
  6
CONTINUOUS
 62
     5
 10
188.80001835976739
 20
229.5499990597641
 30
0.0
 40
2.199999990988649
 50
90.0
 51
180.0
  0
LINE
  8
DETAIL
  6
CONTINUOUS
 62
     5
 10
222.20001822296081
 20
236.94999902945261
 30
0.0
 11
222.20001822296081
 21
230.94999905403029
 31
0.0
  0
LINE
  8
DETAIL
  6
CONTINUOUS
 62
     5
 10
200.2000183130726
 20
236.94999902945261
 30
0.0
 11
200.2000183130726
 21
230.94999905403029
 31
0.0
  0
ARC
  8
DETAIL
  6
CONTINUOUS
 62
     5
 10
202.20001830488081
 20
230.94999905403029
 30
0.0
 40
1.99999999180805
 50
180.0
 51
270.0
  0
LINE
  8
DETAIL
  6
CONTINUOUS
 62
     5
 10
202.20001830488081
 20
228.94999906222259
 30
0.0
 11
220.2000182311526
 21
228.94999906222259
 31
0.0
  0
ARC
  8
DETAIL
  6
CONTINUOUS
 62
     5
 10
220.2000182311526
 20
230.94999905403029
 30
0.0
 40
1.9999999918079621
 50
270.0
 51
0.0
  0
LINE
  8
DETAIL
  6
CONTINUOUS
 62
     5
 10
220.70001822910541
 20
240.94999901306889
 30
0.0
 11
201.700018306929
 21
240.94999901306889
 31
0.0
  0
LINE
  8
DETAIL
  6
CONTINUOUS
 62
     5
 10
220.70001822910541
 20
243.9499990007821
 30
0.0
 11
220.70001822910541
 21
240.94999901306889
 31
0.0
  0
LINE
  8
DETAIL
  6
CONTINUOUS
 62
     5
 10
220.70001822910541
 20
243.9499990007821
 30
0.0
 11
201.700018306929
 21
243.9499990007821
 31
0.0
  0
LINE
  8
DETAIL
  6
CONTINUOUS
 62
     5
 10
218.70001823729669
 20
238.14999902453931
 30
0.0
 11
218.70001823729669
 21
240.94999901306889
 31
0.0
  0
LINE
  8
DETAIL
  6
CONTINUOUS
 62
     5
 10
203.70001829873721
 20
238.14999902453931
 30
0.0
 11
203.70001829873721
 21
240.94999901306889
 31
0.0
  0
LINE
  8
DETAIL
  6
CONTINUOUS
 62
     5
 10
201.700018306929
 20
240.94999901306889
 30
0.0
 11
201.700018306929
 21
243.9499990007821
 31
0.0
  0
LINE
  8
DETAIL
  6
CONTINUOUS
 62
     5
 10
196.20001832945721
 20
63.149999741339343
 30
0.0
 11
196.20001832945721
 21
55.949999770830352
 31
0.0
  0
LINE
  8
DETAIL
  6
CONTINUOUS
 62
     5
 10
196.20001832945721
 20
48.149999802777977
 30
0.0
 11
196.20001832945721
 21
40.949999832268993
 31
0.0
  0
LINE
  8
DETAIL
  6
CONTINUOUS
 62
     5
 10
186.60001836877839
 20
229.5499990597641
 30
0.0
 11
186.60001836877839
 21
229.34999295706709
 31
0.0
  0
LINE
  8
DETAIL
  6
CONTINUOUS
 62
     5
 10
187.8000183638633
 20
229.5499990597641
 30
0.0
 11
187.8000183638633
 21
229.34999295706709
 31
0.0
  0
LINE
  8
DETAIL
  6
CONTINUOUS
 62
     5
 10
225.2000182106726
 20
238.14999902453931
 30
0.0
 11
225.2000182106726
 21
236.94999902945261
 31
0.0
  0
LINE
  8
DETAIL
  6
CONTINUOUS
 62
     5
 10
225.2000182106726
 20
238.14999902453931
 30
0.0
 11
196.400018328638
 21
238.14999902453931
 31
0.0
  0
LINE
  8
DETAIL
  6
CONTINUOUS
 62
     5
 10
225.2000182106726
 20
236.94999902945261
 30
0.0
 11
196.400018328638
 21
236.94999902945261
 31
0.0
  0
LINE
  8
DETAIL
  6
CONTINUOUS
 62
     5
 10
194.200018337649
 20
235.9499990335494
 30
0.0
 11
194.200018337649
 21
232.74999904665671
 31
0.0
  0
LINE
  8
DETAIL
  6
CONTINUOUS
 62
     5
 10
195.40001833273391
 20
235.9499990335494
 30
0.0
 11
195.40001833273391
 21
37.549999846195988
 31
0.0
  0
LINE
  8
DETAIL
  6
CONTINUOUS
 62
     5
 10
193.20001834174491
 20
231.74999905075171
 30
0.0
 11
188.80001835976739
 21
231.74999905075171
 31
0.0
  0
LINE
  8
DETAIL
  6
CONTINUOUS
 62
     5
 10
193.20001834174491
 20
230.5499990556668
 30
0.0
 11
188.80001835976739
 21
230.5499990556668
 31
0.0
  0
LINE
  8
DETAIL
  6
CONTINUOUS
 62
     5
 10
195.40001833273391
 20
209.04999914373141
 30
0.0
 11
194.200018337649
 21
209.04999914373141
 31
0.0
  0
ARC
  8
DETAIL
  6
CONTINUOUS
 62
     5
 10
196.400018328638
 20
235.9499990335494
 30
0.0
 40
0.9999999959039748
 50
90.0
 51
180.0
  0
ARC
  8
DETAIL
  6
CONTINUOUS
 62
     5
 10
193.20001834174491
 20
232.74999904665671
 30
0.0
 40
0.9999999959040624
 50
270.0
 51
0.0
  0
ARC
  8
DETAIL
  6
CONTINUOUS
 62
     5
 10
188.80001835976739
 20
229.5499990597641
 30
0.0
 40
0.9999999959039748
 50
90.0
 51
180.0
  0
LINE
  8
DETAIL
  6
CONTINUOUS
 62
     5
 10
194.200018337649
 20
230.74999905484901
 30
0.0
 11
194.200018337649
 21
37.549999846195988
 31
0.0
  0
LINE
  8
DETAIL
  6
CONTINUOUS
 62
     5
 10
193.00001834256409
 20
199.0499991846909
 30
0.0
 11
193.00001834256409
 21
189.0499992256523
 31
0.0
  0
LINE
  8
DETAIL
  6
CONTINUOUS
 62
     5
 10
-193.00001834256409
 20
65.54999973150916
 30
0.0
 11
-193.00001834256409
 21
37.549999846195988
 31
0.0
  0
LINE
  8
DETAIL
  6
CONTINUOUS
 62
     5
 10
-194.200018337649
 20
66.549999727412342
 30
0.0
 11
-193.00001834256409
 21
65.54999973150916
 31
0.0
  0
LINE
  8
DETAIL
  6
CONTINUOUS
 62
     5
 10
-195.40001833273391
 20
37.549999846195988
 30
0.0
 11
-193.00001834256409
 21
37.549999846195988
 31
0.0
  0
ARC
  8
DETAIL
  6
CONTINUOUS
 62
     5
 10
-196.20001832945721
 20
40.149999835545707
 30
0.0
 40
0.7999999967233752
 50
0.0
 51
90.0
  0
ARC
  8
DETAIL
  6
CONTINUOUS
 62
     5
 10
-196.20001832945721
 20
48.949999799500802
 30
0.0
 40
0.7999999967229249
 50
270.0
 51
0.0
  0
ARC
  8
DETAIL
  6
CONTINUOUS
 62
     5
 10
-196.20001832945721
 20
55.149999774107073
 30
0.0
 40
0.7999999967233752
 50
0.0
 51
90.0
  0
ARC
  8
DETAIL
  6
CONTINUOUS
 62
     5
 10
-196.20001832945721
 20
63.949999738060797
 30
0.0
 40
0.7999999967229249
 50
270.0
 51
0.0
  0
LINE
  8
DETAIL
  6
CONTINUOUS
 62
     5
 10
-222.20001822296081
 20
236.94999902945261
 30
0.0
 11
-222.20001822296081
 21
230.94999905403029
 31
0.0
  0
LINE
  8
DETAIL
  6
CONTINUOUS
 62
     5
 10
-204.49986818179701
 20
228.94999906222259
 30
0.0
 11
-220.2000182311526
 21
228.94999906222259
 31
0.0
  0
ARC
  8
DETAIL
  6
CONTINUOUS
 62
     5
 10
-220.2000182311526
 20
230.94999905403029
 30
0.0
 40
1.99999999180805
 50
180.0
 51
270.0
  0
LINE
  8
DETAIL
  6
CONTINUOUS
 62
     5
 10
-220.70001822910541
 20
240.94999901306889
 30
0.0
 11
-204.48363998370871
 21
240.94999901306889
 31
0.0
  0
LINE
  8
DETAIL
  6
CONTINUOUS
 62
     5
 10
-220.70001822910541
 20
243.9499990007821
 30
0.0
 11
-220.70001822910541
 21
240.94999901306889
 31
0.0
  0
LINE
  8
DETAIL
  6
CONTINUOUS
 62
     5
 10
-220.70001822910541
 20
243.9499990007821
 30
0.0
 11
-204.0977239628694
 21
243.9499990007821
 31
0.0
  0
LINE
  8
DETAIL
  6
CONTINUOUS
 62
     5
 10
-218.70001823729669
 20
238.14999902453931
 30
0.0
 11
-218.70001823729669
 21
240.94999901306889
 31
0.0
  0
LINE
  8
DETAIL
  6
CONTINUOUS
 62
     5
 10
-196.20001832945721
 20
63.149999741339343
 30
0.0
 11
-196.20001832945721
 21
55.949999770830352
 31
0.0
  0
LINE
  8
DETAIL
  6
CONTINUOUS
 62
     5
 10
-196.20001832945721
 20
48.149999802777977
 30
0.0
 11
-196.20001832945721
 21
40.949999832268993
 31
0.0
  0
LINE
  8
DETAIL
  6
CONTINUOUS
 62
     5
 10
-225.2000182106726
 20
238.14999902453931
 30
0.0
 11
-225.2000182106726
 21
236.94999902945261
 31
0.0
  0
LINE
  8
DETAIL
  6
CONTINUOUS
 62
     5
 10
-225.2000182106726
 20
238.14999902453931
 30
0.0
 11
-204.49986818179701
 21
238.14999902453931
 31
0.0
  0
LINE
  8
DETAIL
  6
CONTINUOUS
 62
     5
 10
-225.2000182106726
 20
236.94999902945261
 30
0.0
 11
-204.49986818179701
 21
237.0
 31
0.0
  0
LINE
  8
DETAIL
  6
CONTINUOUS
 62
     5
 10
-195.40001833273391
 20
83.649524476163606
 30
0.0
 11
-195.40001833273391
 21
37.549999846195988
 31
0.0
  0
LINE
  8
DETAIL
  6
CONTINUOUS
 62
     5
 10
-194.200018337649
 20
82.256256230981194
 30
0.0
 11
-194.200018337649
 21
37.549999846195988
 31
0.0
  0
LINE
  8
DETAIL
  6
CONTINUOUS
 62
     5
 10
-4.9999999795204531
 20
266.14989788071131
 30
0.0
 11
79.999999672320428
 21
266.14989788071131
 31
0.0
  0
ARC
  8
DETAIL
  6
CONTINUOUS
 62
     5
 10
79.999999672320428
 20
260.54989790365022
 30
0.0
 40
5.5999999770618736
 50
0.0
 51
90.0
  0
ARC
  8
DETAIL
  6
CONTINUOUS
 62
     5
 10
-4.9999999795204531
 20
260.54989790365022
 30
0.0
 40
5.5999999770632014
 50
90.0
 51
180.0
  0
LINE
  8
DETAIL
  6
CONTINUOUS
 62
     5
 10
85.599999649382426
 20
229.3499956631172
 30
0.0
 11
85.599999649382198
 21
260.54989790365022
 31
0.0
  0
LINE
  8
DETAIL
  6
CONTINUOUS
 62
     5
 10
-10.59999995658336
 20
229.3499956631172
 30
0.0
 11
-10.59999995658336
 21
254.54989790365019
 31
0.0
  0
LINE
  8
DETAIL
  6
CONTINUOUS
 62
     5
 10
-195.39988405304351
 20
21.716029112765909
 30
0.0
 11
-195.39988405304351
 21
24.199218841522448
 31
0.0
  0
LINE
  8
DETAIL
  6
CONTINUOUS
 62
     5
 10
-193.49981329521231
 20
7.9644428747449183
 30
0.0
 11
-195.04927414958891
 21
9.9012689427158875
 31
0.0
  0
LINE
  8
DETAIL
  6
CONTINUOUS
 62
     5
 10
-193.49981329521231
 20
27.13555698148571
 30
0.0
 11
-195.04927414958891
 21
25.198730913515419
 31
0.0
  0
ARC
  8
DETAIL
  6
CONTINUOUS
 62
     5
 10
-193.79988405959679
 20
10.90078101470999
 30
0.0
 40
1.5999999934465381
 50
180.0
 51
218.65980825409221
  0
ARC
  8
DETAIL
  6
CONTINUOUS
 62
     5
 10
-193.79988405959679
 20
24.199218841522448
 30
0.0
 40
1.599999993446525
 50
141.34019174590779
 51
180.0
  0
LINE
  8
DETAIL
  6
CONTINUOUS
 62
     5
 10
-195.39988405304351
 20
10.90078101470999
 30
0.0
 11
-195.39988405304351
 21
14.284016122755251
 31
0.0
  0
LINE
  8
DETAIL
  6
DASHED
 62
     5
 10
-30.499701047821869
 20
208.99938859568169
 30
0.0
 11
-30.499701047821869
 21
209.7493885926099
 31
0.0
  0
LINE
  8
DETAIL
  6
CONTINUOUS
 62
     5
 10
-28.099701057652059
 20
199.66324562333631
 30
0.0
 11
-30.499701047821869
 21
199.66324562333631
 31
0.0
  0
LINE
  8
DETAIL
  6
CONTINUOUS
 62
     5
 10
-30.499701047821869
 20
199.66324562333631
 30
0.0
 11
-30.499701047821869
 21
224.6300315542783
 31
0.0
  0
LINE
  8
DETAIL
  6
CONTINUOUS
 62
     5
 10
-28.099701057652059
 20
224.6300315542783
 30
0.0
 11
-30.499701047821869
 21
224.6300315542783
 31
0.0
  0
LINE
  8
DETAIL
  6
CONTINUOUS
 62
     5
 10
-28.099701057652059
 20
199.66324562333631
 30
0.0
 11
-28.099701057652059
 21
224.6300315542783
 31
0.0
  0
LINE
  8
DETAIL
  6
CONTINUOUS
 62
     5
 10
-162.50006671808569
 20
163.49938878205029
 30
0.0
 11
-58.500067144069817
 21
163.49938878205029
 31
0.0
  0
LINE
  8
DETAIL
  6
DASHED
 62
     5
 10
-30.499701047821869
 20
143.99938886192081
 30
0.0
 11
-30.499701047821869
 21
144.7493888588499
 31
0.0
  0
LINE
  8
DETAIL
  6
CONTINUOUS
 62
     5
 10
-28.099701057652059
 20
134.66324588957721
 30
0.0
 11
-30.499701047821869
 21
134.66324588957721
 31
0.0
  0
LINE
  8
DETAIL
  6
CONTINUOUS
 62
     5
 10
-30.499701047821869
 20
134.66324588957721
 30
0.0
 11
-30.499701047821869
 21
159.63003182051779
 31
0.0
  0
LINE
  8
DETAIL
  6
CONTINUOUS
 62
     5
 10
-28.099701057652059
 20
159.63003182051779
 30
0.0
 11
-30.499701047821869
 21
159.63003182051779
 31
0.0
  0
LINE
  8
DETAIL
  6
CONTINUOUS
 62
     5
 10
-28.099701057652059
 20
134.66324588957721
 30
0.0
 11
-28.099701057652059
 21
159.63003182051779
 31
0.0
  0
ARC
  8
DETAIL
  6
CONTINUOUS
 62
     5
 10
-44.00006720346164
 20
176.4993887288017
 30
0.0
 40
9.9999999590399629
 50
270.0
 51
295.15467218611042
  0
LINE
  8
DETAIL
  6
CONTINUOUS
 62
     5
 10
-56.500067152261643
 20
166.49938876976131
 30
0.0
 11
-44.00006720346164
 21
166.49938876976131
 31
0.0
  0
LINE
  8
DETAIL
  6
CONTINUOUS
 62
     5
 10
-164.5000667098939
 20
166.49938876976131
 30
0.0
 11
-177.00006665869341
 21
166.49938876976131
 31
0.0
  0
LINE
  8
DETAIL
  6
CONTINUOUS
 62
     5
 10
-162.50006671808569
 20
163.79938878082041
 30
0.0
 11
-164.5000667098939
 21
166.49938876976131
 31
0.0
  0
LINE
  8
DETAIL
  6
CONTINUOUS
 62
     5
 10
-56.500067152261643
 20
166.49938876976131
 30
0.0
 11
-58.500067144069817
 21
163.79938878082041
 31
0.0
  0
LINE
  8
DETAIL
  6
CONTINUOUS
 62
     5
 10
-162.50006671808569
 20
163.79938878082041
 30
0.0
 11
-162.50006671808569
 21
163.49938878205029
 31
0.0
  0
LINE
  8
DETAIL
  6
CONTINUOUS
 62
     5
 10
-58.500067144069817
 20
163.79938878082041
 30
0.0
 11
-58.500067144069817
 21
163.49938878205029
 31
0.0
  0
ARC
  8
DETAIL
  6
CONTINUOUS
 62
     5
 10
-177.00006665869341
 20
176.4993887288017
 30
0.0
 40
9.9999999590399877
 50
244.84774366771151
 51
270.0
  0
ARC
  8
DETAIL
  6
CONTINUOUS
 62
     5
 10
-56.369924973516049
 20
106.35537348398211
 30
0.0
 40
25.870624603922511
 50
271.92765239554808
 51
0.3188839175305931
  0
ARC
  8
DETAIL
  6
CONTINUOUS
 62
     5
 10
-164.6297972152399
 20
106.3553733109113
 30
0.0
 40
25.870624420390641
 50
179.6810642139464
 51
268.07234828637422
  0
ARC
  8
DETAIL
  6
CONTINUOUS
 62
     5
 10
-165.5000209294308
 20
216.49940382375081
 30
0.0
 40
24.99999989760008
 50
90.0
 51
180.0000186693288
  0
ARC
  8
DETAIL
  6
CONTINUOUS
 62
     5
 10
-55.499700945421857
 20
216.49940382375081
 30
0.0
 40
24.999999897599999
 50
0.0
 51
90.0
  0
CIRCLE
  8
DETAIL
  6
CONTINUOUS
 62
     5
 10
-110.4998685668206
 20
161.49998388301239
 30
0.0
 40
71.999999705088015
  0
CIRCLE
  8
DETAIL
  6
CONTINUOUS
 62
     5
 10
-110.5000669310775
 20
161.49938879024131
 30
0.0
 40
77.999999680511976
  0
LINE
  8
DETAIL
  6
CONTINUOUS
 62
     5
 10
-193.49981329521231
 20
78.499984222980629
 30
0.0
 11
-192.9998071937448
 21
78.499984222980629
 31
0.0
  0
LINE
  8
DETAIL
  6
CONTINUOUS
 62
     5
 10
-57.93993385761587
 20
69.499389167073559
 30
0.0
 11
-163.06020000453921
 21
69.499389167073559
 31
0.0
  0
LINE
  8
DETAIL
  6
CONTINUOUS
 62
     5
 10
-193.4998743303681
 20
81.499984210691991
 30
0.0
 11
-192.9998682289006
 21
81.499984210691991
 31
0.0
  0
LINE
  8
DETAIL
  6
CONTINUOUS
 62
     5
 10
-55.499700945421857
 20
80.499389117920828
 30
0.0
 11
-165.5000209294308
 21
80.499389117920828
 31
0.0
  0
LINE
  8
DETAIL
  6
CONTINUOUS
 62
     5
 10
-192.9998682289006
 20
78.499984222980629
 30
0.0
 11
-192.9998682289006
 21
81.499984210691991
 31
0.0
  0
LINE
  8
DETAIL
  6
CONTINUOUS
 62
     5
 10
-18.499701096973691
 20
108.93962192771529
 30
0.0
 11
-18.499701096973691
 21
214.0591556527668
 31
0.0
  0
LINE
  8
DETAIL
  6
CONTINUOUS
 62
     5
 10
-57.939951694497267
 20
253.49940367219889
 30
0.0
 11
-163.06018216765821
 21
253.49940367219889
 31
0.0
  0
LINE
  8
DETAIL
  6
CONTINUOUS
 62
     5
 10
-165.5000209294308
 20
241.4994037213506
 30
0.0
 11
-55.499700945421857
 21
241.4994037213506
 31
0.0
  0
LINE
  8
DETAIL
  6
CONTINUOUS
 62
     5
 10
-190.5000208270308
 20
106.4993890155208
 30
0.0
 11
-190.5000208270308
 21
216.49940382375081
 31
0.0
  0
LINE
  8
DETAIL
  6
DASHED
 62
     5
 10
-190.50043281433361
 20
208.99938859568169
 30
0.0
 11
-190.50043281433361
 21
209.7493885926099
 31
0.0
  0
LINE
  8
DETAIL
  6
CONTINUOUS
 62
     5
 10
-202.50002077787849
 20
214.05963724674919
 30
0.0
 11
-202.50002077787849
 21
108.93914033373289
 31
0.0
  0
ARC
  8
DETAIL
  6
CONTINUOUS
 62
     5
 10
-172.9997004641418
 20
223.99938853424121
 30
0.0
 40
196.999999193088
 50
310.54576243079879
 51
319.45423756921508
  0
ARC
  8
DETAIL
  6
CONTINUOUS
 62
     5
 10
-57.93993385761587
 20
89.499389085153098
 30
0.0
 40
19.999999918080022
 50
270.0
 51
310.54576243079879
  0
ARC
  8
DETAIL
  6
CONTINUOUS
 62
     5
 10
-38.499701015053688
 20
108.93962192771529
 30
0.0
 40
19.999999918080011
 50
319.45423756921508
 51
0.0
  0
ARC
  8
DETAIL
  6
CONTINUOUS
 62
     5
 10
-172.9997004641418
 20
98.999389046240822
 30
0.0
 40
196.99999919308809
 50
40.545762430784848
 51
49.454245167555079
  0
ARC
  8
DETAIL
  6
CONTINUOUS
 62
     5
 10
-48.000433398013683
 20
98.999389046240822
 30
0.0
 40
196.99999919308789
 50
130.54575483244491
 51
139.45403241422531
  0
ARC
  8
DETAIL
  6
CONTINUOUS
 62
     5
 10
-48.000433398013683
 20
223.99938853424121
 30
0.0
 40
196.99999919308809
 50
220.54596758577469
 51
229.45423756920121
  0
LINE
  8
DETAIL
  6
CONTINUOUS
 62
     5
 10
-30.499701047821869
 20
106.4993890155208
 30
0.0
 11
-30.499701047821869
 21
224.6300315542783
 31
0.0
  0
ARC
  8
DETAIL
  6
CONTINUOUS
 62
     5
 10
-163.06020000453921
 20
89.499389085153098
 30
0.0
 40
19.999999918079961
 50
229.45423756920121
 51
270.0
  0
ARC
  8
DETAIL
  6
CONTINUOUS
 62
     5
 10
-182.50002085979901
 20
108.93914033373289
 30
0.0
 40
19.999999918080022
 50
180.0
 51
220.54596758577469
  0
ARC
  8
DETAIL
  6
CONTINUOUS
 62
     5
 10
-163.06018216765821
 20
233.4994037541189
 30
0.0
 40
19.999999918079929
 50
90.0
 51
130.54575483244491
  0
ARC
  8
DETAIL
  6
CONTINUOUS
 62
     5
 10
-182.50002085979901
 20
214.05963724674919
 30
0.0
 40
19.999999918080029
 50
139.45403241422531
 51
180.0
  0
ARC
  8
DETAIL
  6
CONTINUOUS
 62
     5
 10
-57.939951694497267
 20
233.4994037541189
 30
0.0
 40
19.999999918080029
 50
49.454245167555079
 51
90.0
  0
ARC
  8
DETAIL
  6
CONTINUOUS
 62
     5
 10
-38.499701015053688
 20
214.0591556527668
 30
0.0
 40
19.99999991807999
 50
0.0
 51
40.545762430784848
  0
LINE
  8
DETAIL
  6
CONTINUOUS
 62
     5
 10
-189.49986824323699
 20
255.4999834979869
 30
0.0
 11
-10.499868976420659
 21
255.4999834979869
 31
0.0
  0
LINE
  8
DETAIL
  6
CONTINUOUS
 62
     5
 10
-10.499868976420659
 20
2.9999845322283818
 30
0.0
 11
-10.499868976420659
 21
261.60414681166162
 31
0.0
  0
LINE
  8
DETAIL
  6
CONTINUOUS
 62
     5
 10
-13.999868962084751
 20
2.9999845322283818
 30
0.0
 11
-13.999868962084291
 21
255.4999834979869
 31
0.0
  0
ARC
  8
DETAIL
  6
CONTINUOUS
 62
     5
 10
-164.499868345637
 20
109.0499323009942
 30
0.0
 40
39.999999836160008
 50
180.0
 51
223.53113947387621
  0
LINE
  8
DETAIL
  6
CONTINUOUS
 62
     5
 10
-204.49986818179701
 20
240.49998355942651
 30
0.0
 11
-204.49986818179701
 21
109.0499323009942
 31
0.0
  0
ARC
  8
DETAIL
  6
CONTINUOUS
 62
     5
 10
-189.49986824323699
 20
240.49998355942651
 30
0.0
 40
14.999999938559951
 50
90.0
 51
180.0
  0
LINE
  8
DETAIL
  6
DASHED
 62
     5
 10
-190.50043281433361
 20
143.99938886192081
 30
0.0
 11
-190.50043281433361
 21
144.7493888588499
 31
0.0
  0
ARC
  8
DETAIL
  6
CONTINUOUS
 62
     5
 10
-194.49980718760071
 20
23.535171215694621
 30
0.0
 40
0.9999999959039376
 50
303.69031857569291
 51
359.99992805564392
  0
ARC
  8
DETAIL
  6
CONTINUOUS
 62
     5
 10
-194.49980718760071
 20
23.535171215694621
 30
0.0
 40
0.9999999959039376
 50
303.69031857569291
 51
359.99992805564392
  0
ARC
  8
DETAIL
  6
CONTINUOUS
 62
     5
 10
-193.49980719169659
 20
19.394454679920269
 30
0.0
 40
2.999999987711969
 50
123.6899174157432
 51
180.0000186693288
  0
LINE
  8
DETAIL
  6
CONTINUOUS
 62
     5
 10
-195.16393464628891
 20
21.890362149029439
 30
0.0
 11
-193.94516262363959
 21
22.702988705920461
 31
0.0
  0
LINE
  8
DETAIL
  6
CONTINUOUS
 62
     5
 10
-193.49981329521231
 20
2.9999845322283818
 30
0.0
 11
-193.49981329521231
 21
78.499984222980629
 31
0.0
  0
LINE
  8
DETAIL
  6
CONTINUOUS
 62
     5
 10
-195.16411285762931
 20
14.109351320430051
 30
0.0
 11
-193.945120832469
 21
13.296669652885839
 31
0.0
  0
ARC
  8
DETAIL
  6
CONTINUOUS
 62
     5
 10
-193.49980719169659
 20
16.60559055560179
 30
0.0
 40
2.9999999877119188
 50
180.0000186693288
 51
236.30891780960391
  0
ARC
  8
DETAIL
  6
CONTINUOUS
 62
     5
 10
-194.49980718760071
 20
12.464797725882359
 30
0.0
 40
0.9999999959039813
 50
0.0
 51
56.308943536508977
  0
LINE
  8
DETAIL
  6
CONTINUOUS
 62
     5
 10
-196.49980717940889
 20
19.394454679920269
 30
0.0
 11
-196.49980717940889
 21
16.60559055560179
 31
0.0
  0
LINE
  8
DETAIL
  6
CONTINUOUS
 62
     5
 10
-190.50043281433361
 20
134.66324588957721
 30
0.0
 11
-190.50043281433361
 21
159.63003182051779
 31
0.0
  0
CIRCLE
  8
DETAIL
  6
CONTINUOUS
 62
     5
 10
-110.4998685668206
 20
161.49998388301239
 30
0.0
 40
70.999999709183996
  0
LINE
  8
DETAIL
  6
CONTINUOUS
 62
     5
 10
191.45001834891261
 20
222.0498823276412
 30
0.0
 11
-10.77913743393583
 21
222.0498823276412
 31
0.0
  0
LINE
  8
SIZE
  6
CONTINUOUS
 62
    30
 10
-236.99987283194969
 20
-20.0
 30
0.0
 11
-236.99987283194969
 21
-682.78727074275378
 31
0.0
  0
LINE
  8
SIZE
  6
CONTINUOUS
 62
    30
 10
237.00012522654649
 20
-20.0
 30
0.0
 11
237.00012522654649
 21
-682.78727074275378
 31
0.0
  0
LINE
  8
SIZE
  6
CONTINUOUS
 62
    30
 10
-224.99987283194969
 20
-662.78727074275378
 30
0.0
 11
225.00012522654649
 21
-662.78727074275378
 31
0.0
  0
CIRCLE
  8
SIZE
  6
CONTINUOUS
 62
    30
 10
-236.99987283194969
 20
-662.78727074275378
 30
0.0
 40
6.0
  0
LINE
  8
SIZE
  6
CONTINUOUS
 62
    30
 10
-236.99987283194969
 20
-662.78727074275378
 30
0.0
 11
-224.99987283194969
 21
-662.78727074275378
 31
0.0
  0
CIRCLE
  8
SIZE
  6
CONTINUOUS
 62
    30
 10
237.00012522654649
 20
-662.78727074275378
 30
0.0
 40
6.0
  0
LINE
  8
SIZE
  6
CONTINUOUS
 62
    30
 10
237.00012522654649
 20
-662.78727074275378
 30
0.0
 11
225.00012522654649
 21
-662.78727074275378
 31
0.0
  0
TEXT
  8
SIZE
  6
CONTINUOUS
 62
    30
 10
-111.90844523127301
 20
-637.78727074275378
 30
0.0
 40
64.0
  1
□474
 41
0.9
 72
     1
 11
0.0001261972984139
 21
-637.78727074275378
 31
0.0
  0
POINT
  8
DEFPOINTS
  6
CONTINUOUS
 62
    30
 10
-236.99987283194969
 20
0.0
 30
0.0
  0
POINT
  8
DEFPOINTS
  6
CONTINUOUS
 62
    30
 10
237.00012522654649
 20
0.0
 30
0.0
  0
POINT
  8
DEFPOINTS
  6
CONTINUOUS
 62
    30
 10
237.00012522654649
 20
-662.78727074275378
 30
0.0
  0
LINE
  8
SIZE
  6
CONTINUOUS
 62
    30
 10
17.499999846399991
 20
266.14989788071131
 30
0.0
 11
-730.29481276976185
 21
266.14989788071148
 31
0.0
  0
LINE
  8
SIZE
  6
CONTINUOUS
 62
    30
 10
-254.9999999999998
 20
0.0
 30
0.0
 11
-730.29481276976185
 21
0.0000000000001137
 31
0.0
  0
LINE
  8
SIZE
  6
CONTINUOUS
 62
    30
 10
-710.29481276976185
 20
254.14989788071151
 30
0.0
 11
-710.29481276976185
 21
12.00000000000011
 31
0.0
  0
CIRCLE
  8
SIZE
  6
CONTINUOUS
 62
    30
 10
-710.29481276976162
 20
266.14989788071148
 30
0.0
 40
6.0
  0
LINE
  8
SIZE
  6
CONTINUOUS
 62
    30
 10
-710.29481276976162
 20
266.14989788071148
 30
0.0
 11
-710.29481276976162
 21
254.14989788071151
 31
0.0
  0
CIRCLE
  8
SIZE
  6
CONTINUOUS
 62
    30
 10
-710.29481276976185
 20
0.0000000000001137
 30
0.0
 40
6.0
  0
LINE
  8
SIZE
  6
CONTINUOUS
 62
    30
 10
-710.29481276976185
 20
0.0000000000001137
 30
0.0
 11
-710.29481276976185
 21
12.00000000000011
 31
0.0
  0
TEXT
  8
SIZE
  6
CONTINUOUS
 62
    30
 10
-735.29481276976185
 20
60.389234654641463
 30
0.0
 40
64.0
  1
266
 50
90.0
 41
0.9
 72
     1
 11
-735.29481276976185
 21
133.07494894035571
 31
0.0
  0
POINT
  8
DEFPOINTS
  6
CONTINUOUS
 62
    30
 10
37.499999846399987
 20
266.14989788071131
 30
0.0
  0
POINT
  8
DEFPOINTS
  6
CONTINUOUS
 62
    30
 10
-234.9999999999998
 20
0.0
 30
0.0
  0
POINT
  8
DEFPOINTS
  6
CONTINUOUS
 62
    30
 10
-710.29481276976185
 20
0.0000000000001137
 30
0.0
  0
LINE
  8
SIZE
  6
CONTINUOUS
 62
    30
 10
-245.0
 20
0.0
 30
0.0
 11
-730.29481276976185
 21
0.0000000000001137
 31
0.0
  0
LINE
  8
SIZE
  6
CONTINUOUS
 62
    30
 10
-224.99987296302149
 20
-14.99999993855954
 30
0.0
 11
-730.29481276976185
 21
-14.99999993855943
 31
0.0
  0
LINE
  8
SIZE
  6
CONTINUOUS
 62
    30
 10
-710.29481276976185
 20
12.00000000000011
 30
0.0
 11
-710.29481276976185
 21
24.00000000000011
 31
0.0
  0
LINE
  8
SIZE
  6
CONTINUOUS
 62
    30
 10
-710.29481276976185
 20
-26.99999993855943
 30
0.0
 11
-710.29481276976185
 21
-171.28571422427359
 31
0.0
  0
LINE
  8
SIZE
  6
CONTINUOUS
 62
    30
 10
-710.29481276976185
 20
0.0000000000001137
 30
0.0
 11
-710.29481276976185
 21
-14.99999993855943
 31
0.0
  0
CIRCLE
  8
SIZE
  6
CONTINUOUS
 62
    30
 10
-710.29481276976185
 20
0.0000000000001137
 30
0.0
 40
6.0
  0
LINE
  8
SIZE
  6
CONTINUOUS
 62
    30
 10
-710.29481276976185
 20
0.0000000000001137
 30
0.0
 11
-710.29481276976185
 21
12.00000000000011
 31
0.0
  0
CIRCLE
  8
SIZE
  6
CONTINUOUS
 62
    30
 10
-710.29481276976185
 20
-14.99999993855943
 30
0.0
 40
6.0
  0
LINE
  8
SIZE
  6
CONTINUOUS
 62
    30
 10
-710.29481276976185
 20
-14.99999993855943
 30
0.0
 11
-710.29481276976185
 21
-26.99999993855943
 31
0.0
  0
TEXT
  8
SIZE
  6
CONTINUOUS
 62
    30
 10
-735.29481276976185
 20
-146.28571422427379
 30
0.0
 40
64.0
  1
15
 50
90.0
 41
0.9
 72
     1
 11
-735.29481276976185
 21
-105.14285708141669
 31
0.0
  0
POINT
  8
DEFPOINTS
  6
CONTINUOUS
 62
    30
 10
-225.0
 20
0.0
 30
0.0
  0
POINT
  8
DEFPOINTS
  6
CONTINUOUS
 62
    30
 10
-204.99987296302149
 20
-14.99999993855954
 30
0.0
  0
POINT
  8
DEFPOINTS
  6
CONTINUOUS
 62
    30
 10
-710.29481276976185
 20
-14.99999993855943
 30
0.0
  0
LINE
  8
SIZE
  6
CONTINUOUS
 62
    30
 10
-192.9999999999998
 20
275.08590402548202
 30
0.0
 11
-192.99999999999969
 21
724.03508567557424
 31
0.0
  0
LINE
  8
SIZE
  6
CONTINUOUS
 62
    30
 10
193.0
 20
250.0
 30
0.0
 11
193.0
 21
724.03508567557424
 31
0.0
  0
LINE
  8
SIZE
  6
CONTINUOUS
 62
    30
 10
-180.99999999999969
 20
704.03508567557401
 30
0.0
 11
181.0
 21
704.03508567557401
 31
0.0
  0
CIRCLE
  8
SIZE
  6
CONTINUOUS
 62
    30
 10
-192.99999999999969
 20
704.03508567557401
 30
0.0
 40
6.0
  0
LINE
  8
SIZE
  6
CONTINUOUS
 62
    30
 10
-192.99999999999969
 20
704.03508567557401
 30
0.0
 11
-180.99999999999969
 21
704.03508567557401
 31
0.0
  0
CIRCLE
  8
SIZE
  6
CONTINUOUS
 62
    30
 10
193.0
 20
704.03508567557401
 30
0.0
 40
6.0
  0
LINE
  8
SIZE
  6
CONTINUOUS
 62
    30
 10
193.0
 20
704.03508567557401
 30
0.0
 11
181.0
 21
704.03508567557401
 31
0.0
  0
TEXT
  8
SIZE
  6
CONTINUOUS
 62
    30
 10
-109.1657142857142
 20
729.03508567557424
 30
0.0
 40
64.0
  1
□386
 41
0.9
 72
     1
 11
0.0000000000001137
 21
729.03508567557424
 31
0.0
  0
POINT
  8
DEFPOINTS
  6
CONTINUOUS
 62
    30
 10
-192.9999999999998
 20
255.08590402548211
 30
0.0
  0
POINT
  8
DEFPOINTS
  6
CONTINUOUS
 62
    30
 10
193.0
 20
230.0
 30
0.0
  0
POINT
  8
DEFPOINTS
  6
CONTINUOUS
 62
    30
 10
193.0
 20
704.03508567557401
 30
0.0
  0
LINE
  8
SIZE
  6
CONTINUOUS
 62
    30
 10
-35.499700945421857
 20
80.499389117920828
 30
0.0
 11
390.61344225205897
 21
80.499389117920714
 31
0.0
  0
LINE
  8
SIZE
  6
CONTINUOUS
 62
    30
 10
257.00012522654652
 20
0.0
 30
0.0
 11
390.61344225205897
 21
0.0
 31
0.0
  0
LINE
  8
SIZE
  6
CONTINUOUS
 62
    30
 10
370.61344225205897
 20
68.499389117920714
 30
0.0
 11
370.61344225205897
 21
12.0
 31
0.0
  0
LINE
  8
SIZE
  6
CONTINUOUS
 62
    30
 10
370.61344225205897
 20
0.0
 30
0.0
 11
370.61344225205897
 21
-155.2571428571429
 31
0.0
  0
CIRCLE
  8
SIZE
  6
CONTINUOUS
 62
    30
 10
370.61344225205897
 20
80.499389117920714
 30
0.0
 40
6.0
  0
LINE
  8
SIZE
  6
CONTINUOUS
 62
    30
 10
370.61344225205897
 20
80.499389117920714
 30
0.0
 11
370.61344225205897
 21
68.499389117920714
 31
0.0
  0
CIRCLE
  8
SIZE
  6
CONTINUOUS
 62
    30
 10
370.61344225205897
 20
0.0
 30
0.0
 40
6.0
  0
LINE
  8
SIZE
  6
CONTINUOUS
 62
    30
 10
370.61344225205897
 20
0.0
 30
0.0
 11
370.61344225205897
 21
12.0
 31
0.0
  0
TEXT
  8
SIZE
  6
CONTINUOUS
 62
    30
 10
345.61344225205897
 20
-130.25714285714281
 30
0.0
 40
64.0
  1
80
 50
90.0
 41
0.9
 72
     1
 11
345.61344225205897
 21
-83.628571428571377
 31
0.0
  0
POINT
  8
DEFPOINTS
  6
CONTINUOUS
 62
    30
 10
-55.499700945421857
 20
80.499389117920828
 30
0.0
  0
POINT
  8
DEFPOINTS
  6
CONTINUOUS
 62
    30
 10
237.00012522654649
 20
0.0
 30
0.0
  0
POINT
  8
DEFPOINTS
  6
CONTINUOUS
 62
    30
 10
370.61344225205897
 20
0.0
 30
0.0
  0
LINE
  8
SIZE
  6
CONTINUOUS
 62
    30
 10
-196.0
 20
-12.0
 30
0.0
 11
-196.00000000000011
 21
-405.69201978101358
 31
0.0
  0
LINE
  8
SIZE
  6
CONTINUOUS
 62
    30
 10
196.20001832945721
 20
20.94999983226899
 30
0.0
 11
196.20001832945721
 21
-405.69201978101358
 31
0.0
  0
LINE
  8
SIZE
  6
CONTINUOUS
 62
    30
 10
-184.00000000000011
 20
-385.69201978101358
 30
0.0
 11
184.20001832945721
 21
-385.69201978101358
 31
0.0
  0
CIRCLE
  8
SIZE
  6
CONTINUOUS
 62
    30
 10
-196.00000000000011
 20
-385.69201978101358
 30
0.0
 40
6.0
  0
LINE
  8
SIZE
  6
CONTINUOUS
 62
    30
 10
-196.00000000000011
 20
-385.69201978101358
 30
0.0
 11
-184.00000000000011
 21
-385.69201978101358
 31
0.0
  0
CIRCLE
  8
SIZE
  6
CONTINUOUS
 62
    30
 10
196.20001832945721
 20
-385.69201978101358
 30
0.0
 40
6.0
  0
LINE
  8
SIZE
  6
CONTINUOUS
 62
    30
 10
196.20001832945721
 20
-385.69201978101358
 30
0.0
 11
184.20001832945721
 21
-385.69201978101358
 31
0.0
  0
TEXT
  8
SIZE
  6
CONTINUOUS
 62
    30
 10
-73.95713369241426
 20
-360.69201978101358
 30
0.0
 40
64.0
  1
392
 41
0.9
 72
     1
 11
0.1000091647285899
 21
-360.69201978101358
 31
0.0
  0
POINT
  8
DEFPOINTS
  6
CONTINUOUS
 62
    30
 10
-196.0
 20
8.0
 30
0.0
  0
POINT
  8
DEFPOINTS
  6
CONTINUOUS
 62
    30
 10
196.20001832945721
 20
40.949999832268993
 30
0.0
  0
POINT
  8
DEFPOINTS
  6
CONTINUOUS
 62
    30
 10
196.20001832945721
 20
-385.69201978101358
 30
0.0
  0
LINE
  8
OUTLINE
  6
CONTINUOUS
 62
     3
 10
-189.49986824323699
 20
255.4999834979869
 30
0.0
 11
-10.499868976420659
 21
255.4999834979869
 31
0.0
  0
LINE
  8
OUTLINE
  6
CONTINUOUS
 62
     3
 10
-10.499868976420659
 20
230.0
 30
0.0
 11
-10.499868976420659
 21
255.4999834979869
 31
0.0
  0
ARC
  8
OUTLINE
  6
CONTINUOUS
 62
     3
 10
-164.499868345637
 20
109.0499323009942
 30
0.0
 40
39.999999836160008
 50
180.0
 51
223.53113947387621
  0
LINE
  8
OUTLINE
  6
CONTINUOUS
 62
     3
 10
-204.49986818179701
 20
240.49998355942651
 30
0.0
 11
-204.49986818179701
 21
109.0499323009942
 31
0.0
  0
ARC
  8
OUTLINE
  6
CONTINUOUS
 62
     3
 10
-189.49986824323699
 20
240.49998355942651
 30
0.0
 40
14.999999938559951
 50
90.0
 51
180.0
  0
ENDSEC
  0
EOF
