  0
SECTION
  2
HEADER
  9
$ACADVER
  1
AC1009
  9
$DWGCODEPAGE
  3
dos932
  9
$INSBASE
 10
0.0
 20
0.0
 30
0.0
  9
$EXTMIN
 10
-598.20554981497844
 20
-719.05516439473286
 30
-0.0015258207003583
  9
$EXTMAX
 10
1001.087963198181
 20
760.71167814162436
 30
0.0000000349246037
  9
$LIMMIN
 10
-2970.0
 20
-2100.0
  9
$LIMMAX
 10
2970.0
 20
2100.0
  9
$ORTHOMODE
 70
     1
  9
$REGENMODE
 70
     1
  9
$FILLMODE
 70
     1
  9
$QTEXTMODE
 70
     0
  9
$MIRRTEXT
 70
     0
  9
$LTSCALE
 40
20.0
  9
$ATTMODE
 70
     1
  9
$TEXTSIZE
 40
64.0
  9
$TRACEWID
 40
0.05
  9
$TEXTSTYLE
  7
STANDARD
  9
$CLAYER
  8
SIZE
  9
$CELTYPE
  6
CONTINUOUS
  9
$CECOLOR
 62
     7
  9
$DIMSCALE
 40
1.0
  9
$DIMASZ
 40
12.0
  9
$DIMEXO
 40
20.0
  9
$DIMDLI
 40
200.0
  9
$DIMRND
 40
0.0
  9
$DIMDLE
 40
0.0
  9
$DIMEXE
 40
20.0
  9
$DIMTP
 40
0.0
  9
$DIMTM
 40
0.0
  9
$DIMTXT
 40
64.0
  9
$DIMCEN
 40
0.09
  9
$DIMTSZ
 40
0.0
  9
$DIMTOL
 70
     0
  9
$DIMLIM
 70
     0
  9
$DIMTIH
 70
     0
  9
$DIMTOH
 70
     0
  9
$DIMSE1
 70
     0
  9
$DIMSE2
 70
     0
  9
$DIMTAD
 70
     1
  9
$DIMZIN
 70
     8
  9
$DIMBLK
  1

  9
$DIMASO
 70
     1
  9
$DIMSHO
 70
     0
  9
$DIMPOST
  1

  9
$DIMAPOST
  1

  9
$DIMALT
 70
     0
  9
$DIMALTD
 70
     2
  9
$DIMALTF
 40
25.399999999999999
  9
$DIMLFAC
 40
1.0
  9
$DIMTOFL
 70
     1
  9
$DIMTVP
 40
0.0
  9
$DIMTIX
 70
     1
  9
$DIMSOXD
 70
     0
  9
$DIMSAH
 70
     0
  9
$DIMBLK1
  1

  9
$DIMBLK2
  1

  9
$DIMSTYLE
  2
STANDARD
  9
$DIMCLRD
 70
     7
  9
$DIMCLRE
 70
     7
  9
$DIMCLRT
 70
     7
  9
$DIMTFAC
 40
1.0
  9
$DIMGAP
 40
25.0
  9
$LUNITS
 70
     2
  9
$LUPREC
 70
     4
  9
$SKETCHINC
 40
0.1
  9
$FILLETRAD
 40
3.0
  9
$AUNITS
 70
     1
  9
$AUPREC
 70
     3
  9
$MENU
  1
ACAD
  9
$ELEVATION
 40
0.0
  9
$PELEVATION
 40
0.0
  9
$THICKNESS
 40
0.0
  9
$LIMCHECK
 70
     0
  9
$CHAMFERA
 40
0.0
  9
$CHAMFERB
 40
0.0
  9
$SKPOLY
 70
     0
  9
$TDCREATE
 40
2453019.62301037
  9
$TDUPDATE
 40
2459025.520371528
  9
$TDINDWG
 40
1.7278863542
  9
$TDUSRTIMER
 40
1.7278863542
  9
$USRTIMER
 70
     1
  9
$ANGBASE
 50
0.0
  9
$ANGDIR
 70
     0
  9
$PDMODE
 70
     3
  9
$PDSIZE
 40
-2.0
  9
$PLINEWID
 40
0.0
  9
$SPLFRAME
 70
     0
  9
$SPLINETYPE
 70
     6
  9
$SPLINESEGS
 70
     8
  9
$SURFTAB1
 70
     6
  9
$SURFTAB2
 70
     6
  9
$SURFTYPE
 70
     6
  9
$SURFU
 70
     6
  9
$SURFV
 70
     6
  9
$UCSNAME
  2

  9
$UCSORG
 10
0.0
 20
0.0
 30
0.0
  9
$UCSXDIR
 10
1.0
 20
0.0
 30
0.0
  9
$UCSYDIR
 10
0.0
 20
1.0
 30
0.0
  9
$PUCSNAME
  2

  9
$PUCSORG
 10
0.0
 20
0.0
 30
0.0
  9
$PUCSXDIR
 10
1.0
 20
0.0
 30
0.0
  9
$PUCSYDIR
 10
0.0
 20
1.0
 30
0.0
  9
$USERI1
 70
     0
  9
$USERI2
 70
     0
  9
$USERI3
 70
     0
  9
$USERI4
 70
     0
  9
$USERI5
 70
     0
  9
$USERR1
 40
20.0
  9
$USERR2
 40
0.0
  9
$USERR3
 40
0.0
  9
$USERR4
 40
0.0
  9
$USERR5
 40
0.0
  9
$WORLDVIEW
 70
     1
  9
$SHADEDGE
 70
     3
  9
$SHADEDIF
 70
    70
  9
$TILEMODE
 70
     1
  9
$MAXACTVP
 70
    48
  9
$PINSBASE
 10
0.0
 20
0.0
 30
0.0
  9
$PLIMCHECK
 70
     0
  9
$PEXTMIN
 10
-100000000000000000000.0
 20
-100000000000000000000.0
 30
-100000000000000000000.0
  9
$PEXTMAX
 10
100000000000000000000.0
 20
100000000000000000000.0
 30
100000000000000000000.0
  9
$PLIMMIN
 10
0.0
 20
0.0
  9
$PLIMMAX
 10
12.0
 20
9.0
  9
$UNITMODE
 70
     0
  9
$VISRETAIN
 70
     0
  9
$PLINEGEN
 70
     0
  9
$PSLTSCALE
 70
     0
  9
$TREEDEPTH
 70
  3020
  9
$ATTDIA
 70
     0
  9
$ATTREQ
 70
     1
  9
$BLIPMODE
 70
     1
  9
$COORDS
 70
     1
  9
$DRAGMODE
 70
     2
  9
$OSMODE
 70
     0
  9
$HANDLING
 70
     0
  9
$HANDSEED
  5
F3E6
  0
ENDSEC
  0
SECTION
  2
TABLES
  0
TABLE
  2
LTYPE
 70
     2
  0
LTYPE
  2
CONTINUOUS
 70
     0
  3
実線
 72
    65
 73
     0
 40
0.0
  0
LTYPE
  2
DASHDOT
 70
     0
  3
____ _ ____ _ ____ _ ____ _ ____ _ ____ _ ____
 72
    65
 73
     4
 40
5.5
 49
4.0
 49
-0.6
 49
0.3
 49
-0.6
  0
ENDTAB
  0
TABLE
  2
LAYER
 70
    12
  0
LAYER
  2
0
 70
     0
 62
     7
  6
CONTINUOUS
  0
LAYER
  2
BASIS
 70
     0
 62
     6
  6
DASHDOT
  0
LAYER
  2
OUTLINE
 70
     0
 62
     3
  6
CONTINUOUS
  0
LAYER
  2
DETAIL
 70
     0
 62
     5
  6
CONTINUOUS
  0
LAYER
  2
SIZE
 70
     0
 62
    30
  6
CONTINUOUS
  0
LAYER
  2
ARRANGE
 70
     0
 62
     1
  6
CONTINUOUS
  0
LAYER
  2
DEFPOINTS
 70
     0
 62
     7
  6
CONTINUOUS
  0
LAYER
  2
ETC
 70
     0
 62
    61
  6
CONTINUOUS
  0
LAYER
  2
FIX
 70
     0
 62
    11
  6
CONTINUOUS
  0
LAYER
  2
NOTE
 70
     0
 62
     4
  6
CONTINUOUS
  0
LAYER
  2
SERVICESPACE
 70
    64
 62
     2
  6
DASHDOT
  0
LAYER
  2
SYMBOLLINE
 70
    64
 62
    15
  6
CONTINUOUS
  0
ENDTAB
  0
TABLE
  2
STYLE
 70
     1
  0
STYLE
  2
STANDARD
 70
     0
 40
64.0
 41
0.9
 50
0.0
 71
     0
 42
64.0
  3
SIMPLEX.shx
  4
BIGFONT.shx
  0
ENDTAB
  0
TABLE
  2
APPID
 70
    19
  0
APPID
  2
ACAD
 70
     0
  0
APPID
  2
AUTOCAD_POSTSCRIPT_FIGURE
 70
     0
  0
APPID
  2
ACAD_EXEMPT_FROM_CAD_STANDARDS
 70
     0
  0
APPID
  2
ACAD_PSEXT
 70
     0
  0
APPID
  2
ACAUTHENVIRON
 70
     0
  0
APPID
  2
GENIUS_GENOENT_13
 70
     0
  0
APPID
  2
GENIUS_GENCFG_13
 70
     0
  0
APPID
  2
GENIUS_GENCFG0_13
 70
     0
  0
APPID
  2
GENIUS_GENCFG1_13
 70
     0
  0
APPID
  2
GENIUS_GENCFG2_13
 70
     0
  0
APPID
  2
GENIUS_GENCFG3_13
 70
     0
  0
APPID
  2
GENIUS_GENCFG4_13
 70
     0
  0
APPID
  2
GENIUS_GEVCFG0_13
 70
     0
  0
APPID
  2
CONTENTBLOCKICON
 70
     0
  0
APPID
  2
CONTENTBLOCKDESCRIPTION
 70
     0
  0
APPID
  2
ACAD_NAV_VCDISPLAY
 70
     0
  0
APPID
  2
ACAD_MLEADERVER
 70
     0
  0
APPID
  2
ACDBDYNAMICBLOCKTRUENAME
 70
     0
  0
APPID
  2
ACDBDYNAMICBLOCKGUID
 70
     0
  0
ENDTAB
  0
TABLE
  2
DIMSTYLE
 70
     1
  0
DIMSTYLE
  2
STANDARD
 70
     0
  3

  4

  5
_ORIGIN
  6

  7

 40
1.0
 41
12.0
 42
20.0
 43
200.0
 44
20.0
 45
0.0
 46
0.0
 47
0.0
 48
0.0
140
64.0
141
0.09
142
0.0
143
25.399999999999999
144
1.0
145
0.0
146
1.0
147
25.0
 71
     0
 72
     0
 73
     0
 74
     0
 75
     0
 76
     0
 77
     1
 78
     8
170
     0
171
     2
172
     1
173
     0
174
     1
175
     0
176
     7
177
     7
178
     7
  0
ENDTAB
  0
TABLE
  2
VIEW
 70
     1
  0
VIEW
  2
ALL
 70
     0
 40
4282.6198079999986
 10
0.0
 20
41.309904000000003
 41
5940.0
 11
0.0
 21
0.0
 31
1.0
 12
0.0
 22
0.0
 32
0.0
 42
50.0
 43
0.0
 44
0.0
 50
0.0
 71
     0
  0
ENDTAB
  0
TABLE
  2
UCS
 70
     0
  0
ENDTAB
  0
TABLE
  2
VPORT
 70
     1
  0
VPORT
  2
*ACTIVE
 70
     0
 10
0.0
 20
0.0
 11
1.0
 21
1.0
 12
201.44120669160111
 22
20.828256873445749
 13
0.0
 23
0.0
 14
1.0
 24
1.0
 15
0.0
 25
0.0
 16
0.0
 26
0.0
 36
1.0
 17
0.0
 27
0.0
 37
0.0
 40
1489.577451437151
 41
1.747787610619469
 42
50.0
 43
0.0
 44
0.0
 50
0.0
 51
0.0
 71
     0
 72
  1000
 73
     1
 74
     3
 75
     0
 76
     0
 77
     0
 78
     0
  0
ENDTAB
  0
ENDSEC
  0
SECTION
  2
BLOCKS
  0
BLOCK
  8
0
  2
_ORIGIN
 70
     0
 10
0.0
 20
0.0
 30
0.0
  3
_ORIGIN
  1
_ORIGIN
  0
CIRCLE
  8
0
  6
CONTINUOUS
 62
     7
 10
0.0
 20
0.0
 30
0.0
 40
0.5
  0
LINE
  8
0
  6
CONTINUOUS
 62
     7
 10
0.0
 20
0.0
 30
0.0
 11
-1.0
 21
0.0
 31
0.0
  0
ENDBLK
  8
0
  0
ENDSEC
  0
SECTION
  2
ENTITIES
  0
TEXT
  8
ETC
  6
CONTINUOUS
 62
    61
 10
429.93161714259622
 20
696.48258100595399
 30
0.0
 40
64.0
  1
VD-23ZV6_3
 41
0.9
  0
TEXT
  8
ETC
  6
CONTINUOUS
 62
    61
 10
425.74562314259578
 20
578.5272709911228
 30
0.0
 40
64.0
  1
換気扇
 41
0.9
  0
TEXT
  8
ETC
  6
CONTINUOUS
 62
    61
 10
476.35312579485247
 20
470.69149095157542
 30
0.0
 40
40.0
  1
VD-23ZV6
 41
0.9
  0
POINT
  8
ARRANGE
  6
CONTINUOUS
 62
     1
 10
0.0
 20
0.0
 30
0.0
 50
180.0
  0
LINE
  8
OUTLINE
  6
CONTINUOUS
 62
     3
 10
235.0
 20
0.0
 30
0.0
 11
-235.0
 21
0.0
 31
0.0
  0
LINE
  8
OUTLINE
  6
CONTINUOUS
 62
     3
 10
-193.0
 20
230.0
 30
0.0
 11
193.0
 21
230.0
 31
0.0
  0
CIRCLE
  8
ARRANGE
  6
CONTINUOUS
 62
     1
 10
0.0
 20
0.0
 30
0.0
 40
40.0
  0
LINE
  8
SIZE
  6
CONTINUOUS
 62
    30
 10
11.5
 20
405.88629682569899
 30
0.0
 11
-0.5
 21
405.88629682569899
 31
0.0
  0
TEXT
  8
SIZE
  6
CONTINUOUS
 62
    30
 10
-68.571428571428555
 20
694.31952364100425
 30
0.0
 40
64.0
  1
418
 41
0.9
 72
     1
 11
0.0
 21
694.31952364100425
 31
0.0
  0
LINE
  8
SIZE
  6
CONTINUOUS
 62
    30
 10
-197.0
 20
676.27454464100447
 30
0.0
 11
197.0
 21
676.27454464100447
 31
0.0
  0
TEXT
  8
SIZE
  6
CONTINUOUS
 62
    30
 10
-68.571554768726969
 20
-525.10349242418079
 30
0.0
 40
64.0
  1
410
 41
0.9
 72
     1
 11
-0.0001261972984139
 21
-525.10349242418079
 31
0.0
  0
LINE
  8
SIZE
  6
CONTINUOUS
 62
    30
 10
-193.00012619729841
 20
-553.30221342418088
 30
0.0
 11
192.99987380270159
 21
-553.30221342418088
 31
0.0
  0
TEXT
  8
SIZE
  6
CONTINUOUS
 62
    30
 10
-74.05714285714285
 20
-258.11089852382798
 30
0.0
 40
64.0
  1
300
 41
0.9
 72
     1
 11
0.0
 21
-258.11089852382798
 31
0.0
  0
LINE
  8
SIZE
  6
CONTINUOUS
 62
    30
 10
-138.0
 20
-283.69323652382798
 30
0.0
 11
138.0
 21
-283.69323652382798
 31
0.0
  0
LINE
  8
OUTLINE
  6
CONTINUOUS
 62
     3
 10
193.0
 20
0.0
 30
0.0
 11
193.0
 21
230.0
 31
0.0
  0
LINE
  8
NOTE
  6
CONTINUOUS
 62
     4
 10
204.95665099999999
 20
0.0514439999999468
 30
0.0
 11
240.9094540000001
 21
-17.481266999999999
 31
0.0
  0
LINE
  8
NOTE
  6
CONTINUOUS
 62
     4
 10
227.32633600000011
 20
-33.108731000000027
 30
0.0
 11
204.95665099999999
 21
0.0514439999999468
 31
0.0
  0
LINE
  8
NOTE
  6
CONTINUOUS
 62
     4
 10
204.98113199999989
 20
0.0028320000000122
 30
0.0
 11
607.90549299999975
 21
-360.04109499999998
 31
0.0
  0
LINE
  8
NOTE
  6
CONTINUOUS
 62
     4
 10
150.0
 20
-20.0
 30
0.0
 11
150.0
 21
20.0
 31
0.0
  0
CIRCLE
  8
FIX
  6
CONTINUOUS
 62
    11
 10
150.0
 20
0.0
 30
0.0
 40
2.5
  0
CIRCLE
  8
FIX
  6
CONTINUOUS
 62
    11
 10
205.0
 20
0.0
 30
0.0
 40
2.5
  0
LINE
  8
NOTE
  6
CONTINUOUS
 62
     4
 10
205.0
 20
-20.0
 30
0.0
 11
205.0
 21
20.0
 31
0.0
  0
LINE
  8
NOTE
  6
CONTINUOUS
 62
     4
 10
607.90549299999975
 20
-360.04109499999998
 30
0.0
 11
1000.914
 21
-360.04109499999998
 31
0.0
  0
TEXT
  8
NOTE
  6
CONTINUOUS
 62
     4
 10
628.35878142857155
 20
-327.07682499999987
 30
0.0
 40
64.0
  1
8-φ5×8
 41
0.9
  0
LINE
  8
SIZE
  6
CONTINUOUS
 62
    30
 10
205.0
 20
-40.0
 30
0.0
 11
204.99987380270159
 21
-587.59300152665526
 31
0.0
  0
LINE
  8
SIZE
  6
CONTINUOUS
 62
    30
 10
150.0
 20
-40.0
 30
0.0
 11
150.0
 21
-303.69323652382798
 31
0.0
  0
LINE
  8
SIZE
  6
CONTINUOUS
 62
    30
 10
204.99987380270159
 20
-553.30221342418088
 30
0.0
 11
192.99987380270159
 21
-553.30221342418088
 31
0.0
  0
CIRCLE
  8
SIZE
  6
CONTINUOUS
 62
    30
 10
204.99987380270159
 20
-553.30221342418088
 30
0.0
 40
6.0
  0
LINE
  8
SIZE
  6
CONTINUOUS
 62
    30
 10
150.0
 20
-283.69323652382798
 30
0.0
 11
138.0
 21
-283.69323652382798
 31
0.0
  0
CIRCLE
  8
SIZE
  6
CONTINUOUS
 62
    30
 10
150.0
 20
-283.69323652382798
 30
0.0
 40
6.0
  0
LINE
  8
NOTE
  6
CONTINUOUS
 62
     4
 10
185.0
 20
0.0
 30
0.0
 11
225.0
 21
0.0
 31
0.0
  0
LINE
  8
NOTE
  6
CONTINUOUS
 62
     4
 10
130.0
 20
0.0
 30
0.0
 11
170.0
 21
0.0
 31
0.0
  0
CIRCLE
  8
FIX
  6
CONTINUOUS
 62
    11
 10
209.0
 20
237.0
 30
0.0
 40
6.0
  0
LINE
  8
SIZE
  6
CONTINUOUS
 62
    30
 10
209.0
 20
233.42818230272411
 30
0.0
 11
209.0
 21
696.27454464100447
 31
0.0
  0
LINE
  8
SIZE
  6
CONTINUOUS
 62
    30
 10
11.5
 20
275.54359100556212
 30
0.0
 11
11.5
 21
425.88629682569899
 31
0.0
  0
LINE
  8
NOTE
  6
CONTINUOUS
 62
     4
 10
209.0
 20
217.0
 30
0.0
 11
209.0
 21
257.0
 31
0.0
  0
LINE
  8
NOTE
  6
CONTINUOUS
 62
     4
 10
189.0
 20
237.0
 30
0.0
 11
229.0
 21
237.0
 31
0.0
  0
CIRCLE
  8
SIZE
  6
CONTINUOUS
 62
    30
 10
11.5
 20
405.88629682569899
 30
0.0
 40
6.0
  0
LINE
  8
SIZE
  6
CONTINUOUS
 62
    30
 10
209.0
 20
676.27454464100447
 30
0.0
 11
197.0
 21
676.27454464100447
 31
0.0
  0
CIRCLE
  8
SIZE
  6
CONTINUOUS
 62
    30
 10
209.0
 20
676.27454464100447
 30
0.0
 40
6.0
  0
LINE
  8
OUTLINE
  6
CONTINUOUS
 62
     3
 10
-193.0
 20
0.0
 30
0.0
 11
-193.0
 21
230.0
 31
0.0
  0
LINE
  8
NOTE
  6
CONTINUOUS
 62
     4
 10
-205.0
 20
-20.0
 30
0.0
 11
-205.0
 21
20.0
 31
0.0
  0
LINE
  8
NOTE
  6
CONTINUOUS
 62
     4
 10
-150.0
 20
-20.0
 30
0.0
 11
-150.0
 21
20.0
 31
0.0
  0
CIRCLE
  8
FIX
  6
CONTINUOUS
 62
    11
 10
-150.0
 20
0.0
 30
0.0
 40
2.5
  0
CIRCLE
  8
FIX
  6
CONTINUOUS
 62
    11
 10
-205.0
 20
0.0
 30
0.0
 40
2.5
  0
LINE
  8
SIZE
  6
CONTINUOUS
 62
    30
 10
-205.0
 20
-40.0
 30
0.0
 11
-205.00012619729841
 21
-580.86320657582041
 31
0.0
  0
LINE
  8
SIZE
  6
CONTINUOUS
 62
    30
 10
-150.0
 20
-40.0
 30
0.0
 11
-150.0
 21
-303.69323652382798
 31
0.0
  0
LINE
  8
SIZE
  6
CONTINUOUS
 62
    30
 10
-205.00012619729841
 20
-553.30221342418088
 30
0.0
 11
-193.00012619729841
 21
-553.30221342418088
 31
0.0
  0
CIRCLE
  8
SIZE
  6
CONTINUOUS
 62
    30
 10
-205.00012619729841
 20
-553.30221342418088
 30
0.0
 40
6.0
  0
LINE
  8
SIZE
  6
CONTINUOUS
 62
    30
 10
-150.0
 20
-283.69323652382798
 30
0.0
 11
-138.0
 21
-283.69323652382798
 31
0.0
  0
CIRCLE
  8
SIZE
  6
CONTINUOUS
 62
    30
 10
-150.0
 20
-283.69323652382798
 30
0.0
 40
6.0
  0
LINE
  8
NOTE
  6
CONTINUOUS
 62
     4
 10
-130.0
 20
0.0
 30
0.0
 11
-170.0
 21
0.0
 31
0.0
  0
LINE
  8
NOTE
  6
CONTINUOUS
 62
     4
 10
-185.0
 20
0.0
 30
0.0
 11
-225.0
 21
0.0
 31
0.0
  0
CIRCLE
  8
FIX
  6
CONTINUOUS
 62
    11
 10
-209.0
 20
237.0
 30
0.0
 40
6.0
  0
LINE
  8
NOTE
  6
CONTINUOUS
 62
     4
 10
-356.92725952457482
 20
324.557364471661
 30
0.0
 11
-597.97190869116548
 21
324.557364471661
 31
0.0
  0
TEXT
  8
NOTE
  6
CONTINUOUS
 62
     4
 10
-565.81923164516274
 20
362.64819947166097
 30
0.0
 40
64.0
  1
AH 4
 41
0.9
  0
LINE
  8
SIZE
  6
CONTINUOUS
 62
    30
 10
-209.0
 20
225.12662008932151
 30
0.0
 11
-209.0
 21
696.27454464100447
 31
0.0
  0
LINE
  8
NOTE
  6
CONTINUOUS
 62
     4
 10
-209.0
 20
237.0
 30
0.0
 11
-356.99117229247901
 21
324.557364471661
 31
0.0
  0
TEXT
  8
NOTE
  6
CONTINUOUS
 62
     4
 10
-424.14874713820558
 20
535.93450350211606
 30
0.0
 40
64.0
  1
EL
 41
0.9
  0
LINE
  8
NOTE
  6
CONTINUOUS
 62
     4
 10
-312.44083270963438
 20
508.98081750211622
 30
0.0
 11
-443.2504385017337
 21
508.98081750211622
 31
0.0
  0
LINE
  8
SIZE
  6
CONTINUOUS
 62
    30
 10
-86.5
 20
273.4957368097057
 30
0.0
 11
-86.5
 21
425.88629682569899
 31
0.0
  0
LINE
  8
NOTE
  6
CONTINUOUS
 62
     4
 10
-209.0
 20
237.0
 30
0.0
 11
-237.33437091798439
 21
266.04678225682642
 31
0.0
  0
LINE
  8
NOTE
  6
CONTINUOUS
 62
     4
 10
-247.54613525505559
 20
248.03460237101291
 30
0.0
 11
-209.0
 21
237.0
 31
0.0
  0
LINE
  8
NOTE
  6
CONTINUOUS
 62
     4
 10
-168.9999968607062
 20
229.99999267089629
 30
0.0
 11
-312.44083270963438
 21
508.98081750211622
 31
0.0
  0
LINE
  8
NOTE
  6
CONTINUOUS
 62
     4
 10
-169.0
 20
210.0
 30
0.0
 11
-169.0
 21
250.0
 31
0.0
  0
LINE
  8
NOTE
  6
CONTINUOUS
 62
     4
 10
-209.0
 20
218.0
 30
0.0
 11
-209.0
 21
258.0
 31
0.0
  0
LINE
  8
NOTE
  6
CONTINUOUS
 62
     4
 10
-177.3691587566943
 20
269.11465946634428
 30
0.0
 11
-168.9999968607062
 21
229.99999267089629
 31
0.0
  0
LINE
  8
NOTE
  6
CONTINUOUS
 62
     4
 10
-149.0
 20
230.0
 30
0.0
 11
-189.0
 21
230.0
 31
0.0
  0
LINE
  8
NOTE
  6
CONTINUOUS
 62
     4
 10
-168.9999968607062
 20
229.99999267089629
 30
0.0
 11
-195.80523784171939
 21
259.6897059707951
 31
0.0
  0
LINE
  8
NOTE
  6
CONTINUOUS
 62
     4
 10
-189.0
 20
237.0
 30
0.0
 11
-229.0
 21
237.0
 31
0.0
  0
TEXT
  8
SIZE
  6
CONTINUOUS
 62
    30
 10
-133.44013810238391
 20
443.08411076541603
 30
0.0
 40
64.0
  1
φ98
 41
0.9
 72
     1
 11
-46.491566673812493
 21
443.08411076541603
 31
0.0
  0
LINE
  8
SIZE
  6
CONTINUOUS
 62
    30
 10
-74.5
 20
405.88629682569899
 30
0.0
 11
-0.5
 21
405.88629682569899
 31
0.0
  0
LINE
  8
SIZE
  6
CONTINUOUS
 62
    30
 10
-86.5
 20
405.88629682569899
 30
0.0
 11
-74.5
 21
405.88629682569899
 31
0.0
  0
CIRCLE
  8
SIZE
  6
CONTINUOUS
 62
    30
 10
-86.5
 20
405.88629682569899
 30
0.0
 40
6.0
  0
LINE
  8
SIZE
  6
CONTINUOUS
 62
    30
 10
-209.0
 20
676.27454464100447
 30
0.0
 11
-197.0
 21
676.27454464100447
 31
0.0
  0
CIRCLE
  8
SIZE
  6
CONTINUOUS
 62
    30
 10
-209.0
 20
676.27454464100447
 30
0.0
 40
6.0
  0
LINE
  8
SIZE
  6
CONTINUOUS
 62
    30
 10
193.0
 20
275.08590402548202
 30
0.0
 11
193.0
 21
555.52995850804155
 31
0.0
  0
LINE
  8
SIZE
  6
CONTINUOUS
 62
    30
 10
204.49986818179701
 20
260.49998355942648
 30
0.0
 11
204.49986818179701
 21
555.52995850804155
 31
0.0
  0
LINE
  8
SIZE
  6
CONTINUOUS
 62
    30
 10
181.0
 20
535.52995850804155
 30
0.0
 11
169.0
 21
535.52995850804155
 31
0.0
  0
LINE
  8
SIZE
  6
CONTINUOUS
 62
    30
 10
216.49986818179701
 20
535.52995850804155
 30
0.0
 11
353.57809778240221
 21
535.52995850804155
 31
0.0
  0
LINE
  8
SIZE
  6
CONTINUOUS
 62
    30
 10
193.0
 20
535.52995850804155
 30
0.0
 11
204.49986818179701
 21
535.52995850804155
 31
0.0
  0
CIRCLE
  8
SIZE
  6
CONTINUOUS
 62
    30
 10
193.0
 20
535.52995850804155
 30
0.0
 40
6.0
  0
LINE
  8
SIZE
  6
CONTINUOUS
 62
    30
 10
193.0
 20
535.52995850804155
 30
0.0
 11
181.0
 21
535.52995850804155
 31
0.0
  0
CIRCLE
  8
SIZE
  6
CONTINUOUS
 62
    30
 10
204.49986818179701
 20
535.52995850804155
 30
0.0
 40
6.0
  0
LINE
  8
SIZE
  6
CONTINUOUS
 62
    30
 10
204.49986818179701
 20
535.52995850804155
 30
0.0
 11
216.49986818179701
 21
535.52995850804155
 31
0.0
  0
TEXT
  8
SIZE
  6
CONTINUOUS
 62
    30
 10
270.97809778240219
 20
560.52995850804155
 30
0.0
 40
64.0
  1
11
 41
0.9
 72
     1
 11
299.77809778240231
 21
560.52995850804155
 31
0.0
  0
POINT
  8
DEFPOINTS
  6
CONTINUOUS
 62
    30
 10
193.0
 20
255.08590402548199
 30
0.0
  0
POINT
  8
DEFPOINTS
  6
CONTINUOUS
 62
    30
 10
204.49986818179701
 20
240.49998355942651
 30
0.0
  0
POINT
  8
DEFPOINTS
  6
CONTINUOUS
 62
    30
 10
204.49986818179701
 20
535.52995850804155
 30
0.0
  0
LINE
  8
SIZE
  6
CONTINUOUS
 62
    30
 10
-245.25
 20
237.0
 30
0.0
 11
-479.06773853517137
 21
237.00000000000011
 31
0.0
  0
LINE
  8
SIZE
  6
CONTINUOUS
 62
    30
 10
-255.0
 20
0.0
 30
0.0
 11
-479.06773853517137
 21
0.0000000000001137
 31
0.0
  0
LINE
  8
SIZE
  6
CONTINUOUS
 62
    30
 10
-459.06773853517137
 20
225.00000000000011
 30
0.0
 11
-459.06773853517137
 21
12.00000000000011
 31
0.0
  0
CIRCLE
  8
SIZE
  6
CONTINUOUS
 62
    30
 10
-459.06773853517137
 20
237.00000000000011
 30
0.0
 40
6.0
  0
LINE
  8
SIZE
  6
CONTINUOUS
 62
    30
 10
-459.06773853517137
 20
237.00000000000011
 30
0.0
 11
-459.06773853517137
 21
225.00000000000011
 31
0.0
  0
CIRCLE
  8
SIZE
  6
CONTINUOUS
 62
    30
 10
-459.06773853517137
 20
0.0000000000001137
 30
0.0
 40
6.0
  0
LINE
  8
SIZE
  6
CONTINUOUS
 62
    30
 10
-459.06773853517137
 20
0.0000000000001137
 30
0.0
 11
-459.06773853517137
 21
12.00000000000011
 31
0.0
  0
TEXT
  8
SIZE
  6
CONTINUOUS
 62
    30
 10
-484.06773853517137
 20
44.442857142857143
 30
0.0
 40
64.0
  1
237
 50
90.0
 41
0.9
 72
     1
 11
-484.06773853517137
 21
118.5
 31
0.0
  0
POINT
  8
DEFPOINTS
  6
CONTINUOUS
 62
    30
 10
-225.25
 20
237.0
 30
0.0
  0
POINT
  8
DEFPOINTS
  6
CONTINUOUS
 62
    30
 10
-235.0
 20
0.0
 30
0.0
  0
POINT
  8
DEFPOINTS
  6
CONTINUOUS
 62
    30
 10
-459.06773853517137
 20
0.0000000000001137
 30
0.0
  0
LINE
  8
BASIS
  6
DASHDOT
 62
     6
 10
0.0
 20
-95.609780000000001
 30
0.0
 11
0.0
 21
280.0
 31
0.0
  0
ARC
  8
DETAIL
  6
CONTINUOUS
 62
     5
 10
-191.45001834891261
 20
223.2998823225212
 30
0.0
 40
1.249999994880012
 50
180.0
 51
270.0
  0
LINE
  8
DETAIL
  6
CONTINUOUS
 62
     5
 10
-192.70001834379261
 20
223.2998823225212
 30
0.0
 11
-192.70001834379261
 21
228.74997995644659
 31
0.0
  0
ARC
  8
DETAIL
  6
CONTINUOUS
 62
     5
 10
-191.45001834891261
 20
228.74997995644659
 30
0.0
 40
1.249999994880012
 50
90.0
 51
180.0
  0
ARC
  8
DETAIL
  6
CONTINUOUS
 62
     5
 10
-192.10001834625061
 20
221.14988233132729
 30
0.0
 40
0.8999999963132751
 50
90.0
 51
180.0
  0
ARC
  8
DETAIL
  6
CONTINUOUS
 62
     5
 10
-194.00001833846861
 20
0.9999999959054549
 30
0.0
 40
0.9999999959039748
 50
270.0
 51
0.0
  0
LINE
  8
DETAIL
  6
CONTINUOUS
 62
     5
 10
-193.00001834256409
 20
0.9999999959054549
 30
0.0
 11
-193.00001834256409
 21
220.4998823313272
 31
0.0
  0
LINE
  8
DETAIL
  6
CONTINUOUS
 62
     5
 10
10.499868976420659
 20
229.99999566311729
 30
0.0
 11
-191.45001834891261
 21
229.99999566311729
 31
0.0
  0
LINE
  8
DETAIL
  6
CONTINUOUS
 62
     5
 10
-237.00012522654649
 20
0.0
 30
0.0
 11
236.99987283194969
 21
0.0
 31
0.0
  0
LINE
  8
DETAIL
  6
CONTINUOUS
 62
     5
 10
-237.00012522654649
 20
-0.6000976537920906
 30
0.0
 11
236.99987283194969
 21
-0.6000976537920906
 31
0.0
  0
ARC
  8
DETAIL
  6
CONTINUOUS
 62
     5
 10
204.99987296302149
 20
54.999999774721353
 30
0.0
 40
69.999999713280019
 50
270.0
 51
294.31576395564917
  0
ARC
  8
DETAIL
  6
CONTINUOUS
 62
     5
 10
232.99987284833381
 20
-6.9677734089591468
 30
0.0
 40
1.999999991808038
 50
294.31631037079171
 51
0.0
  0
LINE
  8
DETAIL
  6
CONTINUOUS
 62
     5
 10
234.99987284014151
 20
-1.6000976496948169
 30
0.0
 11
234.99987284014151
 21
-6.9677734089591468
 31
0.0
  0
LINE
  8
DETAIL
  6
CONTINUOUS
 62
     5
 10
236.99987283194969
 20
-0.6000976537920906
 30
0.0
 11
235.99987283604611
 21
-0.6000976537920906
 31
0.0
  0
LINE
  8
DETAIL
  6
CONTINUOUS
 62
     5
 10
236.99987283194969
 20
0.0
 30
0.0
 11
236.99987283194969
 21
-0.6000976537920906
 31
0.0
  0
ARC
  8
DETAIL
  6
CONTINUOUS
 62
     5
 10
235.99987283604611
 20
-1.6000976496948169
 30
0.0
 40
0.9999999959039748
 50
90.0
 51
180.0
  0
LINE
  8
DETAIL
  6
CONTINUOUS
 62
     5
 10
204.99987296302149
 20
-14.99999993855954
 30
0.0
 11
-205.0001253576188
 21
-14.99999993855954
 31
0.0
  0
ARC
  8
DETAIL
  6
CONTINUOUS
 62
     5
 10
-205.0001253576188
 20
54.999999774721353
 30
0.0
 40
69.99999971327999
 50
245.68432529156101
 51
270.0
  0
ARC
  8
DETAIL
  6
CONTINUOUS
 62
     5
 10
-233.00012524293021
 20
-6.9677734089591468
 30
0.0
 40
1.9999999918080129
 50
179.9999633445789
 51
245.6837240075408
  0
LINE
  8
DETAIL
  6
CONTINUOUS
 62
     5
 10
-235.00012523473831
 20
-1.6000976496948169
 30
0.0
 11
-235.00012523473831
 21
-6.9677734089591468
 31
0.0
  0
ARC
  8
DETAIL
  6
CONTINUOUS
 62
     5
 10
-236.0001252306424
 20
-1.6000976496948169
 30
0.0
 40
0.9999999959039748
 50
0.0
 51
90.0
  0
LINE
  8
DETAIL
  6
CONTINUOUS
 62
     5
 10
-237.00012522654649
 20
0.0
 30
0.0
 11
-237.00012522654649
 21
-0.6000976537920906
 31
0.0
  0
LINE
  8
DETAIL
  6
CONTINUOUS
 62
     5
 10
-193.00001834256409
 20
189.0499992256523
 30
0.0
 11
-194.200018337649
 21
188.04999922974781
 31
0.0
  0
LINE
  8
DETAIL
  6
CONTINUOUS
 62
     5
 10
-193.00001834256409
 20
199.0499991846909
 30
0.0
 11
-194.200018337649
 21
200.0499991805959
 31
0.0
  0
LINE
  8
DETAIL
  6
CONTINUOUS
 62
     5
 10
-193.00001834256409
 20
65.54999973150916
 30
0.0
 11
-193.00001834256409
 21
37.549999846195988
 31
0.0
  0
LINE
  8
DETAIL
  6
CONTINUOUS
 62
     5
 10
-194.200018337649
 20
66.549999727412342
 30
0.0
 11
-193.00001834256409
 21
65.54999973150916
 31
0.0
  0
LINE
  8
DETAIL
  6
CONTINUOUS
 62
     5
 10
-195.40001833273391
 20
37.549999846195988
 30
0.0
 11
-193.00001834256409
 21
37.549999846195988
 31
0.0
  0
ARC
  8
DETAIL
  6
CONTINUOUS
 62
     5
 10
-196.20001832945721
 20
40.149999835545707
 30
0.0
 40
0.7999999967229375
 50
0.0
 51
90.0
  0
ARC
  8
DETAIL
  6
CONTINUOUS
 62
     5
 10
-196.20001832945721
 20
48.949999799500802
 30
0.0
 40
0.7999999967233752
 50
270.0
 51
0.0
  0
ARC
  8
DETAIL
  6
CONTINUOUS
 62
     5
 10
-196.20001832945721
 20
55.149999774107073
 30
0.0
 40
0.7999999967229375
 50
0.0
 51
90.0
  0
ARC
  8
DETAIL
  6
CONTINUOUS
 62
     5
 10
-196.20001832945721
 20
63.949999738060797
 30
0.0
 40
0.7999999967233752
 50
270.0
 51
0.0
  0
ARC
  8
DETAIL
  6
CONTINUOUS
 62
     5
 10
-196.400018328638
 20
235.9499990335494
 30
0.0
 40
2.1999999909889998
 50
0.0
 51
90.0
  0
ARC
  8
DETAIL
  6
CONTINUOUS
 62
     5
 10
-193.20001834174491
 20
232.74999904665671
 30
0.0
 40
2.1999999909890882
 50
180.0
 51
270.0
  0
ARC
  8
DETAIL
  6
CONTINUOUS
 62
     5
 10
-188.80001835976739
 20
229.5499990597641
 30
0.0
 40
2.199999990988649
 50
0.0
 51
90.0
  0
LINE
  8
DETAIL
  6
CONTINUOUS
 62
     5
 10
-222.20001822296081
 20
236.94999902945261
 30
0.0
 11
-222.20001822296081
 21
230.94999905403029
 31
0.0
  0
LINE
  8
DETAIL
  6
CONTINUOUS
 62
     5
 10
-200.2000183130726
 20
236.94999902945261
 30
0.0
 11
-200.2000183130726
 21
230.94999905403029
 31
0.0
  0
ARC
  8
DETAIL
  6
CONTINUOUS
 62
     5
 10
-202.20001830488081
 20
230.94999905403029
 30
0.0
 40
1.99999999180805
 50
270.0
 51
0.0
  0
LINE
  8
DETAIL
  6
CONTINUOUS
 62
     5
 10
-202.20001830488081
 20
228.94999906222259
 30
0.0
 11
-220.2000182311526
 21
228.94999906222259
 31
0.0
  0
ARC
  8
DETAIL
  6
CONTINUOUS
 62
     5
 10
-220.2000182311526
 20
230.94999905403029
 30
0.0
 40
1.9999999918079621
 50
180.0
 51
270.0
  0
LINE
  8
DETAIL
  6
CONTINUOUS
 62
     5
 10
-220.70001822910541
 20
240.94999901306889
 30
0.0
 11
-201.700018306929
 21
240.94999901306889
 31
0.0
  0
LINE
  8
DETAIL
  6
CONTINUOUS
 62
     5
 10
-220.70001822910541
 20
243.9499990007821
 30
0.0
 11
-220.70001822910541
 21
240.94999901306889
 31
0.0
  0
LINE
  8
DETAIL
  6
CONTINUOUS
 62
     5
 10
-220.70001822910541
 20
243.9499990007821
 30
0.0
 11
-201.700018306929
 21
243.9499990007821
 31
0.0
  0
LINE
  8
DETAIL
  6
CONTINUOUS
 62
     5
 10
-218.70001823729669
 20
238.14999902453931
 30
0.0
 11
-218.70001823729669
 21
240.94999901306889
 31
0.0
  0
LINE
  8
DETAIL
  6
CONTINUOUS
 62
     5
 10
-203.70001829873721
 20
238.14999902453931
 30
0.0
 11
-203.70001829873721
 21
240.94999901306889
 31
0.0
  0
LINE
  8
DETAIL
  6
CONTINUOUS
 62
     5
 10
-201.700018306929
 20
240.94999901306889
 30
0.0
 11
-201.700018306929
 21
243.9499990007821
 31
0.0
  0
LINE
  8
DETAIL
  6
CONTINUOUS
 62
     5
 10
-196.20001832945721
 20
63.149999741339343
 30
0.0
 11
-196.20001832945721
 21
55.949999770830352
 31
0.0
  0
LINE
  8
DETAIL
  6
CONTINUOUS
 62
     5
 10
-196.20001832945721
 20
48.149999802777977
 30
0.0
 11
-196.20001832945721
 21
40.949999832268993
 31
0.0
  0
LINE
  8
DETAIL
  6
CONTINUOUS
 62
     5
 10
-186.60001836877839
 20
229.5499990597641
 30
0.0
 11
-186.60001836877839
 21
229.34999295706709
 31
0.0
  0
LINE
  8
DETAIL
  6
CONTINUOUS
 62
     5
 10
-187.8000183638633
 20
229.5499990597641
 30
0.0
 11
-187.8000183638633
 21
229.34999295706709
 31
0.0
  0
LINE
  8
DETAIL
  6
CONTINUOUS
 62
     5
 10
-225.2000182106726
 20
238.14999902453931
 30
0.0
 11
-225.2000182106726
 21
236.94999902945261
 31
0.0
  0
LINE
  8
DETAIL
  6
CONTINUOUS
 62
     5
 10
-225.2000182106726
 20
238.14999902453931
 30
0.0
 11
-196.400018328638
 21
238.14999902453931
 31
0.0
  0
LINE
  8
DETAIL
  6
CONTINUOUS
 62
     5
 10
-225.2000182106726
 20
236.94999902945261
 30
0.0
 11
-196.400018328638
 21
236.94999902945261
 31
0.0
  0
LINE
  8
DETAIL
  6
CONTINUOUS
 62
     5
 10
-194.200018337649
 20
235.9499990335494
 30
0.0
 11
-194.200018337649
 21
232.74999904665671
 31
0.0
  0
LINE
  8
DETAIL
  6
CONTINUOUS
 62
     5
 10
-195.40001833273391
 20
235.9499990335494
 30
0.0
 11
-195.40001833273391
 21
37.549999846195988
 31
0.0
  0
LINE
  8
DETAIL
  6
CONTINUOUS
 62
     5
 10
-193.20001834174491
 20
231.74999905075171
 30
0.0
 11
-188.80001835976739
 21
231.74999905075171
 31
0.0
  0
LINE
  8
DETAIL
  6
CONTINUOUS
 62
     5
 10
-193.20001834174491
 20
230.5499990556668
 30
0.0
 11
-188.80001835976739
 21
230.5499990556668
 31
0.0
  0
LINE
  8
DETAIL
  6
CONTINUOUS
 62
     5
 10
-195.40001833273391
 20
209.04999914373141
 30
0.0
 11
-194.200018337649
 21
209.04999914373141
 31
0.0
  0
ARC
  8
DETAIL
  6
CONTINUOUS
 62
     5
 10
-196.400018328638
 20
235.9499990335494
 30
0.0
 40
0.9999999959039748
 50
0.0
 51
90.0
  0
ARC
  8
DETAIL
  6
CONTINUOUS
 62
     5
 10
-193.20001834174491
 20
232.74999904665671
 30
0.0
 40
0.9999999959040624
 50
180.0
 51
270.0
  0
ARC
  8
DETAIL
  6
CONTINUOUS
 62
     5
 10
-188.80001835976739
 20
229.5499990597641
 30
0.0
 40
0.9999999959039748
 50
0.0
 51
90.0
  0
LINE
  8
DETAIL
  6
CONTINUOUS
 62
     5
 10
-194.200018337649
 20
230.74999905484901
 30
0.0
 11
-194.200018337649
 21
37.549999846195988
 31
0.0
  0
LINE
  8
DETAIL
  6
CONTINUOUS
 62
     5
 10
-193.00001834256409
 20
199.0499991846909
 30
0.0
 11
-193.00001834256409
 21
189.0499992256523
 31
0.0
  0
LINE
  8
DETAIL
  6
CONTINUOUS
 62
     5
 10
222.20001822296081
 20
236.94999902945261
 30
0.0
 11
222.20001822296081
 21
230.94999905403029
 31
0.0
  0
LINE
  8
DETAIL
  6
CONTINUOUS
 62
     5
 10
204.49986818179701
 20
228.94999906222259
 30
0.0
 11
220.2000182311526
 21
228.94999906222259
 31
0.0
  0
ARC
  8
DETAIL
  6
CONTINUOUS
 62
     5
 10
220.2000182311526
 20
230.94999905403029
 30
0.0
 40
1.99999999180805
 50
270.0
 51
0.0
  0
LINE
  8
DETAIL
  6
CONTINUOUS
 62
     5
 10
220.70001822910541
 20
240.94999901306889
 30
0.0
 11
204.4836399837086
 21
240.94999901306889
 31
0.0
  0
LINE
  8
DETAIL
  6
CONTINUOUS
 62
     5
 10
220.70001822910541
 20
243.9499990007821
 30
0.0
 11
220.70001822910541
 21
240.94999901306889
 31
0.0
  0
LINE
  8
DETAIL
  6
CONTINUOUS
 62
     5
 10
220.70001822910541
 20
243.9499990007821
 30
0.0
 11
204.0977239628692
 21
243.9499990007821
 31
0.0
  0
LINE
  8
DETAIL
  6
CONTINUOUS
 62
     5
 10
218.70001823729669
 20
238.14999902453931
 30
0.0
 11
218.70001823729669
 21
240.94999901306889
 31
0.0
  0
LINE
  8
DETAIL
  6
CONTINUOUS
 62
     5
 10
225.2000182106726
 20
238.14999902453931
 30
0.0
 11
225.2000182106726
 21
236.94999902945261
 31
0.0
  0
LINE
  8
DETAIL
  6
CONTINUOUS
 62
     5
 10
225.2000182106726
 20
238.14999902453931
 30
0.0
 11
204.49986818179701
 21
238.14999902453931
 31
0.0
  0
LINE
  8
DETAIL
  6
CONTINUOUS
 62
     5
 10
225.2000182106726
 20
236.94999902945261
 30
0.0
 11
204.49986818179701
 21
237.0
 31
0.0
  0
LINE
  8
DETAIL
  6
CONTINUOUS
 62
     5
 10
4.9999999795204531
 20
266.14989788071131
 30
0.0
 11
-79.999999672320428
 21
266.14989788071131
 31
0.0
  0
ARC
  8
DETAIL
  6
CONTINUOUS
 62
     5
 10
-79.999999672320428
 20
260.54989790365022
 30
0.0
 40
5.5999999770618736
 50
90.0
 51
180.0
  0
ARC
  8
DETAIL
  6
CONTINUOUS
 62
     5
 10
4.9999999795204531
 20
260.54989790365022
 30
0.0
 40
5.5999999770632014
 50
0.0
 51
90.0
  0
LINE
  8
DETAIL
  6
CONTINUOUS
 62
     5
 10
-85.599999649382426
 20
229.3499956631172
 30
0.0
 11
-85.599999649381971
 21
260.54989790365022
 31
0.0
  0
LINE
  8
DETAIL
  6
CONTINUOUS
 62
     5
 10
10.59999995658336
 20
229.3499956631172
 30
0.0
 11
10.59999995658336
 21
254.54989790365019
 31
0.0
  0
LINE
  8
DETAIL
  6
CONTINUOUS
 62
     5
 10
189.49986824323699
 20
255.4999834979869
 30
0.0
 11
10.499868976420659
 21
255.4999834979869
 31
0.0
  0
LINE
  8
DETAIL
  6
CONTINUOUS
 62
     5
 10
10.499868976420659
 20
2.9999845322283818
 30
0.0
 11
10.499868976420659
 21
261.60414681166162
 31
0.0
  0
LINE
  8
DETAIL
  6
CONTINUOUS
 62
     5
 10
13.999868962084751
 20
2.9999845322283818
 30
0.0
 11
13.999868962084291
 21
255.4999834979869
 31
0.0
  0
ARC
  8
DETAIL
  6
CONTINUOUS
 62
     5
 10
164.499868345637
 20
109.0499323009942
 30
0.0
 40
39.999999836160008
 50
316.46886052615571
 51
0.0
  0
LINE
  8
DETAIL
  6
CONTINUOUS
 62
     5
 10
204.49986818179701
 20
240.49998355942651
 30
0.0
 11
204.49986818179701
 21
109.0499323009942
 31
0.0
  0
ARC
  8
DETAIL
  6
CONTINUOUS
 62
     5
 10
189.49986824323699
 20
240.49998355942651
 30
0.0
 40
14.999999938559951
 50
0.0
 51
90.0
  0
LINE
  8
DETAIL
  6
CONTINUOUS
 62
     5
 10
-191.45001834891261
 20
222.0498823276412
 30
0.0
 11
10.77913743393583
 21
222.0498823276412
 31
0.0
  0
LINE
  8
SIZE
  6
CONTINUOUS
 62
    30
 10
236.99987283194969
 20
-20.0
 30
0.0
 11
236.9998728319496
 21
-719.04081379423985
 31
0.0
  0
LINE
  8
SIZE
  6
CONTINUOUS
 62
    30
 10
-237.00012522654649
 20
-20.0
 30
0.0
 11
-237.0001252265466
 21
-719.04081379423985
 31
0.0
  0
LINE
  8
SIZE
  6
CONTINUOUS
 62
    30
 10
224.9998728319496
 20
-699.04081379423985
 30
0.0
 11
-225.0001252265466
 21
-699.04081379423985
 31
0.0
  0
CIRCLE
  8
SIZE
  6
CONTINUOUS
 62
    30
 10
236.9998728319496
 20
-699.04081379423985
 30
0.0
 40
6.0
  0
LINE
  8
SIZE
  6
CONTINUOUS
 62
    30
 10
236.9998728319496
 20
-699.04081379423985
 30
0.0
 11
224.9998728319496
 21
-699.04081379423985
 31
0.0
  0
CIRCLE
  8
SIZE
  6
CONTINUOUS
 62
    30
 10
-237.0001252265466
 20
-699.04081379423985
 30
0.0
 40
6.0
  0
LINE
  8
SIZE
  6
CONTINUOUS
 62
    30
 10
-237.0001252265466
 20
-699.04081379423985
 30
0.0
 11
-225.0001252265466
 21
-699.04081379423985
 31
0.0
  0
TEXT
  8
SIZE
  6
CONTINUOUS
 62
    30
 10
-111.90869762586981
 20
-674.04081379423985
 30
0.0
 40
64.0
  1
□474
 41
0.9
 72
     1
 11
-0.0001261972984139
 21
-674.04081379423985
 31
0.0
  0
POINT
  8
DEFPOINTS
  6
CONTINUOUS
 62
    30
 10
236.99987283194969
 20
0.0
 30
0.0
  0
POINT
  8
DEFPOINTS
  6
CONTINUOUS
 62
    30
 10
-237.00012522654649
 20
0.0
 30
0.0
  0
POINT
  8
DEFPOINTS
  6
CONTINUOUS
 62
    30
 10
-237.0001252265466
 20
-699.04081379423985
 30
0.0
  0
LINE
  8
SIZE
  6
CONTINUOUS
 62
    30
 10
24.99999997952045
 20
266.14989788071131
 30
0.0
 11
532.44530320629929
 21
266.14989788071102
 31
0.0
  0
LINE
  8
SIZE
  6
CONTINUOUS
 62
    30
 10
255.0
 20
0.0
 30
0.0
 11
532.44530320629929
 21
-0.0000000000001137
 31
0.0
  0
LINE
  8
SIZE
  6
CONTINUOUS
 62
    30
 10
512.44530320629929
 20
254.14989788071111
 30
0.0
 11
512.44530320629929
 21
11.99999999999989
 31
0.0
  0
CIRCLE
  8
SIZE
  6
CONTINUOUS
 62
    30
 10
512.44530320629929
 20
266.14989788071102
 30
0.0
 40
6.0
  0
LINE
  8
SIZE
  6
CONTINUOUS
 62
    30
 10
512.44530320629929
 20
266.14989788071102
 30
0.0
 11
512.44530320629929
 21
254.14989788071111
 31
0.0
  0
CIRCLE
  8
SIZE
  6
CONTINUOUS
 62
    30
 10
512.44530320629929
 20
-0.0000000000001137
 30
0.0
 40
6.0
  0
LINE
  8
SIZE
  6
CONTINUOUS
 62
    30
 10
512.44530320629929
 20
-0.0000000000001137
 30
0.0
 11
512.44530320629929
 21
11.99999999999989
 31
0.0
  0
TEXT
  8
SIZE
  6
CONTINUOUS
 62
    30
 10
487.44530320629929
 20
60.389234654641342
 30
0.0
 40
64.0
  1
266
 50
90.0
 41
0.9
 72
     1
 11
487.44530320629929
 21
133.0749489403556
 31
0.0
  0
POINT
  8
DEFPOINTS
  6
CONTINUOUS
 62
    30
 10
4.9999999795204531
 20
266.14989788071131
 30
0.0
  0
POINT
  8
DEFPOINTS
  6
CONTINUOUS
 62
    30
 10
235.0
 20
0.0
 30
0.0
  0
POINT
  8
DEFPOINTS
  6
CONTINUOUS
 62
    30
 10
512.44530320629929
 20
-0.0000000000001137
 30
0.0
  0
LINE
  8
SIZE
  6
CONTINUOUS
 62
    30
 10
245.0
 20
0.0
 30
0.0
 11
532.44530320629929
 21
-0.0000000000001137
 31
0.0
  0
LINE
  8
SIZE
  6
CONTINUOUS
 62
    30
 10
224.99987296302149
 20
-14.99999993855954
 30
0.0
 11
532.44530320629929
 21
-14.99999993855965
 31
0.0
  0
LINE
  8
SIZE
  6
CONTINUOUS
 62
    30
 10
512.44530320629929
 20
11.99999999999989
 30
0.0
 11
512.44530320629929
 21
23.99999999999989
 31
0.0
  0
LINE
  8
SIZE
  6
CONTINUOUS
 62
    30
 10
512.44530320629929
 20
-26.99999993855965
 30
0.0
 11
512.44530320629929
 21
-171.2857142242739
 31
0.0
  0
LINE
  8
SIZE
  6
CONTINUOUS
 62
    30
 10
512.44530320629929
 20
-0.0000000000001137
 30
0.0
 11
512.44530320629929
 21
-14.99999993855965
 31
0.0
  0
CIRCLE
  8
SIZE
  6
CONTINUOUS
 62
    30
 10
512.44530320629929
 20
-0.0000000000001137
 30
0.0
 40
6.0
  0
LINE
  8
SIZE
  6
CONTINUOUS
 62
    30
 10
512.44530320629929
 20
-0.0000000000001137
 30
0.0
 11
512.44530320629929
 21
11.99999999999989
 31
0.0
  0
CIRCLE
  8
SIZE
  6
CONTINUOUS
 62
    30
 10
512.44530320629929
 20
-14.99999993855965
 30
0.0
 40
6.0
  0
LINE
  8
SIZE
  6
CONTINUOUS
 62
    30
 10
512.44530320629929
 20
-14.99999993855965
 30
0.0
 11
512.44530320629929
 21
-26.99999993855965
 31
0.0
  0
TEXT
  8
SIZE
  6
CONTINUOUS
 62
    30
 10
487.44530320629929
 20
-146.28571422427379
 30
0.0
 40
64.0
  1
15
 50
90.0
 41
0.9
 72
     1
 11
487.44530320629929
 21
-105.14285708141669
 31
0.0
  0
POINT
  8
DEFPOINTS
  6
CONTINUOUS
 62
    30
 10
225.0
 20
0.0
 30
0.0
  0
POINT
  8
DEFPOINTS
  6
CONTINUOUS
 62
    30
 10
204.99987296302149
 20
-14.99999993855954
 30
0.0
  0
POINT
  8
DEFPOINTS
  6
CONTINUOUS
 62
    30
 10
512.44530320629929
 20
-14.99999993855965
 30
0.0
  0
ARC
  8
DETAIL
  6
CONTINUOUS
 62
     5
 10
191.45001834891261
 20
223.2998823225212
 30
0.0
 40
1.249999994880012
 50
270.0
 51
0.0
  0
LINE
  8
DETAIL
  6
CONTINUOUS
 62
     5
 10
192.70001834379261
 20
223.2998823225212
 30
0.0
 11
192.70001834379261
 21
228.74997995644659
 31
0.0
  0
ARC
  8
DETAIL
  6
CONTINUOUS
 62
     5
 10
191.45001834891261
 20
228.74997995644659
 30
0.0
 40
1.249999994880012
 50
0.0
 51
90.0
  0
ARC
  8
DETAIL
  6
CONTINUOUS
 62
     5
 10
192.10001834625061
 20
221.14988233132729
 30
0.0
 40
0.8999999963132751
 50
0.0
 51
90.0
  0
ARC
  8
DETAIL
  6
CONTINUOUS
 62
     5
 10
194.00001833846861
 20
0.9999999959054549
 30
0.0
 40
0.9999999959039748
 50
180.0
 51
270.0
  0
LINE
  8
DETAIL
  6
CONTINUOUS
 62
     5
 10
193.00001834256409
 20
0.9999999959054549
 30
0.0
 11
193.00001834256409
 21
220.4998823313272
 31
0.0
  0
LINE
  8
DETAIL
  6
CONTINUOUS
 62
     5
 10
-10.499868976420659
 20
229.99999566311729
 30
0.0
 11
191.45001834891261
 21
229.99999566311729
 31
0.0
  0
LINE
  8
DETAIL
  6
CONTINUOUS
 62
     5
 10
193.00001834256409
 20
189.0499992256523
 30
0.0
 11
194.200018337649
 21
188.04999922974781
 31
0.0
  0
LINE
  8
DETAIL
  6
CONTINUOUS
 62
     5
 10
193.00001834256409
 20
199.0499991846909
 30
0.0
 11
194.200018337649
 21
200.0499991805959
 31
0.0
  0
LINE
  8
DETAIL
  6
CONTINUOUS
 62
     5
 10
193.00001834256409
 20
65.54999973150916
 30
0.0
 11
193.00001834256409
 21
37.549999846195988
 31
0.0
  0
LINE
  8
DETAIL
  6
CONTINUOUS
 62
     5
 10
194.200018337649
 20
66.549999727412342
 30
0.0
 11
193.00001834256409
 21
65.54999973150916
 31
0.0
  0
LINE
  8
DETAIL
  6
CONTINUOUS
 62
     5
 10
195.40001833273391
 20
37.549999846195988
 30
0.0
 11
193.00001834256409
 21
37.549999846195988
 31
0.0
  0
ARC
  8
DETAIL
  6
CONTINUOUS
 62
     5
 10
196.20001832945721
 20
40.149999835545707
 30
0.0
 40
0.7999999967229375
 50
90.0
 51
180.0
  0
ARC
  8
DETAIL
  6
CONTINUOUS
 62
     5
 10
196.20001832945721
 20
48.949999799500802
 30
0.0
 40
0.7999999967233752
 50
180.0
 51
270.0
  0
ARC
  8
DETAIL
  6
CONTINUOUS
 62
     5
 10
196.20001832945721
 20
55.149999774107073
 30
0.0
 40
0.7999999967229375
 50
90.0
 51
180.0
  0
ARC
  8
DETAIL
  6
CONTINUOUS
 62
     5
 10
196.20001832945721
 20
63.949999738060797
 30
0.0
 40
0.7999999967233752
 50
180.0
 51
270.0
  0
ARC
  8
DETAIL
  6
CONTINUOUS
 62
     5
 10
196.400018328638
 20
235.9499990335494
 30
0.0
 40
2.1999999909889998
 50
90.0
 51
180.0
  0
ARC
  8
DETAIL
  6
CONTINUOUS
 62
     5
 10
193.20001834174491
 20
232.74999904665671
 30
0.0
 40
2.1999999909890882
 50
270.0
 51
0.0
  0
ARC
  8
DETAIL
  6
CONTINUOUS
 62
     5
 10
188.80001835976739
 20
229.5499990597641
 30
0.0
 40
2.199999990988649
 50
90.0
 51
180.0
  0
LINE
  8
DETAIL
  6
CONTINUOUS
 62
     5
 10
222.20001822296081
 20
236.94999902945261
 30
0.0
 11
222.20001822296081
 21
230.94999905403029
 31
0.0
  0
LINE
  8
DETAIL
  6
CONTINUOUS
 62
     5
 10
200.2000183130726
 20
236.94999902945261
 30
0.0
 11
200.2000183130726
 21
230.94999905403029
 31
0.0
  0
ARC
  8
DETAIL
  6
CONTINUOUS
 62
     5
 10
202.20001830488081
 20
230.94999905403029
 30
0.0
 40
1.99999999180805
 50
180.0
 51
270.0
  0
LINE
  8
DETAIL
  6
CONTINUOUS
 62
     5
 10
202.20001830488081
 20
228.94999906222259
 30
0.0
 11
220.2000182311526
 21
228.94999906222259
 31
0.0
  0
ARC
  8
DETAIL
  6
CONTINUOUS
 62
     5
 10
220.2000182311526
 20
230.94999905403029
 30
0.0
 40
1.9999999918079621
 50
270.0
 51
0.0
  0
LINE
  8
DETAIL
  6
CONTINUOUS
 62
     5
 10
220.70001822910541
 20
240.94999901306889
 30
0.0
 11
201.700018306929
 21
240.94999901306889
 31
0.0
  0
LINE
  8
DETAIL
  6
CONTINUOUS
 62
     5
 10
220.70001822910541
 20
243.9499990007821
 30
0.0
 11
220.70001822910541
 21
240.94999901306889
 31
0.0
  0
LINE
  8
DETAIL
  6
CONTINUOUS
 62
     5
 10
220.70001822910541
 20
243.9499990007821
 30
0.0
 11
201.700018306929
 21
243.9499990007821
 31
0.0
  0
LINE
  8
DETAIL
  6
CONTINUOUS
 62
     5
 10
218.70001823729669
 20
238.14999902453931
 30
0.0
 11
218.70001823729669
 21
240.94999901306889
 31
0.0
  0
LINE
  8
DETAIL
  6
CONTINUOUS
 62
     5
 10
203.70001829873721
 20
238.14999902453931
 30
0.0
 11
203.70001829873721
 21
240.94999901306889
 31
0.0
  0
LINE
  8
DETAIL
  6
CONTINUOUS
 62
     5
 10
201.700018306929
 20
240.94999901306889
 30
0.0
 11
201.700018306929
 21
243.9499990007821
 31
0.0
  0
LINE
  8
DETAIL
  6
CONTINUOUS
 62
     5
 10
196.20001832945721
 20
63.149999741339343
 30
0.0
 11
196.20001832945721
 21
55.949999770830352
 31
0.0
  0
LINE
  8
DETAIL
  6
CONTINUOUS
 62
     5
 10
196.20001832945721
 20
48.149999802777977
 30
0.0
 11
196.20001832945721
 21
40.949999832268993
 31
0.0
  0
LINE
  8
DETAIL
  6
CONTINUOUS
 62
     5
 10
186.60001836877839
 20
229.5499990597641
 30
0.0
 11
186.60001836877839
 21
229.34999295706709
 31
0.0
  0
LINE
  8
DETAIL
  6
CONTINUOUS
 62
     5
 10
187.8000183638633
 20
229.5499990597641
 30
0.0
 11
187.8000183638633
 21
229.34999295706709
 31
0.0
  0
LINE
  8
DETAIL
  6
CONTINUOUS
 62
     5
 10
225.2000182106726
 20
238.14999902453931
 30
0.0
 11
225.2000182106726
 21
236.94999902945261
 31
0.0
  0
LINE
  8
DETAIL
  6
CONTINUOUS
 62
     5
 10
225.2000182106726
 20
238.14999902453931
 30
0.0
 11
196.400018328638
 21
238.14999902453931
 31
0.0
  0
LINE
  8
DETAIL
  6
CONTINUOUS
 62
     5
 10
225.2000182106726
 20
236.94999902945261
 30
0.0
 11
196.400018328638
 21
236.94999902945261
 31
0.0
  0
LINE
  8
DETAIL
  6
CONTINUOUS
 62
     5
 10
194.200018337649
 20
235.9499990335494
 30
0.0
 11
194.200018337649
 21
232.74999904665671
 31
0.0
  0
LINE
  8
DETAIL
  6
CONTINUOUS
 62
     5
 10
195.40001833273391
 20
235.9499990335494
 30
0.0
 11
195.40001833273391
 21
37.549999846195988
 31
0.0
  0
LINE
  8
DETAIL
  6
CONTINUOUS
 62
     5
 10
193.20001834174491
 20
231.74999905075171
 30
0.0
 11
188.80001835976739
 21
231.74999905075171
 31
0.0
  0
LINE
  8
DETAIL
  6
CONTINUOUS
 62
     5
 10
193.20001834174491
 20
230.5499990556668
 30
0.0
 11
188.80001835976739
 21
230.5499990556668
 31
0.0
  0
LINE
  8
DETAIL
  6
CONTINUOUS
 62
     5
 10
195.40001833273391
 20
209.04999914373141
 30
0.0
 11
194.200018337649
 21
209.04999914373141
 31
0.0
  0
ARC
  8
DETAIL
  6
CONTINUOUS
 62
     5
 10
196.400018328638
 20
235.9499990335494
 30
0.0
 40
0.9999999959039748
 50
90.0
 51
180.0
  0
ARC
  8
DETAIL
  6
CONTINUOUS
 62
     5
 10
193.20001834174491
 20
232.74999904665671
 30
0.0
 40
0.9999999959040624
 50
270.0
 51
0.0
  0
ARC
  8
DETAIL
  6
CONTINUOUS
 62
     5
 10
188.80001835976739
 20
229.5499990597641
 30
0.0
 40
0.9999999959039748
 50
90.0
 51
180.0
  0
LINE
  8
DETAIL
  6
CONTINUOUS
 62
     5
 10
194.200018337649
 20
230.74999905484901
 30
0.0
 11
194.200018337649
 21
37.549999846195988
 31
0.0
  0
LINE
  8
DETAIL
  6
CONTINUOUS
 62
     5
 10
193.00001834256409
 20
199.0499991846909
 30
0.0
 11
193.00001834256409
 21
189.0499992256523
 31
0.0
  0
LINE
  8
DETAIL
  6
CONTINUOUS
 62
     5
 10
191.45001834891261
 20
222.0498823276412
 30
0.0
 11
-10.77913743393583
 21
222.0498823276412
 31
0.0
  0
LINE
  8
SIZE
  6
CONTINUOUS
 62
    30
 10
-196.20001832945721
 20
20.949999832268649
 30
0.0
 11
-196.20001832945721
 21
-450.46507059336
 31
0.0
  0
LINE
  8
SIZE
  6
CONTINUOUS
 62
    30
 10
196.20001832945721
 20
20.94999983226899
 30
0.0
 11
196.20001832945721
 21
-450.46507059336
 31
0.0
  0
LINE
  8
SIZE
  6
CONTINUOUS
 62
    30
 10
-184.20001832945721
 20
-430.46507059336
 30
0.0
 11
184.20001832945721
 21
-430.46507059336
 31
0.0
  0
CIRCLE
  8
SIZE
  6
CONTINUOUS
 62
    30
 10
-196.20001832945721
 20
-430.46507059336
 30
0.0
 40
6.0
  0
LINE
  8
SIZE
  6
CONTINUOUS
 62
    30
 10
-196.20001832945721
 20
-430.46507059336
 30
0.0
 11
-184.20001832945721
 21
-430.46507059336
 31
0.0
  0
CIRCLE
  8
SIZE
  6
CONTINUOUS
 62
    30
 10
196.20001832945721
 20
-430.46507059336
 30
0.0
 40
6.0
  0
LINE
  8
SIZE
  6
CONTINUOUS
 62
    30
 10
196.20001832945721
 20
-430.46507059336
 30
0.0
 11
184.20001832945721
 21
-430.46507059336
 31
0.0
  0
TEXT
  8
SIZE
  6
CONTINUOUS
 62
    30
 10
-64.883741252194255
 20
-405.46507059336
 30
0.0
 40
64.0
  1
392
 41
0.9
 72
     1
 11
9.1734016049485945
 21
-405.46507059336
 31
0.0
  0
POINT
  8
DEFPOINTS
  6
CONTINUOUS
 62
    30
 10
-196.20001832945721
 20
40.949999832268652
 30
0.0
  0
POINT
  8
DEFPOINTS
  6
CONTINUOUS
 62
    30
 10
196.20001832945721
 20
40.949999832268993
 30
0.0
  0
POINT
  8
DEFPOINTS
  6
CONTINUOUS
 62
    30
 10
196.20001832945721
 20
-430.46507059336
 30
0.0
  0
LINE
  8
SIZE
  6
CONTINUOUS
 62
    30
 10
-193.0
 20
250.0
 30
0.0
 11
-193.0
 21
555.52995850804155
 31
0.0
  0
LINE
  8
SIZE
  6
CONTINUOUS
 62
    30
 10
193.0
 20
250.0
 30
0.0
 11
193.0
 21
555.52995850804155
 31
0.0
  0
LINE
  8
SIZE
  6
CONTINUOUS
 62
    30
 10
-181.0
 20
535.52995850804155
 30
0.0
 11
181.0
 21
535.52995850804155
 31
0.0
  0
CIRCLE
  8
SIZE
  6
CONTINUOUS
 62
    30
 10
-193.0
 20
535.52995850804155
 30
0.0
 40
6.0
  0
LINE
  8
SIZE
  6
CONTINUOUS
 62
    30
 10
-193.0
 20
535.52995850804155
 30
0.0
 11
-181.0
 21
535.52995850804155
 31
0.0
  0
CIRCLE
  8
SIZE
  6
CONTINUOUS
 62
    30
 10
193.0
 20
535.52995850804155
 30
0.0
 40
6.0
  0
LINE
  8
SIZE
  6
CONTINUOUS
 62
    30
 10
193.0
 20
535.52995850804155
 30
0.0
 11
181.0
 21
535.52995850804155
 31
0.0
  0
TEXT
  8
SIZE
  6
CONTINUOUS
 62
    30
 10
-109.1657142857143
 20
560.52995850804155
 30
0.0
 40
64.0
  1
□386
 41
0.9
 72
     1
 11
0.0
 21
560.52995850804155
 31
0.0
  0
POINT
  8
DEFPOINTS
  6
CONTINUOUS
 62
    30
 10
-193.0
 20
230.0
 30
0.0
  0
POINT
  8
DEFPOINTS
  6
CONTINUOUS
 62
    30
 10
193.0
 20
230.0
 30
0.0
  0
POINT
  8
DEFPOINTS
  6
CONTINUOUS
 62
    30
 10
193.0
 20
535.52995850804155
 30
0.0
  0
ENDSEC
  0
EOF
