  0
SECTION
  2
HEADER
  9
$ACADVER
  1
AC1009
  9
$DWGCODEPAGE
  3
dos932
  9
$INSBASE
 10
0.0
 20
0.0
 30
0.0
  9
$EXTMIN
 10
-1072.691329175947
 20
-826.08031100370135
 30
-0.0015258207003583
  9
$EXTMAX
 10
1003.807079412283
 20
964.18763052693976
 30
0.0000000349246037
  9
$LIMMIN
 10
-2970.0
 20
-2100.0
  9
$LIMMAX
 10
2970.0
 20
2100.0
  9
$ORTHOMODE
 70
     1
  9
$REGENMODE
 70
     1
  9
$FILLMODE
 70
     1
  9
$QTEXTMODE
 70
     0
  9
$MIRRTEXT
 70
     0
  9
$LTSCALE
 40
20.0
  9
$ATTMODE
 70
     1
  9
$TEXTSIZE
 40
64.0
  9
$TRACEWID
 40
0.05
  9
$TEXTSTYLE
  7
STANDARD
  9
$CLAYER
  8
SIZE
  9
$CELTYPE
  6
CONTINUOUS
  9
$CECOLOR
 62
     7
  9
$DIMSCALE
 40
1.0
  9
$DIMASZ
 40
12.0
  9
$DIMEXO
 40
20.0
  9
$DIMDLI
 40
200.0
  9
$DIMRND
 40
0.0
  9
$DIMDLE
 40
0.0
  9
$DIMEXE
 40
20.0
  9
$DIMTP
 40
0.0
  9
$DIMTM
 40
0.0
  9
$DIMTXT
 40
64.0
  9
$DIMCEN
 40
0.09
  9
$DIMTSZ
 40
0.0
  9
$DIMTOL
 70
     0
  9
$DIMLIM
 70
     0
  9
$DIMTIH
 70
     0
  9
$DIMTOH
 70
     0
  9
$DIMSE1
 70
     0
  9
$DIMSE2
 70
     0
  9
$DIMTAD
 70
     1
  9
$DIMZIN
 70
     8
  9
$DIMBLK
  1

  9
$DIMASO
 70
     1
  9
$DIMSHO
 70
     0
  9
$DIMPOST
  1

  9
$DIMAPOST
  1

  9
$DIMALT
 70
     0
  9
$DIMALTD
 70
     2
  9
$DIMALTF
 40
25.399999999999999
  9
$DIMLFAC
 40
1.0
  9
$DIMTOFL
 70
     1
  9
$DIMTVP
 40
0.0
  9
$DIMTIX
 70
     1
  9
$DIMSOXD
 70
     0
  9
$DIMSAH
 70
     0
  9
$DIMBLK1
  1

  9
$DIMBLK2
  1

  9
$DIMSTYLE
  2
STANDARD
  9
$DIMCLRD
 70
     7
  9
$DIMCLRE
 70
     7
  9
$DIMCLRT
 70
     7
  9
$DIMTFAC
 40
1.0
  9
$DIMGAP
 40
25.0
  9
$LUNITS
 70
     2
  9
$LUPREC
 70
     4
  9
$SKETCHINC
 40
0.1
  9
$FILLETRAD
 40
3.0
  9
$AUNITS
 70
     1
  9
$AUPREC
 70
     3
  9
$MENU
  1
ACAD
  9
$ELEVATION
 40
0.0
  9
$PELEVATION
 40
0.0
  9
$THICKNESS
 40
0.0
  9
$LIMCHECK
 70
     0
  9
$CHAMFERA
 40
0.0
  9
$CHAMFERB
 40
0.0
  9
$SKPOLY
 70
     0
  9
$TDCREATE
 40
2453019.62301037
  9
$TDUPDATE
 40
2459025.520425695
  9
$TDINDWG
 40
1.7280483912
  9
$TDUSRTIMER
 40
1.7280483912
  9
$USRTIMER
 70
     1
  9
$ANGBASE
 50
0.0
  9
$ANGDIR
 70
     0
  9
$PDMODE
 70
     3
  9
$PDSIZE
 40
-2.0
  9
$PLINEWID
 40
0.0
  9
$SPLFRAME
 70
     0
  9
$SPLINETYPE
 70
     6
  9
$SPLINESEGS
 70
     8
  9
$SURFTAB1
 70
     6
  9
$SURFTAB2
 70
     6
  9
$SURFTYPE
 70
     6
  9
$SURFU
 70
     6
  9
$SURFV
 70
     6
  9
$UCSNAME
  2

  9
$UCSORG
 10
0.0
 20
0.0
 30
0.0
  9
$UCSXDIR
 10
1.0
 20
0.0
 30
0.0
  9
$UCSYDIR
 10
0.0
 20
1.0
 30
0.0
  9
$PUCSNAME
  2

  9
$PUCSORG
 10
0.0
 20
0.0
 30
0.0
  9
$PUCSXDIR
 10
1.0
 20
0.0
 30
0.0
  9
$PUCSYDIR
 10
0.0
 20
1.0
 30
0.0
  9
$USERI1
 70
     0
  9
$USERI2
 70
     0
  9
$USERI3
 70
     0
  9
$USERI4
 70
     0
  9
$USERI5
 70
     0
  9
$USERR1
 40
20.0
  9
$USERR2
 40
0.0
  9
$USERR3
 40
0.0
  9
$USERR4
 40
0.0
  9
$USERR5
 40
0.0
  9
$WORLDVIEW
 70
     1
  9
$SHADEDGE
 70
     3
  9
$SHADEDIF
 70
    70
  9
$TILEMODE
 70
     1
  9
$MAXACTVP
 70
    48
  9
$PINSBASE
 10
0.0
 20
0.0
 30
0.0
  9
$PLIMCHECK
 70
     0
  9
$PEXTMIN
 10
-100000000000000000000.0
 20
-100000000000000000000.0
 30
-100000000000000000000.0
  9
$PEXTMAX
 10
100000000000000000000.0
 20
100000000000000000000.0
 30
100000000000000000000.0
  9
$PLIMMIN
 10
0.0
 20
0.0
  9
$PLIMMAX
 10
12.0
 20
9.0
  9
$UNITMODE
 70
     0
  9
$VISRETAIN
 70
     0
  9
$PLINEGEN
 70
     0
  9
$PSLTSCALE
 70
     0
  9
$TREEDEPTH
 70
  3020
  9
$ATTDIA
 70
     0
  9
$ATTREQ
 70
     1
  9
$BLIPMODE
 70
     1
  9
$COORDS
 70
     1
  9
$DRAGMODE
 70
     2
  9
$OSMODE
 70
     0
  9
$HANDLING
 70
     0
  9
$HANDSEED
  5
F7D2
  0
ENDSEC
  0
SECTION
  2
TABLES
  0
TABLE
  2
LTYPE
 70
     2
  0
LTYPE
  2
CONTINUOUS
 70
     0
  3
実線
 72
    65
 73
     0
 40
0.0
  0
LTYPE
  2
DASHDOT
 70
     0
  3
____ _ ____ _ ____ _ ____ _ ____ _ ____ _ ____
 72
    65
 73
     4
 40
5.5
 49
4.0
 49
-0.6
 49
0.3
 49
-0.6
  0
ENDTAB
  0
TABLE
  2
LAYER
 70
    12
  0
LAYER
  2
0
 70
     0
 62
     7
  6
CONTINUOUS
  0
LAYER
  2
BASIS
 70
     0
 62
     6
  6
DASHDOT
  0
LAYER
  2
OUTLINE
 70
     0
 62
     3
  6
CONTINUOUS
  0
LAYER
  2
DETAIL
 70
     0
 62
     5
  6
CONTINUOUS
  0
LAYER
  2
SIZE
 70
     0
 62
    30
  6
CONTINUOUS
  0
LAYER
  2
ARRANGE
 70
     0
 62
     1
  6
CONTINUOUS
  0
LAYER
  2
DEFPOINTS
 70
     0
 62
     7
  6
CONTINUOUS
  0
LAYER
  2
ETC
 70
     0
 62
    61
  6
CONTINUOUS
  0
LAYER
  2
FIX
 70
     0
 62
    11
  6
CONTINUOUS
  0
LAYER
  2
NOTE
 70
     0
 62
     4
  6
CONTINUOUS
  0
LAYER
  2
SERVICESPACE
 70
    64
 62
     2
  6
DASHDOT
  0
LAYER
  2
SYMBOLLINE
 70
    64
 62
    15
  6
CONTINUOUS
  0
ENDTAB
  0
TABLE
  2
STYLE
 70
     1
  0
STYLE
  2
STANDARD
 70
     0
 40
64.0
 41
0.9
 50
0.0
 71
     0
 42
64.0
  3
SIMPLEX.shx
  4
BIGFONT.shx
  0
ENDTAB
  0
TABLE
  2
APPID
 70
    19
  0
APPID
  2
ACAD
 70
     0
  0
APPID
  2
AUTOCAD_POSTSCRIPT_FIGURE
 70
     0
  0
APPID
  2
ACAD_EXEMPT_FROM_CAD_STANDARDS
 70
     0
  0
APPID
  2
ACAD_PSEXT
 70
     0
  0
APPID
  2
ACAUTHENVIRON
 70
     0
  0
APPID
  2
GENIUS_GENOENT_13
 70
     0
  0
APPID
  2
GENIUS_GENCFG_13
 70
     0
  0
APPID
  2
GENIUS_GENCFG0_13
 70
     0
  0
APPID
  2
GENIUS_GENCFG1_13
 70
     0
  0
APPID
  2
GENIUS_GENCFG2_13
 70
     0
  0
APPID
  2
GENIUS_GENCFG3_13
 70
     0
  0
APPID
  2
GENIUS_GENCFG4_13
 70
     0
  0
APPID
  2
GENIUS_GEVCFG0_13
 70
     0
  0
APPID
  2
CONTENTBLOCKICON
 70
     0
  0
APPID
  2
CONTENTBLOCKDESCRIPTION
 70
     0
  0
APPID
  2
ACAD_NAV_VCDISPLAY
 70
     0
  0
APPID
  2
ACAD_MLEADERVER
 70
     0
  0
APPID
  2
ACDBDYNAMICBLOCKTRUENAME
 70
     0
  0
APPID
  2
ACDBDYNAMICBLOCKGUID
 70
     0
  0
ENDTAB
  0
TABLE
  2
DIMSTYLE
 70
     1
  0
DIMSTYLE
  2
STANDARD
 70
     0
  3

  4

  5
_ORIGIN
  6

  7

 40
1.0
 41
12.0
 42
20.0
 43
200.0
 44
20.0
 45
0.0
 46
0.0
 47
0.0
 48
0.0
140
64.0
141
0.09
142
0.0
143
25.399999999999999
144
1.0
145
0.0
146
1.0
147
25.0
 71
     0
 72
     0
 73
     0
 74
     0
 75
     0
 76
     0
 77
     1
 78
     8
170
     0
171
     2
172
     1
173
     0
174
     1
175
     0
176
     7
177
     7
178
     7
  0
ENDTAB
  0
TABLE
  2
VIEW
 70
     1
  0
VIEW
  2
ALL
 70
     0
 40
4282.6198079999986
 10
0.0
 20
41.309904000000003
 41
5940.0
 11
0.0
 21
0.0
 31
1.0
 12
0.0
 22
0.0
 32
0.0
 42
50.0
 43
0.0
 44
0.0
 50
0.0
 71
     0
  0
ENDTAB
  0
TABLE
  2
UCS
 70
     0
  0
ENDTAB
  0
TABLE
  2
VPORT
 70
     1
  0
VPORT
  2
*ACTIVE
 70
     0
 10
0.0
 20
0.0
 11
1.0
 21
1.0
 12
-34.44212488183166
 22
69.053659761619201
 13
0.0
 23
0.0
 14
1.0
 24
1.0
 15
0.0
 25
0.0
 16
0.0
 26
0.0
 36
1.0
 17
0.0
 27
0.0
 37
0.0
 40
1802.1371212534959
 41
1.747787610619469
 42
50.0
 43
0.0
 44
0.0
 50
0.0
 51
0.0
 71
     0
 72
  1000
 73
     1
 74
     3
 75
     0
 76
     0
 77
     0
 78
     0
  0
ENDTAB
  0
ENDSEC
  0
SECTION
  2
BLOCKS
  0
BLOCK
  8
0
  2
_ORIGIN
 70
     0
 10
0.0
 20
0.0
 30
0.0
  3
_ORIGIN
  1
_ORIGIN
  0
CIRCLE
  8
0
  6
CONTINUOUS
 62
     7
 10
0.0
 20
0.0
 30
0.0
 40
0.5
  0
LINE
  8
0
  6
CONTINUOUS
 62
     7
 10
0.0
 20
0.0
 30
0.0
 11
-1.0
 21
0.0
 31
0.0
  0
ENDBLK
  8
0
  0
ENDSEC
  0
SECTION
  2
ENTITIES
  0
POINT
  8
ARRANGE
  6
CONTINUOUS
 62
     1
 10
0.0
 20
0.0
 30
0.0
  0
LINE
  8
OUTLINE
  6
CONTINUOUS
 62
     3
 10
-234.9999999999994
 20
0.0
 30
0.0
 11
235.0
 21
0.0
 31
0.0
  0
CIRCLE
  8
ARRANGE
  6
CONTINUOUS
 62
     1
 10
0.0
 20
0.0
 30
0.0
 40
40.0
  0
TEXT
  8
SIZE
  6
CONTINUOUS
 62
    30
 10
-109.1657142857143
 20
899.74658771096813
 30
0.0
 40
64.0
  1
□386
 41
0.9
 72
     1
 11
0.0
 21
899.74658771096813
 31
0.0
  0
LINE
  8
SIZE
  6
CONTINUOUS
 62
    30
 10
-181.0
 20
874.74658771096813
 30
0.0
 11
181.0
 21
874.74658771096813
 31
0.0
  0
LINE
  8
SIZE
  6
CONTINUOUS
 62
    30
 10
-33.0
 20
634.21931371096809
 30
0.0
 11
41.000001999999988
 21
634.21931371096809
 31
0.0
  0
TEXT
  8
SIZE
  6
CONTINUOUS
 62
    30
 10
-68.571428571428555
 20
-633.70475378199558
 30
0.0
 40
64.0
  1
410
 41
0.9
 72
     1
 11
0.0
 21
-633.70475378199558
 31
0.0
  0
LINE
  8
SIZE
  6
CONTINUOUS
 62
    30
 10
193.0
 20
-658.70475378199558
 30
0.0
 11
-193.0
 21
-658.70475378199558
 31
0.0
  0
TEXT
  8
SIZE
  6
CONTINUOUS
 62
    30
 10
-74.05714285714285
 20
-514.42579135076323
 30
0.0
 40
64.0
  1
300
 41
0.9
 72
     1
 11
0.0
 21
-514.42579135076323
 31
0.0
  0
LINE
  8
SIZE
  6
CONTINUOUS
 62
    30
 10
138.0
 20
-539.42579135076323
 30
0.0
 11
-138.0
 21
-539.42579135076323
 31
0.0
  0
LINE
  8
NOTE
  6
CONTINUOUS
 62
     4
 10
-150.0
 20
-20.0
 30
0.0
 11
-150.0
 21
20.0
 31
0.0
  0
CIRCLE
  8
FIX
  6
CONTINUOUS
 62
    11
 10
-150.0
 20
0.0
 30
0.0
 40
2.5
  0
CIRCLE
  8
FIX
  6
CONTINUOUS
 62
    11
 10
-205.0
 20
0.0
 30
0.0
 40
2.5
  0
LINE
  8
NOTE
  6
CONTINUOUS
 62
     4
 10
-205.0
 20
-20.0
 30
0.0
 11
-205.0
 21
20.0
 31
0.0
  0
LINE
  8
BASIS
  6
DASHDOT
 62
     6
 10
0.0
 20
-102.65254999999991
 30
0.0
 11
0.0
 21
328.47680999999977
 31
0.0
  0
CIRCLE
  8
SIZE
  6
CONTINUOUS
 62
    30
 10
-205.0
 20
-658.70475378199558
 30
0.0
 40
6.0
  0
LINE
  8
SIZE
  6
CONTINUOUS
 62
    30
 10
-205.0
 20
-40.0
 30
0.0
 11
-205.0
 21
-678.70475378199558
 31
0.0
  0
LINE
  8
SIZE
  6
CONTINUOUS
 62
    30
 10
-205.0
 20
-658.70475378199558
 30
0.0
 11
-193.0
 21
-658.70475378199558
 31
0.0
  0
LINE
  8
SIZE
  6
CONTINUOUS
 62
    30
 10
-150.0
 20
-40.0
 30
0.0
 11
-150.0
 21
-559.42579135076323
 31
0.0
  0
LINE
  8
SIZE
  6
CONTINUOUS
 62
    30
 10
-150.0
 20
-539.42579135076323
 30
0.0
 11
-138.0
 21
-539.42579135076323
 31
0.0
  0
CIRCLE
  8
SIZE
  6
CONTINUOUS
 62
    30
 10
-150.0
 20
-539.42579135076323
 30
0.0
 40
6.0
  0
LINE
  8
NOTE
  6
CONTINUOUS
 62
     4
 10
-185.0
 20
0.0
 30
0.0
 11
-225.0
 21
0.0
 31
0.0
  0
LINE
  8
NOTE
  6
CONTINUOUS
 62
     4
 10
-130.0
 20
0.0
 30
0.0
 11
-170.0
 21
0.0
 31
0.0
  0
LINE
  8
NOTE
  6
CONTINUOUS
 62
     3
 10
-130.0
 20
255.92837086742011
 30
0.0
 11
-130.0
 21
218.9483478329702
 31
0.0
  0
TEXT
  8
SIZE
  6
CONTINUOUS
 62
    30
 10
-1008.437308240343
 20
264.9822754285712
 30
0.0
 40
64.0
  1
φ152
 50
90.0
 41
0.9
 72
     1
 11
-1008.437308240343
 21
373.87370399999969
 31
0.0
  0
LINE
  8
SIZE
  6
CONTINUOUS
 62
    30
 10
-308.0
 20
257.50000000000011
 30
0.0
 11
-308.0
 21
650.73762971096824
 31
0.0
  0
LINE
  8
SIZE
  6
CONTINUOUS
 62
    30
 10
-335.0
 20
253.50000000000011
 30
0.0
 11
-335.0
 21
650.73762971096824
 31
0.0
  0
LINE
  8
SIZE
  6
CONTINUOUS
 62
    30
 10
-278.0
 20
261.50000000000011
 30
0.0
 11
-278.0
 21
772.28829071096754
 31
0.0
  0
LINE
  8
SIZE
  6
CONTINUOUS
 62
    30
 10
-335.0
 20
253.50000000000011
 30
0.0
 11
-335.0
 21
772.28829071096754
 31
0.0
  0
LINE
  8
SIZE
  6
CONTINUOUS
 62
    30
 10
-335.0
 20
253.50000000000011
 30
0.0
 11
-335.0
 21
894.74658771096813
 31
0.0
  0
LINE
  8
SIZE
  6
CONTINUOUS
 62
    30
 10
-193.0
 20
276.00000000000011
 30
0.0
 11
-193.0
 21
894.74658771096813
 31
0.0
  0
LINE
  8
SIZE
  6
CONTINUOUS
 62
    30
 10
-193.0
 20
276.00000000000011
 30
0.0
 11
-193.0
 21
894.74658771096813
 31
0.0
  0
LINE
  8
SIZE
  6
CONTINUOUS
 62
    30
 10
-45.0
 20
292.94001400000008
 30
0.0
 11
-45.0
 21
654.21931371096809
 31
0.0
  0
TEXT
  8
NOTE
  6
CONTINUOUS
 62
     4
 10
-509.06865800000003
 20
105.29216
 30
0.0
 40
64.0
  1
EA
 41
0.9
  0
LINE
  8
SIZE
  6
CONTINUOUS
 62
    30
 10
-355.0
 20
234.00000000000011
 30
0.0
 11
-876.17065424034331
 21
234.00000000000011
 31
0.0
  0
LINE
  8
SIZE
  6
CONTINUOUS
 62
    30
 10
-355.0
 20
90.0
 30
0.0
 11
-876.17065424034331
 21
90.0
 31
0.0
  0
LINE
  8
SIZE
  6
CONTINUOUS
 62
    30
 10
-328.0
 20
86.0
 30
0.0
 11
-1003.437308240343
 21
86.0
 31
0.0
  0
LINE
  8
SIZE
  6
CONTINUOUS
 62
    30
 10
-328.0
 20
238.00000000000011
 30
0.0
 11
-1003.437308240343
 21
238.00000000000011
 31
0.0
  0
TEXT
  8
SIZE
  6
CONTINUOUS
 62
    30
 10
-881.17065424034331
 20
263.61084685714258
 30
0.0
 40
64.0
  1
φ144
 50
90.0
 41
0.9
 72
     1
 11
-881.17065424034331
 21
373.87370399999969
 31
0.0
  0
LINE
  8
SIZE
  6
CONTINUOUS
 62
    30
 10
-856.17065424034331
 20
234.00000000000011
 30
0.0
 11
-856.17065424034331
 21
497.61656099999988
 31
0.0
  0
LINE
  8
SIZE
  6
CONTINUOUS
 62
    30
 10
-983.43730824034333
 20
238.00000000000011
 30
0.0
 11
-983.43730824034333
 21
496.24513300000001
 31
0.0
  0
LINE
  8
SIZE
  6
CONTINUOUS
 62
    30
 10
-856.17065424034331
 20
102.0000000000001
 30
0.0
 11
-856.17065424034331
 21
221.99999999999969
 31
0.0
  0
LINE
  8
SIZE
  6
CONTINUOUS
 62
    30
 10
-983.43730824034333
 20
98.0
 30
0.0
 11
-983.43730824034333
 21
226.00000000000011
 31
0.0
  0
CIRCLE
  8
SIZE
  6
CONTINUOUS
 62
    30
 10
-983.43730824034333
 20
86.0
 30
0.0
 40
6.0
  0
LINE
  8
SIZE
  6
CONTINUOUS
 62
    30
 10
-983.43730824034333
 20
86.0
 30
0.0
 11
-983.43730824034333
 21
98.0
 31
0.0
  0
LINE
  8
SIZE
  6
CONTINUOUS
 62
    30
 10
-856.17065424034331
 20
90.0
 30
0.0
 11
-856.17065424034331
 21
102.0000000000001
 31
0.0
  0
CIRCLE
  8
SIZE
  6
CONTINUOUS
 62
    30
 10
-856.17065424034331
 20
90.0
 30
0.0
 40
6.0
  0
LINE
  8
SIZE
  6
CONTINUOUS
 62
    30
 10
-983.43730824034333
 20
238.00000000000011
 30
0.0
 11
-983.43730824034333
 21
226.00000000000011
 31
0.0
  0
CIRCLE
  8
SIZE
  6
CONTINUOUS
 62
    30
 10
-983.43730824034333
 20
238.00000000000011
 30
0.0
 40
6.0
  0
LINE
  8
SIZE
  6
CONTINUOUS
 62
    30
 10
-856.17065424034331
 20
234.00000000000011
 30
0.0
 11
-856.17065424034331
 21
221.99999999999969
 31
0.0
  0
CIRCLE
  8
SIZE
  6
CONTINUOUS
 62
    30
 10
-856.17065424034331
 20
234.00000000000011
 30
0.0
 40
6.0
  0
LINE
  8
BASIS
  6
DASHDOT
 62
     6
 10
-386.95414399999993
 20
162.00000000000011
 30
0.0
 11
-169.09359599999991
 21
162.00000000000011
 31
0.0
  0
LINE
  8
DETAIL
  6
CONTINUOUS
 62
     5
 10
-105.0
 20
37.0
 30
0.0
 11
-105.0
 21
237.00000000000011
 31
0.0
  0
LINE
  8
DETAIL
  6
CONTINUOUS
 62
     5
 10
-155.0
 20
37.0
 30
0.0
 11
-155.0
 21
237.00000000000011
 31
0.0
  0
LINE
  8
DETAIL
  6
CONTINUOUS
 62
     5
 10
-155.0
 20
37.0
 30
0.0
 11
-105.0
 21
37.0
 31
0.0
  0
LINE
  8
BASIS
  6
DASHDOT
 62
     6
 10
-84.5
 20
4.2375409999999647
 30
0.0
 11
-84.5
 21
31.965836999999961
 31
0.0
  0
ARC
  8
DETAIL
  6
CONTINUOUS
 62
     5
 10
-74.0
 20
18.0
 30
0.0
 40
7.0
 50
270.0
 51
90.0
  0
ARC
  8
DETAIL
  6
CONTINUOUS
 62
     5
 10
-74.0
 20
18.0
 30
0.0
 40
10.0
 50
270.0
 51
90.0
  0
ARC
  8
DETAIL
  6
CONTINUOUS
 62
     5
 10
-95.0
 20
18.0
 30
0.0
 40
10.0
 50
90.0
 51
270.0
  0
ARC
  8
DETAIL
  6
CONTINUOUS
 62
     5
 10
-95.0
 20
18.0
 30
0.0
 40
7.0
 50
90.0
 51
270.0
  0
LINE
  8
DETAIL
  6
CONTINUOUS
 62
     5
 10
-95.0
 20
25.0
 30
0.0
 11
-74.0
 21
25.0
 31
0.0
  0
LINE
  8
DETAIL
  6
CONTINUOUS
 62
     5
 10
-95.0
 20
28.0
 30
0.0
 11
-74.0
 21
28.0
 31
0.0
  0
LINE
  8
DETAIL
  6
CONTINUOUS
 62
     5
 10
-95.0
 20
8.0
 30
0.0
 11
-74.0
 21
8.0
 31
0.0
  0
LINE
  8
DETAIL
  6
CONTINUOUS
 62
     5
 10
-74.0
 20
11.0
 30
0.0
 11
-95.0
 21
11.0
 31
0.0
  0
LINE
  8
BASIS
  6
DASHDOT
 62
     6
 10
-110.8142765716902
 20
18.0
 30
0.0
 11
-59.161530295698867
 21
18.0
 31
0.0
  0
LINE
  8
DETAIL
  6
CONTINUOUS
 62
     5
 10
-95.0
 20
233.50000000000011
 30
0.0
 11
-45.0
 21
233.50000000000011
 31
0.0
  0
LINE
  8
DETAIL
  6
CONTINUOUS
 62
     5
 10
-155.0
 20
237.00000000000011
 30
0.0
 11
-105.0
 21
237.00000000000011
 31
0.0
  0
LINE
  8
DETAIL
  6
CONTINUOUS
 62
     5
 10
-95.0
 20
237.00000000000011
 30
0.0
 11
-45.0
 21
237.00000000000011
 31
0.0
  0
LINE
  8
NOTE
  6
CONTINUOUS
 62
     4
 10
-70.0
 20
218.00000000000011
 30
0.0
 11
-70.0
 21
258.00000000000011
 31
0.0
  0
CIRCLE
  8
FIX
  6
CONTINUOUS
 62
    11
 10
-70.0
 20
237.00000000000011
 30
0.0
 40
6.0
  0
LINE
  8
NOTE
  6
CONTINUOUS
 62
     4
 10
-50.0
 20
237.00000000000011
 30
0.0
 11
-90.0
 21
237.00000000000011
 31
0.0
  0
LINE
  8
DETAIL
  6
CONTINUOUS
 62
     5
 10
-95.0
 20
230.00000000000011
 30
0.0
 11
-95.0
 21
237.00000000000011
 31
0.0
  0
LINE
  8
DETAIL
  6
CONTINUOUS
 62
     5
 10
-95.0
 20
237.00000000000011
 30
0.0
 11
-45.0
 21
237.00000000000011
 31
0.0
  0
LINE
  8
DETAIL
  6
CONTINUOUS
 62
     5
 10
-155.0
 20
237.00000000000011
 30
0.0
 11
-105.0
 21
237.00000000000011
 31
0.0
  0
LINE
  8
DETAIL
  6
CONTINUOUS
 62
     5
 10
-155.0
 20
233.50000000000011
 30
0.0
 11
-105.0
 21
233.50000000000011
 31
0.0
  0
LINE
  8
NOTE
  6
CONTINUOUS
 62
     4
 10
-110.0
 20
237.00000000000011
 30
0.0
 11
-150.0
 21
237.00000000000011
 31
0.0
  0
CIRCLE
  8
FIX
  6
CONTINUOUS
 62
    11
 10
-130.0
 20
237.00000000000011
 30
0.0
 40
6.0
  0
LINE
  8
DETAIL
  6
CONTINUOUS
 62
     5
 10
-45.0
 20
230.00000000000011
 30
0.0
 11
-45.0
 21
237.00000000000011
 31
0.0
  0
LINE
  8
SIZE
  6
CONTINUOUS
 62
    30
 10
0.0
 20
348.47681000000023
 30
0.0
 11
0.0
 21
471.81025399999987
 31
0.0
  0
TEXT
  8
SIZE
  6
CONTINUOUS
 62
    30
 10
-480.2571424285714
 20
655.73762971096824
 30
0.0
 40
64.0
  1
27
 41
0.9
 72
     1
 11
-433.62857100000002
 21
655.73762971096824
 31
0.0
  0
LINE
  8
SIZE
  6
CONTINUOUS
 62
    30
 10
-347.0
 20
630.73762971096824
 30
0.0
 11
-505.25714299999993
 21
630.73762971096824
 31
0.0
  0
TEXT
  8
SIZE
  6
CONTINUOUS
 62
    30
 10
-480.2571424285714
 20
777.28829071096754
 30
0.0
 40
64.0
  1
57
 41
0.9
 72
     1
 11
-433.62857100000002
 21
777.28829071096754
 31
0.0
  0
LINE
  8
SIZE
  6
CONTINUOUS
 62
    30
 10
-347.0
 20
752.28829071096754
 30
0.0
 11
-505.25714299999993
 21
752.28829071096754
 31
0.0
  0
TEXT
  8
SIZE
  6
CONTINUOUS
 62
    30
 10
-332.57142857142861
 20
899.74658771096813
 30
0.0
 40
64.0
  1
142
 41
0.9
 72
     1
 11
-264.0
 21
899.74658771096813
 31
0.0
  0
LINE
  8
SIZE
  6
CONTINUOUS
 62
    30
 10
-193.0
 20
874.74658771096813
 30
0.0
 11
-335.0
 21
874.74658771096813
 31
0.0
  0
LINE
  8
SIZE
  6
CONTINUOUS
 62
    30
 10
-296.0
 20
630.73762971096824
 30
0.0
 11
-284.0
 21
630.73762971096824
 31
0.0
  0
LINE
  8
SIZE
  6
CONTINUOUS
 62
    30
 10
-335.0
 20
630.73762971096824
 30
0.0
 11
-347.0
 21
630.73762971096824
 31
0.0
  0
CIRCLE
  8
SIZE
  6
CONTINUOUS
 62
    30
 10
-335.0
 20
630.73762971096824
 30
0.0
 40
6.0
  0
LINE
  8
SIZE
  6
CONTINUOUS
 62
    30
 10
-308.0
 20
630.73762971096824
 30
0.0
 11
-296.0
 21
630.73762971096824
 31
0.0
  0
CIRCLE
  8
SIZE
  6
CONTINUOUS
 62
    30
 10
-308.0
 20
630.73762971096824
 30
0.0
 40
6.0
  0
LINE
  8
SIZE
  6
CONTINUOUS
 62
    30
 10
-308.0
 20
630.73762971096824
 30
0.0
 11
-335.0
 21
630.73762971096824
 31
0.0
  0
LINE
  8
SIZE
  6
CONTINUOUS
 62
    30
 10
-278.0
 20
752.28829071096754
 30
0.0
 11
-335.0
 21
752.28829071096754
 31
0.0
  0
LINE
  8
SIZE
  6
CONTINUOUS
 62
    30
 10
-335.0
 20
752.28829071096754
 30
0.0
 11
-347.0
 21
752.28829071096754
 31
0.0
  0
CIRCLE
  8
SIZE
  6
CONTINUOUS
 62
    30
 10
-335.0
 20
752.28829071096754
 30
0.0
 40
6.0
  0
CIRCLE
  8
SIZE
  6
CONTINUOUS
 62
    30
 10
-278.0
 20
752.28829071096754
 30
0.0
 40
6.0
  0
CIRCLE
  8
SIZE
  6
CONTINUOUS
 62
    30
 10
-335.0
 20
874.74658771096813
 30
0.0
 40
6.0
  0
LINE
  8
SIZE
  6
CONTINUOUS
 62
    30
 10
-45.0
 20
634.21931371096809
 30
0.0
 11
-33.0
 21
634.21931371096809
 31
0.0
  0
CIRCLE
  8
SIZE
  6
CONTINUOUS
 62
    30
 10
-45.0
 20
634.21931371096809
 30
0.0
 40
6.0
  0
LINE
  8
SIZE
  6
CONTINUOUS
 62
    30
 10
-181.0
 20
874.74658771096813
 30
0.0
 11
-169.0
 21
874.74658771096813
 31
0.0
  0
LINE
  8
SIZE
  6
CONTINUOUS
 62
    30
 10
-193.0
 20
874.74658771096813
 30
0.0
 11
-181.0
 21
874.74658771096813
 31
0.0
  0
CIRCLE
  8
SIZE
  6
CONTINUOUS
 62
    30
 10
-193.0
 20
874.74658771096813
 30
0.0
 40
6.0
  0
LINE
  8
SIZE
  6
CONTINUOUS
 62
    30
 10
-193.0
 20
874.74658771096813
 30
0.0
 11
-181.0
 21
874.74658771096813
 31
0.0
  0
CIRCLE
  8
SIZE
  6
CONTINUOUS
 62
    30
 10
-193.0
 20
874.74658771096813
 30
0.0
 40
6.0
  0
LINE
  8
OUTLINE
  6
CONTINUOUS
 62
     3
 10
193.0
 20
0.0
 30
0.0
 11
193.0
 21
230.00000000000011
 31
0.0
  0
LINE
  8
NOTE
  6
CONTINUOUS
 62
     4
 10
204.98601300000001
 20
0.0799839999999676
 30
0.0
 11
230.65418199999999
 21
-30.598104000000031
 31
0.0
  0
LINE
  8
NOTE
  6
CONTINUOUS
 62
     4
 10
211.8762549999999
 20
-39.322103999999968
 30
0.0
 11
204.98601300000001
 21
0.0799839999999676
 31
0.0
  0
LINE
  8
NOTE
  6
CONTINUOUS
 62
     4
 10
204.98852500000001
 20
0.0256140000000187
 30
0.0
 11
287.05333599999989
 21
-183.15480600000009
 31
0.0
  0
LINE
  8
NOTE
  6
CONTINUOUS
 62
     4
 10
205.0
 20
-20.0
 30
0.0
 11
205.0
 21
20.0
 31
0.0
  0
LINE
  8
NOTE
  6
CONTINUOUS
 62
     4
 10
150.0
 20
-20.0
 30
0.0
 11
150.0
 21
20.0
 31
0.0
  0
CIRCLE
  8
FIX
  6
CONTINUOUS
 62
    11
 10
150.0
 20
0.0
 30
0.0
 40
2.5
  0
CIRCLE
  8
FIX
  6
CONTINUOUS
 62
    11
 10
205.0
 20
0.0
 30
0.0
 40
2.5
  0
LINE
  8
NOTE
  6
CONTINUOUS
 62
     4
 10
287.05333599999989
 20
-183.15480600000009
 30
0.0
 11
676.03285499999993
 21
-183.15480600000009
 31
0.0
  0
TEXT
  8
NOTE
  6
CONTINUOUS
 62
     4
 10
296.93595899999991
 20
-150.19053500000001
 30
0.0
 40
64.0
  1
8-φ5×8
 41
0.9
  0
CIRCLE
  8
SIZE
  6
CONTINUOUS
 62
    30
 10
205.0
 20
-658.70475378199558
 30
0.0
 40
6.0
  0
LINE
  8
SIZE
  6
CONTINUOUS
 62
    30
 10
205.0
 20
-40.0
 30
0.0
 11
205.0
 21
-678.70475378199558
 31
0.0
  0
LINE
  8
SIZE
  6
CONTINUOUS
 62
    30
 10
205.0
 20
-658.70475378199558
 30
0.0
 11
193.0
 21
-658.70475378199558
 31
0.0
  0
LINE
  8
SIZE
  6
CONTINUOUS
 62
    30
 10
150.0
 20
-40.0
 30
0.0
 11
150.0
 21
-559.42579135076323
 31
0.0
  0
LINE
  8
SIZE
  6
CONTINUOUS
 62
    30
 10
150.0
 20
-539.42579135076323
 30
0.0
 11
138.0
 21
-539.42579135076323
 31
0.0
  0
CIRCLE
  8
SIZE
  6
CONTINUOUS
 62
    30
 10
150.0
 20
-539.42579135076323
 30
0.0
 40
6.0
  0
LINE
  8
NOTE
  6
CONTINUOUS
 62
     4
 10
130.0
 20
0.0
 30
0.0
 11
170.0
 21
0.0
 31
0.0
  0
LINE
  8
NOTE
  6
CONTINUOUS
 62
     4
 10
185.0
 20
0.0
 30
0.0
 11
225.0
 21
0.0
 31
0.0
  0
LINE
  8
NOTE
  6
CONTINUOUS
 62
     4
 10
359.27716600000008
 20
433.13730300000009
 30
0.0
 11
592.09922202992038
 21
433.13730300000009
 31
0.0
  0
TEXT
  8
NOTE
  6
CONTINUOUS
 62
     4
 10
371.55679300000003
 20
476.39472399999988
 30
0.0
 40
64.0
  1
AH 4
 41
0.9
  0
LINE
  8
SIZE
  6
CONTINUOUS
 62
    30
 10
193.0
 20
250.00000000000011
 30
0.0
 11
193.0
 21
894.74658771096813
 31
0.0
  0
LINE
  8
SIZE
  6
CONTINUOUS
 62
    30
 10
53.000001999999988
 20
292.94001400000008
 30
0.0
 11
53.000001999999988
 21
654.21931371096809
 31
0.0
  0
LINE
  8
NOTE
  6
CONTINUOUS
 62
     4
 10
130.0
 20
237.00000000000011
 30
0.0
 11
359.27716600000008
 21
433.13730300000009
 31
0.0
  0
LINE
  8
DETAIL
  6
CONTINUOUS
 62
     5
 10
45.0
 20
37.0
 30
0.0
 11
45.0
 21
237.00000000000011
 31
0.0
  0
LINE
  8
DETAIL
  6
CONTINUOUS
 62
     5
 10
95.0
 20
37.0
 30
0.0
 11
95.0
 21
237.00000000000011
 31
0.0
  0
LINE
  8
DETAIL
  6
CONTINUOUS
 62
     5
 10
126.0
 20
11.0
 30
0.0
 11
105.0
 21
11.0
 31
0.0
  0
LINE
  8
DETAIL
  6
CONTINUOUS
 62
     5
 10
105.0
 20
25.0
 30
0.0
 11
126.0
 21
25.0
 31
0.0
  0
LINE
  8
DETAIL
  6
CONTINUOUS
 62
     5
 10
105.0
 20
28.0
 30
0.0
 11
126.0
 21
28.0
 31
0.0
  0
LINE
  8
DETAIL
  6
CONTINUOUS
 62
     5
 10
105.0
 20
8.0
 30
0.0
 11
126.0
 21
8.0
 31
0.0
  0
LINE
  8
BASIS
  6
DASHDOT
 62
     6
 10
88.816613492655961
 20
18.0
 30
0.0
 11
139.77134878252039
 21
18.0
 31
0.0
  0
LINE
  8
DETAIL
  6
CONTINUOUS
 62
     5
 10
95.0
 20
37.0
 30
0.0
 11
45.0
 21
37.0
 31
0.0
  0
LINE
  8
BASIS
  6
DASHDOT
 62
     6
 10
115.5
 20
4.2375409999999647
 30
0.0
 11
115.5
 21
31.965836999999961
 31
0.0
  0
ARC
  8
DETAIL
  6
CONTINUOUS
 62
     5
 10
105.0
 20
18.0
 30
0.0
 40
10.0
 50
90.0
 51
270.0
  0
ARC
  8
DETAIL
  6
CONTINUOUS
 62
     5
 10
105.0
 20
18.0
 30
0.0
 40
7.0
 50
90.0
 51
270.0
  0
ARC
  8
DETAIL
  6
CONTINUOUS
 62
     5
 10
126.0
 20
18.0
 30
0.0
 40
7.0
 50
270.0
 51
90.0
  0
ARC
  8
DETAIL
  6
CONTINUOUS
 62
     5
 10
126.0
 20
18.0
 30
0.0
 40
10.0
 50
270.0
 51
90.0
  0
LINE
  8
DETAIL
  6
CONTINUOUS
 62
     5
 10
95.0
 20
233.50000000000011
 30
0.0
 11
45.0
 21
233.50000000000011
 31
0.0
  0
LINE
  8
DETAIL
  6
CONTINUOUS
 62
     5
 10
95.0
 20
237.00000000000011
 30
0.0
 11
45.0
 21
237.00000000000011
 31
0.0
  0
LINE
  8
NOTE
  6
CONTINUOUS
 62
     4
 10
70.0
 20
218.00000000000011
 30
0.0
 11
70.0
 21
258.00000000000011
 31
0.0
  0
LINE
  8
NOTE
  6
CONTINUOUS
 62
     4
 10
130.0
 20
237.00000000000011
 30
0.0
 11
149.6646396546721
 21
273.02291382680397
 31
0.0
  0
LINE
  8
NOTE
  6
CONTINUOUS
 62
     4
 10
169.2089176229338
 20
254.88176880896901
 30
0.0
 11
130.0
 21
237.00000000000011
 31
0.0
  0
CIRCLE
  8
FIX
  6
CONTINUOUS
 62
    11
 10
70.0
 20
237.00000000000011
 30
0.0
 40
6.0
  0
LINE
  8
NOTE
  6
CONTINUOUS
 62
     4
 10
50.0
 20
237.00000000000011
 30
0.0
 11
90.0
 21
237.00000000000011
 31
0.0
  0
CIRCLE
  8
SIZE
  6
CONTINUOUS
 62
    30
 10
53.000001999999988
 20
634.21931371096809
 30
0.0
 40
6.0
  0
LINE
  8
SIZE
  6
CONTINUOUS
 62
    30
 10
53.000001999999988
 20
634.21931371096809
 30
0.0
 11
41.000001999999988
 21
634.21931371096809
 31
0.0
  0
LINE
  8
SIZE
  6
CONTINUOUS
 62
    30
 10
193.0
 20
874.74658771096813
 30
0.0
 11
181.0
 21
874.74658771096813
 31
0.0
  0
CIRCLE
  8
SIZE
  6
CONTINUOUS
 62
    30
 10
193.0
 20
874.74658771096813
 30
0.0
 40
6.0
  0
TEXT
  8
SIZE
  6
CONTINUOUS
 62
    30
 10
-84.779738382553106
 20
659.21931371096809
 30
0.0
 40
64.0
  1
φ98
 41
0.9
 72
     1
 11
2.1688330460183352
 21
659.21931371096809
 31
0.0
  0
TEXT
  8
ETC
  6
CONTINUOUS
 62
    61
 10
328.10265028467802
 20
900.02500642388316
 30
0.0
 40
64.0
  1
VD-23ZV6_4
 41
0.9
  0
TEXT
  8
ETC
  6
CONTINUOUS
 62
    61
 10
323.91665628467757
 20
782.0696964090522
 30
0.0
 40
64.0
  1
換気扇
 41
0.9
  0
TEXT
  8
ETC
  6
CONTINUOUS
 62
    61
 10
374.52415893693433
 20
674.23391636950475
 30
0.0
 40
40.0
  1
VD-23ZV6
 41
0.9
  0
LINE
  8
NOTE
  6
CONTINUOUS
 62
     4
 10
-157.0
 20
216.70691143178979
 30
0.0
 11
-157.0
 21
243.29308856821049
 31
0.0
  0
LINE
  8
NOTE
  6
CONTINUOUS
 62
     4
 10
-168.2425698446971
 20
230.00000000000011
 30
0.0
 11
-145.7574301553029
 21
230.00000000000011
 31
0.0
  0
TEXT
  8
NOTE
  6
CONTINUOUS
 62
     4
 10
-485.91079907971078
 20
345.78622687215568
 30
0.0
 40
64.0
  1
EL
 41
0.9
  0
LINE
  8
NOTE
  6
CONTINUOUS
 62
     4
 10
-489.51938180606339
 20
328.37561410719269
 30
0.0
 11
-382.66998007262652
 21
328.37561410719269
 31
0.0
  0
LINE
  8
NOTE
  6
CONTINUOUS
 62
     4
 10
-382.66998007262652
 20
328.37561410719269
 30
0.0
 11
-157.0
 21
230.00000000000011
 31
0.0
  0
LINE
  8
NOTE
  6
CONTINUOUS
 62
     4
 10
-157.0
 20
230.00000000000011
 30
0.0
 11
-168.01381862989001
 21
238.09764139535591
 31
0.0
  0
LINE
  8
NOTE
  6
CONTINUOUS
 62
     4
 10
-156.99999999999989
 20
230.00000000000011
 30
0.0
 11
-171.1615076587583
 21
231.8769604688251
 31
0.0
  0
LINE
  8
SIZE
  6
CONTINUOUS
 62
    30
 10
-406.95414399999993
 20
162.00000000000011
 30
0.0
 11
-742.13741991423922
 21
162.00000000000011
 31
0.0
  0
LINE
  8
SIZE
  6
CONTINUOUS
 62
    30
 10
-254.9999999999994
 20
0.0
 30
0.0
 11
-742.13741991423922
 21
0.0000000000001137
 31
0.0
  0
LINE
  8
SIZE
  6
CONTINUOUS
 62
    30
 10
-722.13741991423922
 20
150.00000000000011
 30
0.0
 11
-722.13741991423922
 21
12.00000000000011
 31
0.0
  0
LINE
  8
SIZE
  6
CONTINUOUS
 62
    30
 10
-722.13741991423922
 20
0.0000000000001137
 30
0.0
 11
-722.13741991423922
 21
-199.14285714285711
 31
0.0
  0
CIRCLE
  8
SIZE
  6
CONTINUOUS
 62
    30
 10
-722.13741991423922
 20
162.00000000000011
 30
0.0
 40
6.0
  0
LINE
  8
SIZE
  6
CONTINUOUS
 62
    30
 10
-722.13741991423922
 20
162.00000000000011
 30
0.0
 11
-722.13741991423922
 21
150.00000000000011
 31
0.0
  0
CIRCLE
  8
SIZE
  6
CONTINUOUS
 62
    30
 10
-722.13741991423922
 20
0.0000000000001137
 30
0.0
 40
6.0
  0
LINE
  8
SIZE
  6
CONTINUOUS
 62
    30
 10
-722.13741991423922
 20
0.0000000000001137
 30
0.0
 11
-722.13741991423922
 21
12.00000000000011
 31
0.0
  0
TEXT
  8
SIZE
  6
CONTINUOUS
 62
    30
 10
-747.13741991423922
 20
-174.14285714285711
 30
0.0
 40
64.0
  1
162
 50
90.0
 41
0.9
 72
     1
 11
-747.13741991423922
 21
-105.5714285714286
 31
0.0
  0
POINT
  8
DEFPOINTS
  6
CONTINUOUS
 62
    30
 10
-386.95414399999993
 20
162.00000000000011
 30
0.0
  0
POINT
  8
DEFPOINTS
  6
CONTINUOUS
 62
    30
 10
-234.9999999999994
 20
0.0
 30
0.0
  0
POINT
  8
DEFPOINTS
  6
CONTINUOUS
 62
    30
 10
-722.13741991423922
 20
0.0000000000001137
 30
0.0
  0
LINE
  8
SIZE
  6
CONTINUOUS
 62
    30
 10
0.0
 20
-122.65254999999991
 30
0.0
 11
0.0
 21
-426.22762079632793
 31
0.0
  0
LINE
  8
SIZE
  6
CONTINUOUS
 62
    30
 10
-84.5
 20
-15.762459000000041
 30
0.0
 11
-84.5
 21
-426.22762079632793
 31
0.0
  0
LINE
  8
SIZE
  6
CONTINUOUS
 62
    30
 10
-12.0
 20
-406.22762079632793
 30
0.0
 11
-72.5
 21
-406.22762079632793
 31
0.0
  0
LINE
  8
SIZE
  6
CONTINUOUS
 62
    30
 10
-84.5
 20
-406.22762079632793
 30
0.0
 11
-472.52879984389477
 21
-406.22762079632793
 31
0.0
  0
CIRCLE
  8
SIZE
  6
CONTINUOUS
 62
    30
 10
0.0
 20
-406.22762079632793
 30
0.0
 40
6.0
  0
LINE
  8
SIZE
  6
CONTINUOUS
 62
    30
 10
0.0
 20
-406.22762079632793
 30
0.0
 11
-12.0
 21
-406.22762079632793
 31
0.0
  0
CIRCLE
  8
SIZE
  6
CONTINUOUS
 62
    30
 10
-84.5
 20
-406.22762079632793
 30
0.0
 40
6.0
  0
LINE
  8
SIZE
  6
CONTINUOUS
 62
    30
 10
-84.5
 20
-406.22762079632793
 30
0.0
 11
-72.5
 21
-406.22762079632793
 31
0.0
  0
TEXT
  8
SIZE
  6
CONTINUOUS
 62
    30
 10
-447.52879984389477
 20
-381.22762079632793
 30
0.0
 40
64.0
  1
84.5
 41
0.9
 72
     1
 11
-359.75737127246617
 21
-381.22762079632793
 31
0.0
  0
POINT
  8
DEFPOINTS
  6
CONTINUOUS
 62
    30
 10
0.0
 20
-102.65254999999991
 30
0.0
  0
POINT
  8
DEFPOINTS
  6
CONTINUOUS
 62
    30
 10
-84.5
 20
4.2375409999999647
 30
0.0
  0
POINT
  8
DEFPOINTS
  6
CONTINUOUS
 62
    30
 10
-84.5
 20
-406.22762079632793
 30
0.0
  0
LINE
  8
SIZE
  6
CONTINUOUS
 62
    30
 10
0.0
 20
-122.65254999999991
 30
0.0
 11
0.0
 21
-426.22762079632793
 31
0.0
  0
LINE
  8
SIZE
  6
CONTINUOUS
 62
    30
 10
115.5
 20
-15.762459000000041
 30
0.0
 11
115.5
 21
-426.22762079632793
 31
0.0
  0
LINE
  8
SIZE
  6
CONTINUOUS
 62
    30
 10
12.0
 20
-406.22762079632793
 30
0.0
 11
103.5
 21
-406.22762079632793
 31
0.0
  0
LINE
  8
SIZE
  6
CONTINUOUS
 62
    30
 10
115.5
 20
-406.22762079632793
 30
0.0
 11
488.98594270103757
 21
-406.22762079632793
 31
0.0
  0
CIRCLE
  8
SIZE
  6
CONTINUOUS
 62
    30
 10
0.0
 20
-406.22762079632793
 30
0.0
 40
6.0
  0
LINE
  8
SIZE
  6
CONTINUOUS
 62
    30
 10
0.0
 20
-406.22762079632793
 30
0.0
 11
12.0
 21
-406.22762079632793
 31
0.0
  0
CIRCLE
  8
SIZE
  6
CONTINUOUS
 62
    30
 10
115.5
 20
-406.22762079632793
 30
0.0
 40
6.0
  0
LINE
  8
SIZE
  6
CONTINUOUS
 62
    30
 10
115.5
 20
-406.22762079632793
 30
0.0
 11
103.5
 21
-406.22762079632793
 31
0.0
  0
TEXT
  8
SIZE
  6
CONTINUOUS
 62
    30
 10
255.52879984389469
 20
-381.22762079632793
 30
0.0
 40
64.0
  1
115.5
 41
0.9
 72
     1
 11
359.75737127246612
 21
-381.22762079632793
 31
0.0
  0
POINT
  8
DEFPOINTS
  6
CONTINUOUS
 62
    30
 10
0.0
 20
-102.65254999999991
 30
0.0
  0
POINT
  8
DEFPOINTS
  6
CONTINUOUS
 62
    30
 10
115.5
 20
4.2375409999999647
 30
0.0
  0
POINT
  8
DEFPOINTS
  6
CONTINUOUS
 62
    30
 10
115.5
 20
-406.22762079632793
 30
0.0
  0
LINE
  8
SIZE
  6
CONTINUOUS
 62
    30
 10
-105.0
 20
-2.0
 30
0.0
 11
-105.0
 21
-304.95161150654531
 31
0.0
  0
LINE
  8
SIZE
  6
CONTINUOUS
 62
    30
 10
-64.0
 20
-2.0
 30
0.0
 11
-64.0
 21
-304.95161150654531
 31
0.0
  0
LINE
  8
SIZE
  6
CONTINUOUS
 62
    30
 10
-52.0
 20
-284.95161150654531
 30
0.0
 11
-40.0
 21
-284.95161150654531
 31
0.0
  0
LINE
  8
SIZE
  6
CONTINUOUS
 62
    30
 10
-117.0
 20
-284.95161150654531
 30
0.0
 11
-369.40456487611527
 21
-284.95161150654531
 31
0.0
  0
LINE
  8
SIZE
  6
CONTINUOUS
 62
    30
 10
-64.0
 20
-284.95161150654531
 30
0.0
 11
-105.0
 21
-284.95161150654531
 31
0.0
  0
CIRCLE
  8
SIZE
  6
CONTINUOUS
 62
    30
 10
-64.0
 20
-284.95161150654531
 30
0.0
 40
6.0
  0
LINE
  8
SIZE
  6
CONTINUOUS
 62
    30
 10
-64.0
 20
-284.95161150654531
 30
0.0
 11
-52.0
 21
-284.95161150654531
 31
0.0
  0
CIRCLE
  8
SIZE
  6
CONTINUOUS
 62
    30
 10
-105.0
 20
-284.95161150654531
 30
0.0
 40
6.0
  0
LINE
  8
SIZE
  6
CONTINUOUS
 62
    30
 10
-105.0
 20
-284.95161150654531
 30
0.0
 11
-117.0
 21
-284.95161150654531
 31
0.0
  0
TEXT
  8
SIZE
  6
CONTINUOUS
 62
    30
 10
-344.40456487611527
 20
-259.95161150654542
 30
0.0
 40
64.0
  1
41
 41
0.9
 72
     1
 11
-310.11885059040111
 21
-259.95161150654542
 31
0.0
  0
POINT
  8
DEFPOINTS
  6
CONTINUOUS
 62
    30
 10
-105.0
 20
18.0
 30
0.0
  0
POINT
  8
DEFPOINTS
  6
CONTINUOUS
 62
    30
 10
-64.0
 20
18.0
 30
0.0
  0
POINT
  8
DEFPOINTS
  6
CONTINUOUS
 62
    30
 10
-64.0
 20
-284.95161150654531
 30
0.0
  0
LINE
  8
SIZE
  6
CONTINUOUS
 62
    30
 10
-255.02739099999999
 20
0.0
 30
0.0
 11
-399.71844486904769
 21
0.0
 31
0.0
  0
LINE
  8
SIZE
  6
CONTINUOUS
 62
    30
 10
-130.81427657169019
 20
18.0
 30
0.0
 11
-399.71844486904769
 21
18.0
 31
0.0
  0
LINE
  8
SIZE
  6
CONTINUOUS
 62
    30
 10
-379.71844486904769
 20
30.0
 30
0.0
 11
-379.71844486904769
 21
42.0
 31
0.0
  0
LINE
  8
SIZE
  6
CONTINUOUS
 62
    30
 10
-379.71844486904769
 20
-12.0
 30
0.0
 11
-379.71844486904769
 21
-156.28571428571419
 31
0.0
  0
LINE
  8
SIZE
  6
CONTINUOUS
 62
    30
 10
-379.71844486904769
 20
18.0
 30
0.0
 11
-379.71844486904769
 21
0.0
 31
0.0
  0
CIRCLE
  8
SIZE
  6
CONTINUOUS
 62
    30
 10
-379.71844486904769
 20
18.0
 30
0.0
 40
6.0
  0
LINE
  8
SIZE
  6
CONTINUOUS
 62
    30
 10
-379.71844486904769
 20
18.0
 30
0.0
 11
-379.71844486904769
 21
30.0
 31
0.0
  0
CIRCLE
  8
SIZE
  6
CONTINUOUS
 62
    30
 10
-379.71844486904769
 20
0.0
 30
0.0
 40
6.0
  0
LINE
  8
SIZE
  6
CONTINUOUS
 62
    30
 10
-379.71844486904769
 20
0.0
 30
0.0
 11
-379.71844486904769
 21
-12.0
 31
0.0
  0
TEXT
  8
SIZE
  6
CONTINUOUS
 62
    30
 10
-404.71844486904769
 20
-131.28571428571419
 30
0.0
 40
64.0
  1
18
 50
90.0
 41
0.9
 72
     1
 11
-404.71844486904769
 21
-90.14285714285711
 31
0.0
  0
POINT
  8
DEFPOINTS
  6
CONTINUOUS
 62
    30
 10
-235.02739099999999
 20
0.0
 30
0.0
  0
POINT
  8
DEFPOINTS
  6
CONTINUOUS
 62
    30
 10
-110.8142765716902
 20
18.0
 30
0.0
  0
POINT
  8
DEFPOINTS
  6
CONTINUOUS
 62
    30
 10
-379.71844486904769
 20
18.0
 30
0.0
  0
LINE
  8
SIZE
  6
CONTINUOUS
 62
    30
 10
-104.5
 20
8.0
 30
0.0
 11
-517.64215094487361
 21
8.0
 31
0.0
  0
LINE
  8
SIZE
  6
CONTINUOUS
 62
    30
 10
-104.5
 20
28.0
 30
0.0
 11
-517.64215094487361
 21
28.0
 31
0.0
  0
LINE
  8
SIZE
  6
CONTINUOUS
 62
    30
 10
-497.64215094487372
 20
40.0
 30
0.0
 11
-497.64215094487372
 21
52.0
 31
0.0
  0
LINE
  8
SIZE
  6
CONTINUOUS
 62
    30
 10
-497.64215094487372
 20
-4.0
 30
0.0
 11
-497.64215094487372
 21
-159.25714285714281
 31
0.0
  0
LINE
  8
SIZE
  6
CONTINUOUS
 62
    30
 10
-497.64215094487372
 20
28.0
 30
0.0
 11
-497.64215094487372
 21
8.0
 31
0.0
  0
CIRCLE
  8
SIZE
  6
CONTINUOUS
 62
    30
 10
-497.64215094487372
 20
28.0
 30
0.0
 40
6.0
  0
LINE
  8
SIZE
  6
CONTINUOUS
 62
    30
 10
-497.64215094487372
 20
28.0
 30
0.0
 11
-497.64215094487372
 21
40.0
 31
0.0
  0
CIRCLE
  8
SIZE
  6
CONTINUOUS
 62
    30
 10
-497.64215094487372
 20
8.0
 30
0.0
 40
6.0
  0
LINE
  8
SIZE
  6
CONTINUOUS
 62
    30
 10
-497.64215094487372
 20
8.0
 30
0.0
 11
-497.64215094487372
 21
-4.0
 31
0.0
  0
TEXT
  8
SIZE
  6
CONTINUOUS
 62
    30
 10
-522.64215094487361
 20
-134.25714285714281
 30
0.0
 40
64.0
  1
20
 50
90.0
 41
0.9
 72
     1
 11
-522.64215094487361
 21
-87.628571428571377
 31
0.0
  0
POINT
  8
DEFPOINTS
  6
CONTINUOUS
 62
    30
 10
-84.5
 20
8.0
 30
0.0
  0
POINT
  8
DEFPOINTS
  6
CONTINUOUS
 62
    30
 10
-84.5
 20
28.0
 30
0.0
  0
POINT
  8
DEFPOINTS
  6
CONTINUOUS
 62
    30
 10
-497.64215094487372
 20
28.0
 30
0.0
  0
LINE
  8
SIZE
  6
CONTINUOUS
 62
    30
 10
185.0
 20
237.00000000000011
 30
0.0
 11
861.79195905698361
 21
236.99999999999969
 31
0.0
  0
LINE
  8
SIZE
  6
CONTINUOUS
 62
    30
 10
255.0
 20
0.0
 30
0.0
 11
861.79195905698361
 21
-0.0000000000002274
 31
0.0
  0
LINE
  8
SIZE
  6
CONTINUOUS
 62
    30
 10
841.79195905698361
 20
224.99999999999969
 30
0.0
 11
841.79195905698361
 21
11.999999999999771
 31
0.0
  0
CIRCLE
  8
SIZE
  6
CONTINUOUS
 62
    30
 10
841.79195905698361
 20
236.99999999999969
 30
0.0
 40
6.0
  0
LINE
  8
SIZE
  6
CONTINUOUS
 62
    30
 10
841.79195905698361
 20
236.99999999999969
 30
0.0
 11
841.79195905698361
 21
224.99999999999969
 31
0.0
  0
CIRCLE
  8
SIZE
  6
CONTINUOUS
 62
    30
 10
841.79195905698361
 20
-0.0000000000002274
 30
0.0
 40
6.0
  0
LINE
  8
SIZE
  6
CONTINUOUS
 62
    30
 10
841.79195905698361
 20
-0.0000000000002274
 30
0.0
 11
841.79195905698361
 21
11.999999999999771
 31
0.0
  0
TEXT
  8
SIZE
  6
CONTINUOUS
 62
    30
 10
816.79195905698361
 20
44.44285714285725
 30
0.0
 40
64.0
  1
237
 50
90.0
 41
0.9
 72
     1
 11
816.79195905698361
 21
118.5000000000001
 31
0.0
  0
POINT
  8
DEFPOINTS
  6
CONTINUOUS
 62
    30
 10
165.0
 20
237.00000000000011
 30
0.0
  0
POINT
  8
DEFPOINTS
  6
CONTINUOUS
 62
    30
 10
235.0
 20
0.0
 30
0.0
  0
POINT
  8
DEFPOINTS
  6
CONTINUOUS
 62
    30
 10
841.79195905698361
 20
-0.0000000000002274
 30
0.0
  0
LINE
  8
SIZE
  6
CONTINUOUS
 62
    30
 10
-255.02739099999999
 20
0.0
 30
0.0
 11
-632.2459424025493
 21
0.0
 31
0.0
  0
LINE
  8
SIZE
  6
CONTINUOUS
 62
    30
 10
-298.0
 20
80.0
 30
0.0
 11
-632.2459424025493
 21
80.0
 31
0.0
  0
LINE
  8
SIZE
  6
CONTINUOUS
 62
    30
 10
-612.2459424025493
 20
68.0
 30
0.0
 11
-612.2459424025493
 21
12.0
 31
0.0
  0
LINE
  8
SIZE
  6
CONTINUOUS
 62
    30
 10
-612.2459424025493
 20
0.0
 30
0.0
 11
-612.2459424025493
 21
-155.25714285714281
 31
0.0
  0
CIRCLE
  8
SIZE
  6
CONTINUOUS
 62
    30
 10
-612.2459424025493
 20
80.0
 30
0.0
 40
6.0
  0
LINE
  8
SIZE
  6
CONTINUOUS
 62
    30
 10
-612.2459424025493
 20
80.0
 30
0.0
 11
-612.2459424025493
 21
68.0
 31
0.0
  0
CIRCLE
  8
SIZE
  6
CONTINUOUS
 62
    30
 10
-612.2459424025493
 20
0.0
 30
0.0
 40
6.0
  0
LINE
  8
SIZE
  6
CONTINUOUS
 62
    30
 10
-612.2459424025493
 20
0.0
 30
0.0
 11
-612.2459424025493
 21
12.0
 31
0.0
  0
TEXT
  8
SIZE
  6
CONTINUOUS
 62
    30
 10
-637.2459424025493
 20
-130.25714285714281
 30
0.0
 40
64.0
  1
80
 50
90.0
 41
0.9
 72
     1
 11
-637.2459424025493
 21
-83.628571428571377
 31
0.0
  0
POINT
  8
DEFPOINTS
  6
CONTINUOUS
 62
    30
 10
-235.02739099999999
 20
0.0
 30
0.0
  0
POINT
  8
DEFPOINTS
  6
CONTINUOUS
 62
    30
 10
-278.0
 20
80.0
 30
0.0
  0
POINT
  8
DEFPOINTS
  6
CONTINUOUS
 62
    30
 10
-612.2459424025493
 20
80.0
 30
0.0
  0
ARC
  8
DETAIL
  6
CONTINUOUS
 62
     5
 10
191.45001026652179
 20
228.70038003824601
 30
0.0
 40
1.249999994879931
 50
0.0
 51
90.0
  0
LINE
  8
DETAIL
  6
CONTINUOUS
 62
     5
 10
192.70001026140179
 20
223.25028240431979
 30
0.0
 11
192.70001026140179
 21
228.70038003824601
 31
0.0
  0
ARC
  8
DETAIL
  6
CONTINUOUS
 62
     5
 10
192.10000109070441
 20
221.1002824131252
 30
0.0
 40
0.8999999963134563
 50
0.0
 51
90.0
  0
ARC
  8
DETAIL
  6
CONTINUOUS
 62
     5
 10
191.45001026652179
 20
223.25028240431979
 30
0.0
 40
1.249999994879931
 50
270.0
 51
0.0
  0
LINE
  8
DETAIL
  6
CONTINUOUS
 62
     5
 10
191.4674953190947
 20
229.95025773631701
 30
0.0
 11
-188.00000110749809
 21
229.95025773631701
 31
0.0
  0
LINE
  8
DETAIL
  6
CONTINUOUS
 62
     5
 10
-188.00000110749809
 20
222.00028240943979
 30
0.0
 11
191.45001026652179
 21
222.00028240943979
 31
0.0
  0
ARC
  8
DETAIL
  6
CONTINUOUS
 62
     5
 10
-193.4500010851751
 20
1.050097651949272
 30
0.0
 40
0.4499999981565501
 50
270.0
 51
0.0
  0
LINE
  8
DETAIL
  6
CONTINUOUS
 62
     5
 10
-193.00000108701849
 20
1.050097651949272
 30
0.0
 11
-193.00000108701849
 21
1.7000972754199211
 31
0.0
  0
ARC
  8
DETAIL
  6
CONTINUOUS
 62
     5
 10
193.45000108517519
 20
1.050097651949272
 30
0.0
 40
0.4499999981569062
 50
180.0
 51
270.0
  0
ARC
  8
DETAIL
  6
CONTINUOUS
 62
     5
 10
193.45000108517519
 20
1.050097651949272
 30
0.0
 40
0.4499999981569062
 50
180.0
 51
270.0
  0
LINE
  8
DETAIL
  6
CONTINUOUS
 62
     5
 10
193.00000108701809
 20
1.050097651949272
 30
0.0
 11
193.00000108700809
 21
221.1002824131252
 31
0.0
  0
ARC
  8
DETAIL
  6
CONTINUOUS
 62
     5
 10
-235.99987283604611
 20
-1.5999999959043409
 30
0.0
 40
0.9999999959039813
 50
0.0
 51
90.0
  0
LINE
  8
DETAIL
  6
CONTINUOUS
 62
     5
 10
-236.99987283194989
 20
0.00009765379275
 30
0.0
 11
-236.99987283194989
 21
-0.6000000000000227
 31
0.0
  0
LINE
  8
DETAIL
  6
CONTINUOUS
 62
     5
 10
-236.99987283194989
 20
-0.6000000000000227
 30
0.0
 11
-235.99987283604611
 21
-0.6000000000000227
 31
0.0
  0
LINE
  8
DETAIL
  6
CONTINUOUS
 62
     5
 10
-234.99987284014199
 20
-1.5999999959043409
 30
0.0
 11
-234.99987284014199
 21
-6.9676757551677611
 31
0.0
  0
ARC
  8
DETAIL
  6
CONTINUOUS
 62
     5
 10
-232.99987284833381
 20
-6.9676757551677611
 30
0.0
 40
1.999999991808044
 50
180.000000683243
 51
245.68368962920829
  0
ARC
  8
DETAIL
  6
CONTINUOUS
 62
     5
 10
-204.999872963022
 20
55.000097428512959
 30
0.0
 40
69.99999971327999
 50
245.6842360443508
 51
270.0
  0
LINE
  8
DETAIL
  6
CONTINUOUS
 62
     5
 10
237.00012522654629
 20
0.00009765379275
 30
0.0
 11
237.00012522654629
 21
-0.6000000000000227
 31
0.0
  0
ARC
  8
DETAIL
  6
CONTINUOUS
 62
     5
 10
236.000125230642
 20
-1.5999999959043409
 30
0.0
 40
0.9999999959039813
 50
90.0
 51
180.0
  0
LINE
  8
DETAIL
  6
CONTINUOUS
 62
     5
 10
237.00012522654629
 20
-0.6000000000000227
 30
0.0
 11
-236.99987283194989
 21
-0.6000000000000227
 31
0.0
  0
LINE
  8
DETAIL
  6
CONTINUOUS
 62
     5
 10
237.00012522654629
 20
0.00009765379275
 30
0.0
 11
-236.99987283194989
 21
0.00009765379275
 31
0.0
  0
LINE
  8
DETAIL
  6
CONTINUOUS
 62
     5
 10
235.00012523473791
 20
-1.5999999959043409
 30
0.0
 11
235.00012523473791
 21
-6.9676757551677611
 31
0.0
  0
ARC
  8
DETAIL
  6
CONTINUOUS
 62
     5
 10
233.00012524293041
 20
-6.9676757551677611
 30
0.0
 40
1.9999999918080129
 50
294.31627599248702
 51
0.0000366554210658
  0
ARC
  8
DETAIL
  6
CONTINUOUS
 62
     5
 10
205.00012535761829
 20
55.000097428512959
 30
0.0
 40
69.999999713279905
 50
269.99992805565688
 51
294.31567470846812
  0
LINE
  8
DETAIL
  6
CONTINUOUS
 62
     5
 10
-204.999872963022
 20
-14.999902284767931
 30
0.0
 11
205.00012535761829
 21
-14.999902284767931
 31
0.0
  0
LINE
  8
DETAIL
  6
CONTINUOUS
 62
     5
 10
-193.00000108701849
 20
1.7000972754199211
 30
0.0
 11
-193.00000108701849
 21
3.600067875196828
 31
0.0
  0
ARC
  8
DETAIL
  6
CONTINUOUS
 62
     5
 10
-194.10000108251259
 20
1.7000972754199211
 30
0.0
 40
1.0999999954942381
 50
270.0
 51
0.0
  0
ARC
  8
DETAIL
  6
CONTINUOUS
 62
     5
 10
-194.10000108251259
 20
1.7000972754199211
 30
0.0
 40
0.5999999975422439
 50
270.0
 51
0.0
  0
LINE
  8
DETAIL
  6
CONTINUOUS
 62
     5
 10
-194.00000108292221
 20
69.85006760383726
 30
0.0
 11
-193.50000108497011
 21
69.85006760383726
 31
0.0
  0
ARC
  8
DETAIL
  6
CONTINUOUS
 62
     5
 10
-197.0000010706344
 20
79.100067565948621
 30
0.0
 40
2.999999987712024
 50
0.0
 51
90.0
  0
ARC
  8
DETAIL
  6
CONTINUOUS
 62
     5
 10
-298.24339407695152
 20
89.421066689632653
 30
0.0
 40
41.768550030783047
 50
359.9995846481101
 51
25.03817245305293
  0
ARC
  8
DETAIL
  6
CONTINUOUS
 62
     5
 10
-268.50000077777031
 20
85.100067541372709
 30
0.0
 40
2.999999987712024
 50
242.95956972600541
 51
270.0
  0
LINE
  8
DETAIL
  6
CONTINUOUS
 62
     5
 10
-197.0000010706344
 20
82.100067553661347
 30
0.0
 11
-268.50000077777031
 21
82.100067553661347
 31
0.0
  0
ARC
  8
DETAIL
  6
CONTINUOUS
 62
     5
 10
-265.26475639210821
 20
89.420827618978137
 30
0.0
 40
8.7899123450733576
 50
303.60385331640549
 51
359.9995846481101
  0
LINE
  8
DETAIL
  6
CONTINUOUS
 62
     5
 10
-276.308537813155
 20
85.717468356474228
 30
0.0
 11
-269.86385812543273
 21
82.428009708634136
 31
0.0
  0
ARC
  8
DETAIL
  6
CONTINUOUS
 62
     5
 10
-277.89970471876131
 20
82.60006755161271
 30
0.0
 40
3.4999999856640129
 50
62.95956972600537
 51
90.0
  0
LINE
  8
DETAIL
  6
CONTINUOUS
 62
     5
 10
-302.86388079358312
 20
86.100067537276345
 30
0.0
 11
-277.89970471876131
 21
86.100067537276345
 31
0.0
  0
ARC
  8
DETAIL
  6
CONTINUOUS
 62
     5
 10
-302.86388079358312
 20
88.600067527037254
 30
0.0
 40
2.499999989759945
 50
224.99999999999079
 51
270.0
  0
ARC
  8
DETAIL
  6
CONTINUOUS
 62
     5
 10
-308.72813171723419
 20
88.100357446074895
 30
0.0
 40
1.999999991808044
 50
44.999999999990777
 51
90.0
  0
LINE
  8
DETAIL
  6
CONTINUOUS
 62
     5
 10
-307.31391816065371
 20
89.514571002656112
 30
0.0
 11
-304.63164773930839
 21
86.832300581310619
 31
0.0
  0
ARC
  8
DETAIL
  6
CONTINUOUS
 62
     5
 10
-334.3997044873372
 20
90.600357435836258
 30
0.0
 40
0.4999999979519875
 50
180.0
 51
270.0
  0
LINE
  8
DETAIL
  6
CONTINUOUS
 62
     5
 10
-308.72813171723419
 20
90.100357437883531
 30
0.0
 11
-334.3997044873372
 21
90.100357437883531
 31
0.0
  0
ARC
  8
DETAIL
  6
CONTINUOUS
 62
     5
 10
-142.65809880389219
 20
162.0979163095669
 30
0.0
 40
129.95421658996369
 50
154.96097179773929
 51
205.03817245305291
  0
LINE
  8
DETAIL
  6
CONTINUOUS
 62
     5
 10
-334.89970448528948
 20
233.5997770161251
 30
0.0
 11
-334.89970448528948
 21
90.600357435836258
 31
0.0
  0
ARC
  8
DETAIL
  6
CONTINUOUS
 62
     5
 10
-334.3997044873372
 20
233.5997770161251
 30
0.0
 40
0.4999999979519875
 50
90.0
 51
180.0
  0
ARC
  8
DETAIL
  6
CONTINUOUS
 62
     5
 10
-302.86388079358312
 20
235.60006692492411
 30
0.0
 40
2.499999989759806
 50
90.0
 51
135.00000000000921
  0
LINE
  8
DETAIL
  6
CONTINUOUS
 62
     5
 10
-308.72813171723419
 20
234.0997770140772
 30
0.0
 11
-334.3997044873372
 21
234.0997770140772
 31
0.0
  0
ARC
  8
DETAIL
  6
CONTINUOUS
 62
     5
 10
-308.72813171723419
 20
236.0997770058863
 30
0.0
 40
1.9999999918080069
 50
270.0
 51
315.00000000000921
  0
LINE
  8
DETAIL
  6
CONTINUOUS
 62
     5
 10
-307.31391816065371
 20
234.68556344930511
 30
0.0
 11
-304.63164773930839
 21
237.36783387065029
 31
0.0
  0
LINE
  8
DETAIL
  6
CONTINUOUS
 62
     5
 10
-303.89941469527412
 20
237.3111103217087
 30
0.0
 11
-303.89941469527412
 21
86.88902413025221
 31
0.0
  0
LINE
  8
DETAIL
  6
CONTINUOUS
 62
     5
 10
-307.89970459588147
 20
233.74102554517421
 30
0.0
 11
-307.89970459588147
 21
90.459108906786014
 31
0.0
  0
ARC
  8
DETAIL
  6
CONTINUOUS
 62
     5
 10
-277.89970471876131
 20
241.600066900348
 30
0.0
 40
3.4999999856640631
 50
270.0
 51
297.04043027399462
  0
LINE
  8
DETAIL
  6
CONTINUOUS
 62
     5
 10
-302.86388079358312
 20
238.1000669146853
 30
0.0
 11
-277.89970471876131
 21
238.1000669146853
 31
0.0
  0
LINE
  8
DETAIL
  6
CONTINUOUS
 62
     5
 10
-277.89970471876131
 20
238.1000669146853
 30
0.0
 11
-277.89970471876131
 21
86.600067535229073
 31
0.0
  0
LINE
  8
DETAIL
  6
CONTINUOUS
 62
     5
 10
-276.308537813155
 20
238.48266609548651
 30
0.0
 11
-269.86385812543273
 21
241.77212474332731
 31
0.0
  0
ARC
  8
DETAIL
  6
CONTINUOUS
 62
     5
 10
-268.50000077777031
 20
239.10006691058851
 30
0.0
 40
2.999999987712
 50
90.0
 51
117.0404302739946
  0
ARC
  8
DETAIL
  6
CONTINUOUS
 62
     5
 10
-265.26370266882441
 20
234.77684530558841
 30
0.0
 40
8.7899123450733825
 50
359.9995846481101
 51
56.395315979830649
  0
ARC
  8
DETAIL
  6
CONTINUOUS
 62
     5
 10
-298.24234035366732
 20
234.7770843762431
 30
0.0
 40
41.768550030783047
 50
334.96099684316857
 51
359.9995846481101
  0
LINE
  8
DETAIL
  6
CONTINUOUS
 62
     5
 10
-197.0000010706344
 20
242.10006689829979
 30
0.0
 11
-268.50000077777031
 21
242.10006689829979
 31
0.0
  0
ARC
  8
DETAIL
  6
CONTINUOUS
 62
     5
 10
-197.0000010706344
 20
245.1000668860128
 30
0.0
 40
2.999999987711937
 50
270.0
 51
0.0
  0
LINE
  8
DETAIL
  6
CONTINUOUS
 62
     5
 10
-194.00000108292221
 20
254.3500668481241
 30
0.0
 11
-194.00000108292221
 21
69.85006760383726
 31
0.0
  0
LINE
  8
DETAIL
  6
CONTINUOUS
 62
     5
 10
-194.00000108292221
 20
254.3500668481241
 30
0.0
 11
-193.50000108497011
 21
254.3500668481241
 31
0.0
  0
LINE
  8
DETAIL
  6
CONTINUOUS
 62
     5
 10
-192.3000010898854
 20
82.100067553661347
 30
0.0
 11
-192.3000010898854
 21
231.99947184689941
 31
0.0
  0
LINE
  8
DETAIL
  6
CONTINUOUS
 62
     5
 10
-193.00000108701809
 20
82.100067553661347
 30
0.0
 11
-193.00000108701809
 21
79.100067565948621
 31
0.0
  0
LINE
  8
DETAIL
  6
CONTINUOUS
 62
     5
 10
-193.00000108701809
 20
255.60006684300319
 30
0.0
 11
-193.00000108701809
 21
231.99947184689941
 31
0.0
  0
ARC
  8
DETAIL
  6
CONTINUOUS
 62
     5
 10
-189.7503978288444
 20
230.24947185406731
 30
0.0
 40
1.7499999928320069
 50
0.0
 51
90.0
  0
LINE
  8
DETAIL
  6
CONTINUOUS
 62
     5
 10
-193.50000108497011
 20
231.99947184689941
 30
0.0
 11
-189.7503978288444
 21
231.99947184689941
 31
0.0
  0
ARC
  8
DETAIL
  6
CONTINUOUS
 62
     5
 10
-191.90000109152379
 20
233.59947184034459
 30
0.0
 40
1.0999999954943249
 50
180.0
 51
270.0
  0
ARC
  8
DETAIL
  6
CONTINUOUS
 62
     5
 10
-191.90000109152379
 20
233.59947184034459
 30
0.0
 40
1.5999999934463129
 50
226.56746344221119
 51
270.0
  0
LINE
  8
DETAIL
  6
CONTINUOUS
 62
     5
 10
-191.90000109152379
 20
232.4994718448514
 30
0.0
 11
-189.7503978288444
 21
232.4994718448514
 31
0.0
  0
ARC
  8
DETAIL
  6
CONTINUOUS
 62
     5
 10
-189.7503978288444
 20
230.24947185406731
 30
0.0
 40
2.2499999907839929
 50
0.0
 51
90.0
  0
LINE
  8
DETAIL
  6
CONTINUOUS
 62
     5
 10
-187.50039783806031
 20
230.24947185406731
 30
0.0
 11
-187.50039783806031
 21
229.95025773631701
 31
0.0
  0
ARC
  8
DETAIL
  6
CONTINUOUS
 62
     5
 10
-193.00000108701809
 20
255.60006684300319
 30
0.0
 40
0.4999999979520813
 50
0.0
 51
90.0
  0
ARC
  8
DETAIL
  6
CONTINUOUS
 62
     5
 10
-193.00000108701809
 20
255.60006684300319
 30
0.0
 40
0.4999999979519875
 50
90.0
 51
180.0
  0
LINE
  8
DETAIL
  6
CONTINUOUS
 62
     5
 10
-192.50000108906599
 20
255.60006684300319
 30
0.0
 11
-192.50000108906599
 21
253.10006685324339
 31
0.0
  0
LINE
  8
DETAIL
  6
CONTINUOUS
 62
     5
 10
-193.00000108701809
 20
253.10006685324339
 30
0.0
 11
-192.50000108906599
 21
253.10006685324339
 31
0.0
  0
ARC
  8
DETAIL
  6
CONTINUOUS
 62
     5
 10
-225.45180299541769
 20
143.7073240551023
 30
0.0
 40
4.9999999795200063
 50
17.00000000000227
 51
39.899999999996922
  0
LINE
  8
DETAIL
  6
CONTINUOUS
 62
     5
 10
-209.3513394513925
 20
148.20586338338831
 30
0.0
 11
-208.94880292975449
 21
140.52500899220809
 31
0.0
  0
ARC
  8
DETAIL
  6
CONTINUOUS
 62
     5
 10
-222.05134896200789
 20
155.23011518396581
 30
0.0
 40
4.9999999795199246
 50
53.899999999985717
 51
219.89999999999691
  0
LINE
  8
DETAIL
  6
CONTINUOUS
 62
     5
 10
-221.61597725205229
 20
146.91457219981041
 30
0.0
 11
-225.8871747053727
 21
152.02286703925731
 31
0.0
  0
LINE
  8
DETAIL
  6
CONTINUOUS
 62
     5
 10
-212.89079768802571
 20
154.73832256331869
 30
0.0
 11
-219.10536718730771
 21
159.27006458690829
 31
0.0
  0
ARC
  8
DETAIL
  6
CONTINUOUS
 62
     5
 10
-215.50000099485871
 20
149.09947218645789
 30
0.0
 40
4.2499999825919366
 50
343.54912784402609
 51
73.350872155981023
  0
LINE
  8
DETAIL
  6
CONTINUOUS
 62
     5
 10
-214.28233363195571
 20
153.17130052829069
 30
0.0
 11
-212.94720003344079
 21
153.8947110360493
 31
0.0
  0
LINE
  8
DETAIL
  6
CONTINUOUS
 62
     5
 10
-211.42398364729519
 20
147.89590148458981
 30
0.0
 11
-210.08885004878039
 21
148.6193119923494
 31
0.0
  0
ARC
  8
DETAIL
  6
CONTINUOUS
 62
     5
 10
-209.85065421672519
 20
148.17969540537359
 30
0.0
 40
0.4999999979519187
 50
2.99999999998608
 51
118.4499999999929
  0
ARC
  8
DETAIL
  6
CONTINUOUS
 62
     5
 10
-213.18539586549559
 20
154.33432762302459
 30
0.0
 40
0.4999999979519001
 50
298.44999999999288
 51
53.899999999985717
  0
ARC
  8
DETAIL
  6
CONTINUOUS
 62
     5
 10
-213.94195058307511
 20
140.2633292120656
 30
0.0
 40
4.9999999795200569
 50
197.00000000000219
 51
2.9999999999990901
  0
LINE
  8
DETAIL
  6
CONTINUOUS
 62
     5
 10
-220.67027923518731
 20
145.16918257272781
 30
0.0
 11
-218.7234743433055
 21
138.801470694438
 31
0.0
  0
ARC
  8
DETAIL
  6
CONTINUOUS
 62
     5
 10
-230.45180297493741
 20
208.70732378886231
 30
0.0
 40
4.9999999795201191
 50
17.00000000000227
 51
39.899999999996922
  0
LINE
  8
DETAIL
  6
CONTINUOUS
 62
     5
 10
-214.3513394309127
 20
213.2058631171482
 30
0.0
 11
-213.94880290927469
 21
205.5250087259675
 31
0.0
  0
ARC
  8
DETAIL
  6
CONTINUOUS
 62
     5
 10
-227.05134894152761
 20
220.2301149177259
 30
0.0
 40
4.9999999795200356
 50
53.899999999985717
 51
219.89999999999691
  0
LINE
  8
DETAIL
  6
CONTINUOUS
 62
     5
 10
-226.61597723157229
 20
211.91457193356979
 30
0.0
 11
-230.88717468489239
 21
217.02286677301669
 31
0.0
  0
LINE
  8
DETAIL
  6
CONTINUOUS
 62
     5
 10
-217.89079766754571
 20
219.7383222970785
 30
0.0
 11
-224.10536716682739
 21
224.27006432066841
 31
0.0
  0
ARC
  8
DETAIL
  6
CONTINUOUS
 62
     5
 10
-220.50000097437851
 20
214.09947192021781
 30
0.0
 40
4.2499999825920174
 50
343.54912784402609
 51
73.350872155981023
  0
LINE
  8
DETAIL
  6
CONTINUOUS
 62
     5
 10
-219.28233361147591
 20
218.1713002620501
 30
0.0
 11
-217.94720001296059
 21
218.89471076981059
 31
0.0
  0
LINE
  8
DETAIL
  6
CONTINUOUS
 62
     5
 10
-216.42398362681519
 20
212.8959012183503
 30
0.0
 11
-215.0888500282999
 21
213.6193117261088
 31
0.0
  0
ARC
  8
DETAIL
  6
CONTINUOUS
 62
     5
 10
-214.85065419624519
 20
213.179695139134
 30
0.0
 40
0.4999999979519939
 50
3.0000000000055942
 51
118.4499999999929
  0
ARC
  8
DETAIL
  6
CONTINUOUS
 62
     5
 10
-218.18539584501559
 20
219.33432735678451
 30
0.0
 40
0.4999999979519187
 50
298.44999999999288
 51
53.900000000018302
  0
ARC
  8
DETAIL
  6
CONTINUOUS
 62
     5
 10
-218.94195056259539
 20
205.2633289458241
 30
0.0
 40
4.999999979519969
 50
197.00000000000219
 51
2.9999999999990901
  0
LINE
  8
DETAIL
  6
CONTINUOUS
 62
     5
 10
-225.67027921470751
 20
210.16918230648739
 30
0.0
 11
-223.7234743228255
 21
203.80147042819871
 31
0.0
  0
ARC
  8
DETAIL
  6
CONTINUOUS
 62
     5
 10
-181.00000113617011
 20
6.6000678629088716
 30
0.0
 40
2.9999999877118131
 50
270.0
 51
359.99992805564392
  0
ARC
  8
DETAIL
  6
CONTINUOUS
 62
     5
 10
-181.00000113617011
 20
76.100067578236803
 30
0.0
 40
2.9999999877119929
 50
0.0
 51
90.0
  0
ARC
  8
DETAIL
  6
CONTINUOUS
 62
     5
 10
-191.00000109521031
 20
85.100067541372709
 30
0.0
 40
2.9999999877119929
 50
270.0
 51
359.99992805564392
  0
LINE
  8
DETAIL
  6
CONTINUOUS
 62
     5
 10
-188.00000110749809
 20
230.24947185406731
 30
0.0
 11
-188.00000110749809
 21
85.100067541372709
 31
0.0
  0
LINE
  8
DETAIL
  6
CONTINUOUS
 62
     5
 10
-193.50000108497011
 20
82.100067553661347
 30
0.0
 11
-191.00000109521031
 21
82.100067553661347
 31
0.0
  0
LINE
  8
DETAIL
  6
CONTINUOUS
 62
     5
 10
-193.50000108497011
 20
79.100067565948621
 30
0.0
 11
-181.00000113617011
 21
79.100067565948621
 31
0.0
  0
LINE
  8
DETAIL
  6
CONTINUOUS
 62
     5
 10
-178.00000114845849
 20
76.100067578236803
 30
0.0
 11
-178.00000114845849
 21
6.6000678629088716
 31
0.0
  0
LINE
  8
DETAIL
  6
CONTINUOUS
 62
     5
 10
-193.50000108497079
 20
3.600067875196828
 30
0.0
 11
-181.00000113617011
 21
3.600067875196828
 31
0.0
  0
LINE
  8
DETAIL
  6
CONTINUOUS
 62
     5
 10
-194.10000070864569
 20
0.6000972799249666
 30
0.0
 11
-215.99477697185691
 21
0.6000898383456388
 31
0.0
  0
ARC
  8
DETAIL
  6
CONTINUOUS
 62
     5
 10
-194.49998582208539
 20
24.13525455866284
 30
0.0
 40
0.9999999959038812
 50
303.69031857569342
 51
359.99992805563733
  0
ARC
  8
DETAIL
  6
CONTINUOUS
 62
     5
 10
-193.4999858261815
 20
19.994538022888719
 30
0.0
 40
2.9999999877119188
 50
123.6899174157432
 51
180.0000186693353
  0
LINE
  8
DETAIL
  6
CONTINUOUS
 62
     5
 10
-196.50000107268221
 20
19.994538022888719
 30
0.0
 11
-196.50000107268221
 21
17.205673898569099
 31
0.0
  0
LINE
  8
DETAIL
  6
CONTINUOUS
 62
     5
 10
-195.16413523445681
 20
14.709535369164771
 30
0.0
 11
-193.94527252662601
 21
13.8969347636978
 31
0.0
  0
LINE
  8
DETAIL
  6
CONTINUOUS
 62
     5
 10
-195.1640737190601
 20
22.490673724232689
 30
0.0
 11
-193.94528111154821
 21
23.303186879309582
 31
0.0
  0
ARC
  8
DETAIL
  6
CONTINUOUS
 62
     5
 10
-194.49998582208539
 20
24.13525455866284
 30
0.0
 40
0.9999999959038812
 50
303.69031857569342
 51
359.99992805563733
  0
ARC
  8
DETAIL
  6
CONTINUOUS
 62
     5
 10
-193.4999858261815
 20
17.205673898569099
 30
0.0
 40
2.9999999877120129
 50
180.0000186693353
 51
236.30891780963239
  0
ARC
  8
DETAIL
  6
CONTINUOUS
 62
     5
 10
-194.49998582208539
 20
13.064881068849671
 30
0.0
 40
0.9999999959039438
 50
0.0
 51
56.308943536508302
  0
LINE
  8
DETAIL
  6
CONTINUOUS
 62
     5
 10
-193.50000108497079
 20
1.7000972754199211
 30
0.0
 11
-193.50000108497011
 21
255.60006684300319
 31
0.0
  0
ARC
  8
DETAIL
  6
CONTINUOUS
 62
     5
 10
-215.9947771417969
 20
1.100089836297002
 30
0.0
 40
0.499999997952
 50
90.0
 51
179.00000000000469
  0
ARC
  8
DETAIL
  6
CONTINUOUS
 62
     5
 10
-215.9947771417969
 20
1.100089836297002
 30
0.0
 40
0.4999999979520187
 50
179.00000000000469
 51
270.0
  0
LINE
  8
DETAIL
  6
CONTINUOUS
 62
     5
 10
-213.48566878461449
 20
1.6000906870431211
 30
0.0
 11
-213.4943963170947
 21
1.100090686124076
 31
0.0
  0
LINE
  8
DETAIL
  6
CONTINUOUS
 62
     5
 10
-213.48566878461449
 20
1.6000906870431211
 30
0.0
 11
-215.99477731173599
 21
1.6000898342497289
 31
0.0
  0
LINE
  8
DETAIL
  6
CONTINUOUS
 62
     5
 10
-194.1000008785854
 20
1.1000972778776941
 30
0.0
 11
-215.9947771417969
 21
1.100089836297002
 31
0.0
  0
ARC
  8
DETAIL
  6
CONTINUOUS
 62
     5
 10
47.199999806668302
 20
260.20009659047048
 30
0.0
 40
5.5999999770624056
 50
0.0
 51
90.0
  0
ARC
  8
DETAIL
  6
CONTINUOUS
 62
     5
 10
-39.799999836978706
 20
260.20009659047048
 30
0.0
 40
5.5999999770624944
 50
90.0
 51
180.0
  0
LINE
  8
DETAIL
  6
CONTINUOUS
 62
     5
 10
47.199999806668302
 20
265.80009656753361
 30
0.0
 11
-39.799999836978706
 21
265.80009656753361
 31
0.0
  0
LINE
  8
DETAIL
  6
CONTINUOUS
 62
     5
 10
52.799999783730527
 20
229.95025773631701
 30
0.0
 11
52.799999783730527
 21
260.20009659047048
 31
0.0
  0
LINE
  8
DETAIL
  6
CONTINUOUS
 62
     5
 10
-45.399999814041621
 20
229.95025773631701
 30
0.0
 11
-45.399999814041621
 21
260.20009659047048
 31
0.0
  0
LINE
  8
0
  6
CONTINUOUS
 62
     7
 10
-157.0
 20
243.29308856821049
 30
0.0
 11
-157.0
 21
276.58025008471128
 31
0.0
  0
LINE
  8
SIZE
  6
CONTINUOUS
 62
    30
 10
-130.0
 20
278.00000000000011
 30
0.0
 11
-130.0
 21
528.8102540000001
 31
0.0
  0
LINE
  8
SIZE
  6
CONTINUOUS
 62
    30
 10
0.0
 20
348.47680999999977
 30
0.0
 11
0.0
 21
528.8102540000001
 31
0.0
  0
LINE
  8
SIZE
  6
CONTINUOUS
 62
    30
 10
-12.0
 20
508.81025399999987
 30
0.0
 11
-118.0
 21
508.81025399999987
 31
0.0
  0
LINE
  8
SIZE
  6
CONTINUOUS
 62
    30
 10
-130.0
 20
508.81025399999987
 30
0.0
 11
-572.09317889815168
 21
508.81025399999987
 31
0.0
  0
CIRCLE
  8
SIZE
  6
CONTINUOUS
 62
    30
 10
0.0
 20
508.81025399999987
 30
0.0
 40
6.0
  0
LINE
  8
SIZE
  6
CONTINUOUS
 62
    30
 10
0.0
 20
508.81025399999987
 30
0.0
 11
-12.0
 21
508.81025399999987
 31
0.0
  0
CIRCLE
  8
SIZE
  6
CONTINUOUS
 62
    30
 10
-130.0
 20
508.81025399999987
 30
0.0
 40
6.0
  0
LINE
  8
SIZE
  6
CONTINUOUS
 62
    30
 10
-130.0
 20
508.81025399999987
 30
0.0
 11
-118.0
 21
508.81025399999987
 31
0.0
  0
TEXT
  8
SIZE
  6
CONTINUOUS
 62
    30
 10
-547.09317889815168
 20
533.8102540000001
 30
0.0
 40
64.0
  1
130
 41
0.9
 72
     1
 11
-478.52175032672312
 21
533.8102540000001
 31
0.0
  0
POINT
  8
DEFPOINTS
  6
CONTINUOUS
 62
    30
 10
-130.0
 20
258.00000000000011
 30
0.0
  0
POINT
  8
DEFPOINTS
  6
CONTINUOUS
 62
    30
 10
0.0
 20
328.47680999999977
 30
0.0
  0
POINT
  8
DEFPOINTS
  6
CONTINUOUS
 62
    30
 10
0.0
 20
508.81025399999987
 30
0.0
  0
LINE
  8
DETAIL
  6
CONTINUOUS
 62
     5
 10
105.0
 20
233.50000000000011
 30
0.0
 11
155.0
 21
233.50000000000011
 31
0.0
  0
LINE
  8
DETAIL
  6
CONTINUOUS
 62
     5
 10
45.0
 20
237.00000000000011
 30
0.0
 11
95.0
 21
237.00000000000011
 31
0.0
  0
LINE
  8
DETAIL
  6
CONTINUOUS
 62
     5
 10
105.0
 20
237.00000000000011
 30
0.0
 11
155.0
 21
237.00000000000011
 31
0.0
  0
LINE
  8
NOTE
  6
CONTINUOUS
 62
     4
 10
130.0
 20
218.00000000000011
 30
0.0
 11
130.0
 21
258.00000000000011
 31
0.0
  0
CIRCLE
  8
FIX
  6
CONTINUOUS
 62
    11
 10
130.0
 20
237.00000000000011
 30
0.0
 40
6.0
  0
LINE
  8
NOTE
  6
CONTINUOUS
 62
     4
 10
90.0
 20
237.00000000000011
 30
0.0
 11
50.0
 21
237.00000000000011
 31
0.0
  0
LINE
  8
DETAIL
  6
CONTINUOUS
 62
     5
 10
105.0
 20
230.00000000000011
 30
0.0
 11
105.0
 21
237.00000000000011
 31
0.0
  0
LINE
  8
DETAIL
  6
CONTINUOUS
 62
     5
 10
155.0
 20
230.00000000000011
 30
0.0
 11
155.0
 21
237.00000000000011
 31
0.0
  0
LINE
  8
SIZE
  6
CONTINUOUS
 62
    30
 10
70.0
 20
278.00000000000011
 30
0.0
 11
70.0
 21
528.8102540000001
 31
0.0
  0
LINE
  8
SIZE
  6
CONTINUOUS
 62
    30
 10
0.0
 20
348.47680999999977
 30
0.0
 11
0.0
 21
528.8102540000001
 31
0.0
  0
LINE
  8
SIZE
  6
CONTINUOUS
 62
    30
 10
-12.0
 20
508.81025399999987
 30
0.0
 11
-24.0
 21
508.81025399999987
 31
0.0
  0
LINE
  8
SIZE
  6
CONTINUOUS
 62
    30
 10
82.0
 20
508.81025399999987
 30
0.0
 11
331.76477836770027
 21
508.81025399999987
 31
0.0
  0
LINE
  8
SIZE
  6
CONTINUOUS
 62
    30
 10
0.0
 20
508.81025399999987
 30
0.0
 11
70.0
 21
508.81025399999987
 31
0.0
  0
CIRCLE
  8
SIZE
  6
CONTINUOUS
 62
    30
 10
0.0
 20
508.81025399999987
 30
0.0
 40
6.0
  0
LINE
  8
SIZE
  6
CONTINUOUS
 62
    30
 10
0.0
 20
508.81025399999987
 30
0.0
 11
-12.0
 21
508.81025399999987
 31
0.0
  0
CIRCLE
  8
SIZE
  6
CONTINUOUS
 62
    30
 10
70.0
 20
508.81025399999987
 30
0.0
 40
6.0
  0
LINE
  8
SIZE
  6
CONTINUOUS
 62
    30
 10
70.0
 20
508.81025399999987
 30
0.0
 11
82.0
 21
508.81025399999987
 31
0.0
  0
TEXT
  8
SIZE
  6
CONTINUOUS
 62
    30
 10
213.50763551055749
 20
533.8102540000001
 30
0.0
 40
64.0
  1
70
 41
0.9
 72
     1
 11
260.1362069391289
 21
533.8102540000001
 31
0.0
  0
POINT
  8
DEFPOINTS
  6
CONTINUOUS
 62
    30
 10
70.0
 20
258.00000000000011
 30
0.0
  0
POINT
  8
DEFPOINTS
  6
CONTINUOUS
 62
    30
 10
0.0
 20
328.47680999999977
 30
0.0
  0
POINT
  8
DEFPOINTS
  6
CONTINUOUS
 62
    30
 10
0.0
 20
508.81025399999987
 30
0.0
  0
LINE
  8
SIZE
  6
CONTINUOUS
 62
    30
 10
67.199999806668302
 20
265.80009656753361
 30
0.0
 11
1003.464753872662
 21
265.80009656753322
 31
0.0
  0
LINE
  8
SIZE
  6
CONTINUOUS
 62
    30
 10
245.0
 20
0.0
 30
0.0
 11
1003.464753872662
 21
-0.0000000000002274
 31
0.0
  0
LINE
  8
SIZE
  6
CONTINUOUS
 62
    30
 10
983.46475387266219
 20
253.80009656753319
 30
0.0
 11
983.46475387266219
 21
11.999999999999771
 31
0.0
  0
CIRCLE
  8
SIZE
  6
CONTINUOUS
 62
    30
 10
983.46475387266219
 20
265.80009656753322
 30
0.0
 40
6.0
  0
LINE
  8
SIZE
  6
CONTINUOUS
 62
    30
 10
983.46475387266219
 20
265.80009656753322
 30
0.0
 11
983.46475387266219
 21
253.80009656753319
 31
0.0
  0
CIRCLE
  8
SIZE
  6
CONTINUOUS
 62
    30
 10
983.46475387266219
 20
-0.0000000000002274
 30
0.0
 40
6.0
  0
LINE
  8
SIZE
  6
CONTINUOUS
 62
    30
 10
983.46475387266219
 20
-0.0000000000002274
 30
0.0
 11
983.46475387266219
 21
11.999999999999771
 31
0.0
  0
TEXT
  8
SIZE
  6
CONTINUOUS
 62
    30
 10
958.46475387266219
 20
60.214333998052354
 30
0.0
 40
64.0
  1
266
 50
90.0
 41
0.9
 72
     1
 11
958.46475387266219
 21
132.90004828376661
 31
0.0
  0
POINT
  8
DEFPOINTS
  6
CONTINUOUS
 62
    30
 10
47.199999806668302
 20
265.80009656753361
 30
0.0
  0
POINT
  8
DEFPOINTS
  6
CONTINUOUS
 62
    30
 10
225.0
 20
0.0
 30
0.0
  0
POINT
  8
DEFPOINTS
  6
CONTINUOUS
 62
    30
 10
983.46475387266219
 20
-0.0000000000002274
 30
0.0
  0
LINE
  8
SIZE
  6
CONTINUOUS
 62
    30
 10
257.00012522654629
 20
0.00009765379275
 30
0.0
 11
1003.464753872662
 21
0.0000976537925226
 31
0.0
  0
LINE
  8
SIZE
  6
CONTINUOUS
 62
    30
 10
225.00012535761829
 20
-14.999902284767931
 30
0.0
 11
1003.464753872662
 21
-14.999902284768149
 31
0.0
  0
LINE
  8
SIZE
  6
CONTINUOUS
 62
    30
 10
983.46475387266219
 20
12.000097653792521
 30
0.0
 11
983.46475387266219
 21
24.000097653792519
 31
0.0
  0
LINE
  8
SIZE
  6
CONTINUOUS
 62
    30
 10
983.46475387266219
 20
-26.999902284768151
 30
0.0
 11
983.46475387266219
 21
-172.57007489566709
 31
0.0
  0
LINE
  8
SIZE
  6
CONTINUOUS
 62
    30
 10
983.46475387266219
 20
0.0000976537925226
 30
0.0
 11
983.46475387266219
 21
-14.999902284768149
 31
0.0
  0
CIRCLE
  8
SIZE
  6
CONTINUOUS
 62
    30
 10
983.46475387266219
 20
0.0000976537925226
 30
0.0
 40
6.0
  0
LINE
  8
SIZE
  6
CONTINUOUS
 62
    30
 10
983.46475387266219
 20
0.0000976537925226
 30
0.0
 11
983.46475387266219
 21
12.000097653792521
 31
0.0
  0
CIRCLE
  8
SIZE
  6
CONTINUOUS
 62
    30
 10
983.46475387266219
 20
-14.999902284768149
 30
0.0
 40
6.0
  0
LINE
  8
SIZE
  6
CONTINUOUS
 62
    30
 10
983.46475387266219
 20
-14.999902284768149
 30
0.0
 11
983.46475387266219
 21
-26.999902284768151
 31
0.0
  0
TEXT
  8
SIZE
  6
CONTINUOUS
 62
    30
 10
958.46475387266219
 20
-147.57007489566701
 30
0.0
 40
64.0
  1
15
 50
90.0
 41
0.9
 72
     1
 11
958.46475387266219
 21
-106.4272177528098
 31
0.0
  0
POINT
  8
DEFPOINTS
  6
CONTINUOUS
 62
    30
 10
237.00012522654629
 20
0.00009765379275
 30
0.0
  0
POINT
  8
DEFPOINTS
  6
CONTINUOUS
 62
    30
 10
205.00012535761829
 20
-14.999902284767931
 30
0.0
  0
POINT
  8
DEFPOINTS
  6
CONTINUOUS
 62
    30
 10
983.46475387266219
 20
-14.999902284768149
 30
0.0
  0
LINE
  8
SIZE
  6
CONTINUOUS
 62
    30
 10
-236.99987283194989
 20
-19.99990234620725
 30
0.0
 11
-236.99987283195
 21
-826.05397842500679
 31
0.0
  0
LINE
  8
SIZE
  6
CONTINUOUS
 62
    30
 10
237.00012522654629
 20
-19.99990234620725
 30
0.0
 11
237.00012522654609
 21
-826.05397842500679
 31
0.0
  0
LINE
  8
SIZE
  6
CONTINUOUS
 62
    30
 10
-224.99987283195
 20
-806.05397842500679
 30
0.0
 11
225.00012522654609
 21
-806.05397842500679
 31
0.0
  0
CIRCLE
  8
SIZE
  6
CONTINUOUS
 62
    30
 10
-236.99987283195
 20
-806.05397842500679
 30
0.0
 40
6.0
  0
LINE
  8
SIZE
  6
CONTINUOUS
 62
    30
 10
-236.99987283195
 20
-806.05397842500679
 30
0.0
 11
-224.99987283195
 21
-806.05397842500679
 31
0.0
  0
CIRCLE
  8
SIZE
  6
CONTINUOUS
 62
    30
 10
237.00012522654609
 20
-806.05397842500679
 30
0.0
 40
6.0
  0
LINE
  8
SIZE
  6
CONTINUOUS
 62
    30
 10
237.00012522654609
 20
-806.05397842500679
 30
0.0
 11
225.00012522654609
 21
-806.05397842500679
 31
0.0
  0
TEXT
  8
SIZE
  6
CONTINUOUS
 62
    30
 10
-111.90844523127321
 20
-781.05397842500679
 30
0.0
 40
64.0
  1
□474
 41
0.9
 72
     1
 11
0.0001261972981865
 21
-781.05397842500679
 31
0.0
  0
POINT
  8
DEFPOINTS
  6
CONTINUOUS
 62
    30
 10
-236.99987283194989
 20
0.00009765379275
 30
0.0
  0
POINT
  8
DEFPOINTS
  6
CONTINUOUS
 62
    30
 10
237.00012522654629
 20
0.00009765379275
 30
0.0
  0
POINT
  8
DEFPOINTS
  6
CONTINUOUS
 62
    30
 10
237.00012522654609
 20
-806.05397842500679
 30
0.0
  0
LINE
  8
OUTLINE
  6
CONTINUOUS
 62
     3
 10
-194.00000108292221
 20
69.85006760383726
 30
0.0
 11
-193.50000108497011
 21
69.85006760383726
 31
0.0
  0
ARC
  8
OUTLINE
  6
CONTINUOUS
 62
     3
 10
-197.0000010706344
 20
79.100067565948621
 30
0.0
 40
2.999999987712024
 50
0.0
 51
90.0
  0
ARC
  8
OUTLINE
  6
CONTINUOUS
 62
     3
 10
-268.50000077777031
 20
85.100067541372709
 30
0.0
 40
2.999999987712024
 50
242.95956972600541
 51
270.0
  0
LINE
  8
OUTLINE
  6
CONTINUOUS
 62
     3
 10
-197.0000010706344
 20
82.100067553661347
 30
0.0
 11
-268.50000077777031
 21
82.100067553661347
 31
0.0
  0
LINE
  8
OUTLINE
  6
CONTINUOUS
 62
     3
 10
-276.308537813155
 20
85.717468356474228
 30
0.0
 11
-269.86385812543273
 21
82.428009708634136
 31
0.0
  0
ARC
  8
OUTLINE
  6
CONTINUOUS
 62
     3
 10
-277.89970471876131
 20
82.60006755161271
 30
0.0
 40
3.4999999856640129
 50
62.95956972600537
 51
90.0
  0
LINE
  8
OUTLINE
  6
CONTINUOUS
 62
     3
 10
-302.86388079358312
 20
86.100067537276345
 30
0.0
 11
-277.89970471876131
 21
86.100067537276345
 31
0.0
  0
ARC
  8
OUTLINE
  6
CONTINUOUS
 62
     3
 10
-302.86388079358312
 20
88.600067527037254
 30
0.0
 40
2.499999989759945
 50
224.99999999999079
 51
270.0
  0
ARC
  8
OUTLINE
  6
CONTINUOUS
 62
     3
 10
-308.72813171723419
 20
88.100357446074895
 30
0.0
 40
1.999999991808044
 50
44.999999999990777
 51
90.0
  0
LINE
  8
OUTLINE
  6
CONTINUOUS
 62
     3
 10
-307.31391816065371
 20
89.514571002656112
 30
0.0
 11
-304.63164773930839
 21
86.832300581310619
 31
0.0
  0
ARC
  8
OUTLINE
  6
CONTINUOUS
 62
     3
 10
-334.3997044873372
 20
90.600357435836258
 30
0.0
 40
0.4999999979519875
 50
180.0
 51
270.0
  0
LINE
  8
OUTLINE
  6
CONTINUOUS
 62
     3
 10
-308.72813171723419
 20
90.100357437883531
 30
0.0
 11
-334.3997044873372
 21
90.100357437883531
 31
0.0
  0
LINE
  8
OUTLINE
  6
CONTINUOUS
 62
     3
 10
-334.89970448528948
 20
233.5997770161251
 30
0.0
 11
-334.89970448528948
 21
90.600357435836258
 31
0.0
  0
ARC
  8
OUTLINE
  6
CONTINUOUS
 62
     3
 10
-334.3997044873372
 20
233.5997770161251
 30
0.0
 40
0.4999999979519875
 50
90.0
 51
180.0
  0
ARC
  8
OUTLINE
  6
CONTINUOUS
 62
     3
 10
-302.86388079358312
 20
235.60006692492411
 30
0.0
 40
2.499999989759806
 50
90.0
 51
135.00000000000921
  0
LINE
  8
OUTLINE
  6
CONTINUOUS
 62
     3
 10
-308.72813171723419
 20
234.0997770140772
 30
0.0
 11
-334.3997044873372
 21
234.0997770140772
 31
0.0
  0
ARC
  8
OUTLINE
  6
CONTINUOUS
 62
     3
 10
-308.72813171723419
 20
236.0997770058863
 30
0.0
 40
1.9999999918080069
 50
270.0
 51
315.00000000000921
  0
LINE
  8
OUTLINE
  6
CONTINUOUS
 62
     3
 10
-307.31391816065371
 20
234.68556344930511
 30
0.0
 11
-304.63164773930839
 21
237.36783387065029
 31
0.0
  0
LINE
  8
OUTLINE
  6
CONTINUOUS
 62
     3
 10
-303.89941469527412
 20
237.3111103217087
 30
0.0
 11
-303.89941469527412
 21
86.88902413025221
 31
0.0
  0
LINE
  8
OUTLINE
  6
CONTINUOUS
 62
     3
 10
-307.89970459588147
 20
233.74102554517421
 30
0.0
 11
-307.89970459588147
 21
90.459108906786014
 31
0.0
  0
ARC
  8
OUTLINE
  6
CONTINUOUS
 62
     3
 10
-277.89970471876131
 20
241.600066900348
 30
0.0
 40
3.4999999856640631
 50
270.0
 51
297.04043027399462
  0
LINE
  8
OUTLINE
  6
CONTINUOUS
 62
     3
 10
-302.86388079358312
 20
238.1000669146853
 30
0.0
 11
-277.89970471876131
 21
238.1000669146853
 31
0.0
  0
LINE
  8
OUTLINE
  6
CONTINUOUS
 62
     3
 10
-277.89970471876131
 20
238.1000669146853
 30
0.0
 11
-277.89970471876131
 21
86.600067535229073
 31
0.0
  0
LINE
  8
OUTLINE
  6
CONTINUOUS
 62
     3
 10
-276.308537813155
 20
238.48266609548651
 30
0.0
 11
-269.86385812543273
 21
241.77212474332731
 31
0.0
  0
ARC
  8
OUTLINE
  6
CONTINUOUS
 62
     3
 10
-268.50000077777031
 20
239.10006691058851
 30
0.0
 40
2.999999987712
 50
90.0
 51
117.0404302739946
  0
LINE
  8
OUTLINE
  6
CONTINUOUS
 62
     3
 10
-197.0000010706344
 20
242.10006689829979
 30
0.0
 11
-268.50000077777031
 21
242.10006689829979
 31
0.0
  0
ARC
  8
OUTLINE
  6
CONTINUOUS
 62
     3
 10
-197.0000010706344
 20
245.1000668860128
 30
0.0
 40
2.999999987711937
 50
270.0
 51
0.0
  0
LINE
  8
OUTLINE
  6
CONTINUOUS
 62
     3
 10
-194.00000108292221
 20
254.3500668481241
 30
0.0
 11
-194.00000108292221
 21
69.85006760383726
 31
0.0
  0
LINE
  8
OUTLINE
  6
CONTINUOUS
 62
     3
 10
-194.00000108292221
 20
254.3500668481241
 30
0.0
 11
-193.50000108497011
 21
254.3500668481241
 31
0.0
  0
LINE
  8
OUTLINE
  6
CONTINUOUS
 62
     3
 10
-193.00000108701809
 20
255.60006684300319
 30
0.0
 11
-193.00000108701809
 21
233.59947184034479
 31
0.0
  0
ARC
  8
OUTLINE
  6
CONTINUOUS
 62
     3
 10
-193.00000108701809
 20
255.60006684300319
 30
0.0
 40
0.4999999979520813
 50
0.0
 51
90.0
  0
ARC
  8
OUTLINE
  6
CONTINUOUS
 62
     3
 10
-193.00000108701809
 20
255.60006684300319
 30
0.0
 40
0.4999999979519875
 50
90.0
 51
180.0
  0
LINE
  8
OUTLINE
  6
CONTINUOUS
 62
     3
 10
-192.50000108906599
 20
255.60006684300319
 30
0.0
 11
-192.50000108906599
 21
253.10006685324339
 31
0.0
  0
LINE
  8
OUTLINE
  6
CONTINUOUS
 62
     3
 10
-193.00000108701809
 20
253.10006685324339
 30
0.0
 11
-192.50000108906599
 21
253.10006685324339
 31
0.0
  0
LINE
  8
OUTLINE
  6
CONTINUOUS
 62
     3
 10
-193.50000108497079
 20
1.7000972754199211
 30
0.0
 11
-193.50000108497011
 21
255.60006684300319
 31
0.0
  0
LINE
  8
OUTLINE
  6
CONTINUOUS
 62
     3
 10
193.0
 20
230.00000000000011
 30
0.0
 11
-187.50039783806031
 21
230.00000000000011
 31
0.0
  0
LINE
  8
OUTLINE
  6
CONTINUOUS
 62
     3
 10
-194.00000108292221
 20
69.850067603837374
 30
0.0
 11
-193.50000108497011
 21
69.850067603837374
 31
0.0
  0
ARC
  8
OUTLINE
  6
CONTINUOUS
 62
     3
 10
-197.0000010706344
 20
79.100067565948734
 30
0.0
 40
2.999999987712024
 50
0.0
 51
90.0
  0
LINE
  8
OUTLINE
  6
CONTINUOUS
 62
     3
 10
-194.00000108292221
 20
254.3500668481241
 30
0.0
 11
-194.00000108292221
 21
69.850067603837374
 31
0.0
  0
ARC
  8
OUTLINE
  6
CONTINUOUS
 62
     3
 10
-191.90000109152379
 20
233.59947184034479
 30
0.0
 40
1.0999999954943249
 50
180.0
 51
270.0
  0
LINE
  8
OUTLINE
  6
CONTINUOUS
 62
     3
 10
-191.90000109152379
 20
232.4994718448514
 30
0.0
 11
-189.7503978288444
 21
232.4994718448514
 31
0.0
  0
ARC
  8
OUTLINE
  6
CONTINUOUS
 62
     3
 10
-189.7503978288444
 20
230.24947185406731
 30
0.0
 40
2.2499999907839929
 50
0.0
 51
90.0
  0
LINE
  8
OUTLINE
  6
CONTINUOUS
 62
     3
 10
-187.50039783806031
 20
230.24947185406731
 30
0.0
 11
-187.50039783806031
 21
230.00000000000011
 31
0.0
  0
LINE
  8
OUTLINE
  6
CONTINUOUS
 62
     3
 10
-193.50000108497079
 20
1.700097275420035
 30
0.0
 11
-193.50000108497011
 21
255.60006684300319
 31
0.0
  0
ENDSEC
  0
EOF
