  0
SECTION
  2
HEADER
  9
$ACADVER
  1
AC1009
  9
$DWGCODEPAGE
  3
dos932
  9
$INSBASE
 10
0.0
 20
0.0
 30
0.0
  9
$EXTMIN
 10
-866.49168293980438
 20
-896.89635112520409
 30
-0.0015258207003583
  9
$EXTMAX
 10
1247.1679805744991
 20
1130.813607283417
 30
0.0000000349246037
  9
$LIMMIN
 10
-2970.0
 20
-2100.0
  9
$LIMMAX
 10
2970.0
 20
2100.0
  9
$ORTHOMODE
 70
     1
  9
$REGENMODE
 70
     1
  9
$FILLMODE
 70
     1
  9
$QTEXTMODE
 70
     0
  9
$MIRRTEXT
 70
     0
  9
$LTSCALE
 40
20.0
  9
$ATTMODE
 70
     1
  9
$TEXTSIZE
 40
64.0
  9
$TRACEWID
 40
0.05
  9
$TEXTSTYLE
  7
STANDARD
  9
$CLAYER
  8
SIZE
  9
$CELTYPE
  6
CONTINUOUS
  9
$CECOLOR
 62
     7
  9
$DIMSCALE
 40
1.0
  9
$DIMASZ
 40
12.0
  9
$DIMEXO
 40
20.0
  9
$DIMDLI
 40
200.0
  9
$DIMRND
 40
0.0
  9
$DIMDLE
 40
0.0
  9
$DIMEXE
 40
20.0
  9
$DIMTP
 40
0.0
  9
$DIMTM
 40
0.0
  9
$DIMTXT
 40
64.0
  9
$DIMCEN
 40
0.09
  9
$DIMTSZ
 40
0.0
  9
$DIMTOL
 70
     0
  9
$DIMLIM
 70
     0
  9
$DIMTIH
 70
     0
  9
$DIMTOH
 70
     0
  9
$DIMSE1
 70
     0
  9
$DIMSE2
 70
     0
  9
$DIMTAD
 70
     1
  9
$DIMZIN
 70
     8
  9
$DIMBLK
  1

  9
$DIMASO
 70
     1
  9
$DIMSHO
 70
     0
  9
$DIMPOST
  1

  9
$DIMAPOST
  1

  9
$DIMALT
 70
     0
  9
$DIMALTD
 70
     2
  9
$DIMALTF
 40
25.399999999999999
  9
$DIMLFAC
 40
1.0
  9
$DIMTOFL
 70
     1
  9
$DIMTVP
 40
0.0
  9
$DIMTIX
 70
     1
  9
$DIMSOXD
 70
     0
  9
$DIMSAH
 70
     0
  9
$DIMBLK1
  1

  9
$DIMBLK2
  1

  9
$DIMSTYLE
  2
STANDARD
  9
$DIMCLRD
 70
     7
  9
$DIMCLRE
 70
     7
  9
$DIMCLRT
 70
     7
  9
$DIMTFAC
 40
1.0
  9
$DIMGAP
 40
25.0
  9
$LUNITS
 70
     2
  9
$LUPREC
 70
     4
  9
$SKETCHINC
 40
0.1
  9
$FILLETRAD
 40
3.0
  9
$AUNITS
 70
     1
  9
$AUPREC
 70
     3
  9
$MENU
  1
ACAD
  9
$ELEVATION
 40
0.0
  9
$PELEVATION
 40
0.0
  9
$THICKNESS
 40
0.0
  9
$LIMCHECK
 70
     0
  9
$CHAMFERA
 40
0.0
  9
$CHAMFERB
 40
0.0
  9
$SKPOLY
 70
     0
  9
$TDCREATE
 40
2453019.62301037
  9
$TDUPDATE
 40
2459025.521143241
  9
$TDINDWG
 40
1.7134419097
  9
$TDUSRTIMER
 40
1.7134419097
  9
$USRTIMER
 70
     1
  9
$ANGBASE
 50
0.0
  9
$ANGDIR
 70
     0
  9
$PDMODE
 70
     3
  9
$PDSIZE
 40
-2.0
  9
$PLINEWID
 40
0.0
  9
$SPLFRAME
 70
     0
  9
$SPLINETYPE
 70
     6
  9
$SPLINESEGS
 70
     8
  9
$SURFTAB1
 70
     6
  9
$SURFTAB2
 70
     6
  9
$SURFTYPE
 70
     6
  9
$SURFU
 70
     6
  9
$SURFV
 70
     6
  9
$UCSNAME
  2

  9
$UCSORG
 10
0.0
 20
0.0
 30
0.0
  9
$UCSXDIR
 10
1.0
 20
0.0
 30
0.0
  9
$UCSYDIR
 10
0.0
 20
1.0
 30
0.0
  9
$PUCSNAME
  2

  9
$PUCSORG
 10
0.0
 20
0.0
 30
0.0
  9
$PUCSXDIR
 10
1.0
 20
0.0
 30
0.0
  9
$PUCSYDIR
 10
0.0
 20
1.0
 30
0.0
  9
$USERI1
 70
     0
  9
$USERI2
 70
     0
  9
$USERI3
 70
     0
  9
$USERI4
 70
     0
  9
$USERI5
 70
     0
  9
$USERR1
 40
20.0
  9
$USERR2
 40
0.0
  9
$USERR3
 40
0.0
  9
$USERR4
 40
0.0
  9
$USERR5
 40
0.0
  9
$WORLDVIEW
 70
     1
  9
$SHADEDGE
 70
     3
  9
$SHADEDIF
 70
    70
  9
$TILEMODE
 70
     1
  9
$MAXACTVP
 70
    48
  9
$PINSBASE
 10
0.0
 20
0.0
 30
0.0
  9
$PLIMCHECK
 70
     0
  9
$PEXTMIN
 10
-100000000000000000000.0
 20
-100000000000000000000.0
 30
-100000000000000000000.0
  9
$PEXTMAX
 10
100000000000000000000.0
 20
100000000000000000000.0
 30
100000000000000000000.0
  9
$PLIMMIN
 10
0.0
 20
0.0
  9
$PLIMMAX
 10
12.0
 20
9.0
  9
$UNITMODE
 70
     0
  9
$VISRETAIN
 70
     0
  9
$PLINEGEN
 70
     0
  9
$PSLTSCALE
 70
     0
  9
$TREEDEPTH
 70
  3020
  9
$ATTDIA
 70
     0
  9
$ATTREQ
 70
     1
  9
$BLIPMODE
 70
     1
  9
$COORDS
 70
     1
  9
$DRAGMODE
 70
     2
  9
$OSMODE
 70
     0
  9
$HANDLING
 70
     0
  9
$HANDSEED
  5
EE90
  0
ENDSEC
  0
SECTION
  2
TABLES
  0
TABLE
  2
LTYPE
 70
     2
  0
LTYPE
  2
CONTINUOUS
 70
     0
  3
実線
 72
    65
 73
     0
 40
0.0
  0
LTYPE
  2
DASHDOT
 70
     0
  3
____ _ ____ _ ____ _ ____ _ ____ _ ____ _ ____
 72
    65
 73
     4
 40
5.5
 49
4.0
 49
-0.6
 49
0.3
 49
-0.6
  0
ENDTAB
  0
TABLE
  2
LAYER
 70
    12
  0
LAYER
  2
0
 70
     0
 62
     7
  6
CONTINUOUS
  0
LAYER
  2
BASIS
 70
     0
 62
     6
  6
DASHDOT
  0
LAYER
  2
OUTLINE
 70
     0
 62
     3
  6
CONTINUOUS
  0
LAYER
  2
DETAIL
 70
     0
 62
     5
  6
CONTINUOUS
  0
LAYER
  2
SIZE
 70
     0
 62
    30
  6
CONTINUOUS
  0
LAYER
  2
ARRANGE
 70
     0
 62
     1
  6
CONTINUOUS
  0
LAYER
  2
DEFPOINTS
 70
     0
 62
     7
  6
CONTINUOUS
  0
LAYER
  2
ETC
 70
     0
 62
    61
  6
CONTINUOUS
  0
LAYER
  2
FIX
 70
     0
 62
    11
  6
CONTINUOUS
  0
LAYER
  2
NOTE
 70
     0
 62
     4
  6
CONTINUOUS
  0
LAYER
  2
SERVICESPACE
 70
    64
 62
     2
  6
DASHDOT
  0
LAYER
  2
SYMBOLLINE
 70
    64
 62
    15
  6
CONTINUOUS
  0
ENDTAB
  0
TABLE
  2
STYLE
 70
     1
  0
STYLE
  2
STANDARD
 70
     0
 40
64.0
 41
0.9
 50
0.0
 71
     0
 42
64.0
  3
SIMPLEX.shx
  4
BIGFONT.shx
  0
ENDTAB
  0
TABLE
  2
APPID
 70
    19
  0
APPID
  2
ACAD
 70
     0
  0
APPID
  2
AUTOCAD_POSTSCRIPT_FIGURE
 70
     0
  0
APPID
  2
ACAD_EXEMPT_FROM_CAD_STANDARDS
 70
     0
  0
APPID
  2
ACAD_PSEXT
 70
     0
  0
APPID
  2
ACAUTHENVIRON
 70
     0
  0
APPID
  2
GENIUS_GENOENT_13
 70
     0
  0
APPID
  2
GENIUS_GENCFG_13
 70
     0
  0
APPID
  2
GENIUS_GENCFG0_13
 70
     0
  0
APPID
  2
GENIUS_GENCFG1_13
 70
     0
  0
APPID
  2
GENIUS_GENCFG2_13
 70
     0
  0
APPID
  2
GENIUS_GENCFG3_13
 70
     0
  0
APPID
  2
GENIUS_GENCFG4_13
 70
     0
  0
APPID
  2
GENIUS_GEVCFG0_13
 70
     0
  0
APPID
  2
CONTENTBLOCKICON
 70
     0
  0
APPID
  2
CONTENTBLOCKDESCRIPTION
 70
     0
  0
APPID
  2
ACAD_NAV_VCDISPLAY
 70
     0
  0
APPID
  2
ACAD_MLEADERVER
 70
     0
  0
APPID
  2
ACDBDYNAMICBLOCKTRUENAME
 70
     0
  0
APPID
  2
ACDBDYNAMICBLOCKGUID
 70
     0
  0
ENDTAB
  0
TABLE
  2
DIMSTYLE
 70
     1
  0
DIMSTYLE
  2
STANDARD
 70
     0
  3

  4

  5
_ORIGIN
  6

  7

 40
1.0
 41
12.0
 42
20.0
 43
200.0
 44
20.0
 45
0.0
 46
0.0
 47
0.0
 48
0.0
140
64.0
141
0.09
142
0.0
143
25.399999999999999
144
1.0
145
0.0
146
1.0
147
25.0
 71
     0
 72
     0
 73
     0
 74
     0
 75
     0
 76
     0
 77
     1
 78
     8
170
     0
171
     2
172
     1
173
     0
174
     1
175
     0
176
     7
177
     7
178
     7
  0
ENDTAB
  0
TABLE
  2
VIEW
 70
     1
  0
VIEW
  2
ALL
 70
     0
 40
4282.6198079999986
 10
0.0
 20
41.309904000000003
 41
5940.0
 11
0.0
 21
0.0
 31
1.0
 12
0.0
 22
0.0
 32
0.0
 42
50.0
 43
0.0
 44
0.0
 50
0.0
 71
     0
  0
ENDTAB
  0
TABLE
  2
UCS
 70
     0
  0
ENDTAB
  0
TABLE
  2
VPORT
 70
     1
  0
VPORT
  2
*ACTIVE
 70
     0
 10
0.0
 20
0.0
 11
1.0
 21
1.0
 12
190.33814881734719
 22
116.9586280791063
 13
0.0
 23
0.0
 14
1.0
 24
1.0
 15
0.0
 25
0.0
 16
0.0
 26
0.0
 36
1.0
 17
0.0
 27
0.0
 37
0.0
 40
2041.153339348346
 41
1.747787610619469
 42
50.0
 43
0.0
 44
0.0
 50
0.0
 51
0.0
 71
     0
 72
  1000
 73
     1
 74
     3
 75
     0
 76
     0
 77
     0
 78
     0
  0
ENDTAB
  0
ENDSEC
  0
SECTION
  2
BLOCKS
  0
BLOCK
  8
0
  2
_ORIGIN
 70
     0
 10
0.0
 20
0.0
 30
0.0
  3
_ORIGIN
  1
_ORIGIN
  0
CIRCLE
  8
0
  6
CONTINUOUS
 62
     7
 10
0.0
 20
0.0
 30
0.0
 40
0.5
  0
LINE
  8
0
  6
CONTINUOUS
 62
     7
 10
0.0
 20
0.0
 30
0.0
 11
-1.0
 21
0.0
 31
0.0
  0
ENDBLK
  8
0
  0
ENDSEC
  0
SECTION
  2
ENTITIES
  0
TEXT
  8
ETC
  6
CONTINUOUS
 62
    61
 10
453.17894936539778
 20
1030.7680853286049
 30
0.0
 40
64.0
  1
VD-23ZVX6-C_1
 41
0.9
  0
TEXT
  8
ETC
  6
CONTINUOUS
 62
    61
 10
450.81177136539782
 20
925.98681985293206
 30
0.0
 40
64.0
  1
換気扇
 41
0.9
  0
TEXT
  8
ETC
  6
CONTINUOUS
 62
    61
 10
535.17271270887886
 20
842.91936560419572
 30
0.0
 40
40.0
  1
VD-23ZVX6-C
 41
0.9
  0
LINE
  8
OUTLINE
  6
CONTINUOUS
 62
     3
 10
-30.5
 20
-237.5
 30
0.0
 11
237.5
 21
-237.49999999999989
 31
0.0
  0
LINE
  8
OUTLINE
  6
CONTINUOUS
 62
     3
 10
-237.5
 20
237.5
 30
0.0
 11
237.5
 21
237.5
 31
0.0
  0
POINT
  8
ARRANGE
  6
CONTINUOUS
 62
     1
 10
0.0
 20
0.0
 30
0.0
  0
CIRCLE
  8
ARRANGE
  6
CONTINUOUS
 62
     1
 10
0.0
 20
0.0
 30
0.0
 40
40.0
  0
TEXT
  8
SIZE
  6
CONTINUOUS
 62
    30
 10
-110.5371428571429
 20
1066.6568622235529
 30
0.0
 40
64.0
  1
□475
 41
0.9
 72
     1
 11
0.0
 21
1066.6568622235529
 31
0.0
  0
LINE
  8
SIZE
  6
CONTINUOUS
 62
    30
 10
225.5
 20
1041.6568622235529
 30
0.0
 11
-225.5
 21
1041.6568622235529
 31
0.0
  0
LINE
  8
DETAIL
  6
CONTINUOUS
 62
     5
 10
-30.5
 20
-237.5
 30
0.0
 11
237.5
 21
-237.49999999999989
 31
0.0
  0
LINE
  8
DETAIL
  6
CONTINUOUS
 62
     5
 10
-237.5
 20
237.5
 30
0.0
 11
237.5
 21
237.5
 31
0.0
  0
TEXT
  8
SIZE
  6
CONTINUOUS
 62
    30
 10
-68.571428571428555
 20
809.42484822355391
 30
0.0
 40
64.0
  1
418
 41
0.9
 72
     1
 11
0.0
 21
809.42484822355391
 31
0.0
  0
LINE
  8
SIZE
  6
CONTINUOUS
 62
    30
 10
197.0
 20
784.42484822355391
 30
0.0
 11
-197.0
 21
784.42484822355391
 31
0.0
  0
TEXT
  8
SIZE
  6
CONTINUOUS
 62
    30
 10
-74.061561132951397
 20
687.01015366464389
 30
0.0
 40
64.0
  1
410
 41
0.9
 72
     1
 11
-5.4901325615228416
 21
687.01015366464389
 31
0.0
  0
LINE
  8
SIZE
  6
CONTINUOUS
 62
    30
 10
-193.0
 20
658.9371446843611
 30
0.0
 11
193.0
 21
658.9371446843611
 31
0.0
  0
TEXT
  8
SIZE
  6
CONTINUOUS
 62
    30
 10
-79.547275418665691
 20
417.59796375715217
 30
0.0
 40
64.0
  1
300
 41
0.9
 72
     1
 11
-5.4901325615228416
 21
417.59796375715217
 31
0.0
  0
LINE
  8
SIZE
  6
CONTINUOUS
 62
    30
 10
-138.0
 20
386.57895477686912
 30
0.0
 11
138.0
 21
386.57895477686912
 31
0.0
  0
LINE
  8
DETAIL
  6
CONTINUOUS
 62
     5
 10
-30.5
 20
-219.0
 30
0.0
 11
219.0
 21
-219.0
 31
0.0
  0
LINE
  8
DETAIL
  6
CONTINUOUS
 62
     5
 10
-193.0
 20
-193.0
 30
0.0
 11
193.0
 21
-193.0
 31
0.0
  0
LINE
  8
DETAIL
  6
CONTINUOUS
 62
     5
 10
-193.0
 20
193.0
 30
0.0
 11
193.0
 21
193.0
 31
0.0
  0
LINE
  8
DETAIL
  6
CONTINUOUS
 62
     5
 10
-219.0
 20
219.0
 30
0.0
 11
219.0
 21
219.0
 31
0.0
  0
CIRCLE
  8
DETAIL
  6
CONTINUOUS
 62
     5
 10
37.5
 20
4.0
 30
0.0
 40
49.0
  0
LINE
  8
BASIS
  6
DASHDOT
 62
     6
 10
-274.00587199999973
 20
0.0
 30
0.0
 11
274.2173600000001
 21
0.0
 31
0.0
  0
LINE
  8
DETAIL
  6
CONTINUOUS
 62
     5
 10
-203.5
 20
-196.0
 30
0.0
 11
7.5
 21
-196.0
 31
0.0
  0
LINE
  8
OUTLINE
  6
CONTINUOUS
 62
     3
 10
-237.5
 20
-237.5
 30
0.0
 11
-237.5
 21
237.5
 31
0.0
  0
LINE
  8
DETAIL
  6
CONTINUOUS
 62
     5
 10
-237.5
 20
-237.5
 30
0.0
 11
-237.5
 21
237.5
 31
0.0
  0
LINE
  8
BASIS
  6
DASHDOT
 62
     6
 10
0.0
 20
-276.49377599999991
 30
0.0
 11
0.0
 21
276.54446400000012
 31
0.0
  0
LINE
  8
DETAIL
  6
CONTINUOUS
 62
     5
 10
-219.0
 20
-40.0
 30
0.0
 11
-219.0
 21
100.0
 31
0.0
  0
TEXT
  8
SIZE
  6
CONTINUOUS
 62
    30
 10
-802.09956977984893
 20
-117.3639372857144
 30
0.0
 40
64.0
  1
□386
 50
90.0
 41
0.9
 72
     1
 11
-802.09956977984893
 21
-8.1982230000000982
 31
0.0
  0
LINE
  8
SIZE
  6
CONTINUOUS
 62
    30
 10
-775.22983177984952
 20
181.0
 30
0.0
 11
-775.22983177984952
 21
-181.0
 31
0.0
  0
LINE
  8
SIZE
  6
CONTINUOUS
 62
    30
 10
-535.48464277984931
 20
0.0
 30
0.0
 11
-535.48464277984931
 21
12.0
 31
0.0
  0
CIRCLE
  8
SIZE
  6
CONTINUOUS
 62
    30
 10
-535.48464277984931
 20
0.0
 30
0.0
 40
6.0
  0
LINE
  8
SIZE
  6
CONTINUOUS
 62
    30
 10
-535.48464277984931
 20
0.0
 30
0.0
 11
-535.48464277984931
 21
12.0
 31
0.0
  0
CIRCLE
  8
SIZE
  6
CONTINUOUS
 62
    30
 10
-535.48464277984931
 20
0.0
 30
0.0
 40
6.0
  0
TEXT
  8
SIZE
  6
CONTINUOUS
 62
    30
 10
-571.63104952542062
 20
-3.571428571428569
 30
0.0
 40
64.0
  1
130
 50
90.0
 41
0.9
 72
     1
 11
-571.63104952542062
 21
65.0
 31
0.0
  0
LINE
  8
DETAIL
  6
CONTINUOUS
 62
     5
 10
-193.0
 20
-193.0
 30
0.0
 11
-193.0
 21
193.0
 31
0.0
  0
LINE
  8
BASIS
  6
DASHDOT
 62
     6
 10
0.0
 20
-276.49377599999991
 30
0.0
 11
0.0
 21
276.54446400000012
 31
0.0
  0
LINE
  8
OUTLINE
  6
CONTINUOUS
 62
     3
 10
-237.5
 20
-237.5
 30
0.0
 11
-190.5
 21
-237.5
 31
0.0
  0
TEXT
  8
SIZE
  6
CONTINUOUS
 62
    30
 10
-802.09956977984893
 20
-491.17499257142862
 30
0.0
 40
64.0
  1
142
 50
90.0
 41
0.9
 72
     1
 11
-802.09956977984893
 21
-422.60356400000001
 31
0.0
  0
LINE
  8
SIZE
  6
CONTINUOUS
 62
    30
 10
-186.71122999999989
 20
-327.60827399999988
 30
0.0
 11
-186.71122999999989
 21
-896.8016508439639
 31
0.0
  0
LINE
  8
SIZE
  6
CONTINUOUS
 62
    30
 10
-34.711229999999887
 20
-327.60827399999988
 30
0.0
 11
-34.711229999999887
 21
-896.8016508439639
 31
0.0
  0
CIRCLE
  8
SIZE
  6
CONTINUOUS
 62
    30
 10
-182.5
 20
-724.55179694855269
 30
0.0
 40
6.0
  0
CIRCLE
  8
SIZE
  6
CONTINUOUS
 62
    30
 10
-38.5
 20
-724.55179694855269
 30
0.0
 40
6.0
  0
LINE
  8
SIZE
  6
CONTINUOUS
 62
    30
 10
-182.5
 20
-355.0
 30
0.0
 11
-182.5
 21
-744.55179694855269
 31
0.0
  0
LINE
  8
SIZE
  6
CONTINUOUS
 62
    30
 10
-38.5
 20
-355.0
 30
0.0
 11
-38.5
 21
-744.55179694855269
 31
0.0
  0
LINE
  8
SIZE
  6
CONTINUOUS
 62
    30
 10
-205.0
 20
190.0
 30
0.0
 11
-205.0
 21
678.9371446843611
 31
0.0
  0
LINE
  8
SIZE
  6
CONTINUOUS
 62
    30
 10
-150.0
 20
245.0
 30
0.0
 11
-150.0
 21
406.57895477686912
 31
0.0
  0
LINE
  8
SIZE
  6
CONTINUOUS
 62
    30
 10
-205.0
 20
658.9371446843611
 30
0.0
 11
-193.0
 21
658.9371446843611
 31
0.0
  0
CIRCLE
  8
SIZE
  6
CONTINUOUS
 62
    30
 10
-205.0
 20
658.9371446843611
 30
0.0
 40
6.0
  0
LINE
  8
SIZE
  6
CONTINUOUS
 62
    30
 10
-150.0
 20
386.57895477686912
 30
0.0
 11
-138.0
 21
386.57895477686912
 31
0.0
  0
CIRCLE
  8
SIZE
  6
CONTINUOUS
 62
    30
 10
-150.0
 20
386.57895477686912
 30
0.0
 40
6.0
  0
LINE
  8
SIZE
  6
CONTINUOUS
 62
    30
 10
-182.71122999999989
 20
-724.55179694855269
 30
0.0
 11
-445.86528300000009
 21
-724.55179694855269
 31
0.0
  0
LINE
  8
SIZE
  6
CONTINUOUS
 62
    30
 10
-190.71122999999989
 20
-876.8016508439639
 30
0.0
 11
-446.44879500000019
 21
-876.8016508439639
 31
0.0
  0
LINE
  8
SIZE
  6
CONTINUOUS
 62
    30
 10
-452.32630499999999
 20
-876.8016508439639
 30
0.0
 11
-186.71122999999989
 21
-876.8016508439639
 31
0.0
  0
LINE
  8
SIZE
  6
CONTINUOUS
 62
    30
 10
-454.3284679999997
 20
-724.55179694855269
 30
0.0
 11
-182.5
 21
-724.55179694855269
 31
0.0
  0
TEXT
  8
SIZE
  6
CONTINUOUS
 62
    30
 10
-438.84630557142867
 20
-851.8016508439639
 30
0.0
 40
64.0
  1
φ152
 41
0.9
 72
     1
 11
-329.95487700000012
 21
-851.8016508439639
 31
0.0
  0
LINE
  8
SIZE
  6
CONTINUOUS
 62
    30
 10
-46.711229999999887
 20
-876.8016508439639
 30
0.0
 11
-174.71122999999989
 21
-876.8016508439639
 31
0.0
  0
LINE
  8
SIZE
  6
CONTINUOUS
 62
    30
 10
-50.5
 20
-724.55179694855269
 30
0.0
 11
-170.5
 21
-724.55179694855269
 31
0.0
  0
LINE
  8
SIZE
  6
CONTINUOUS
 62
    30
 10
-186.71122999999989
 20
-876.8016508439639
 30
0.0
 11
-174.71122999999989
 21
-876.8016508439639
 31
0.0
  0
CIRCLE
  8
SIZE
  6
CONTINUOUS
 62
    30
 10
-186.71122999999989
 20
-876.8016508439639
 30
0.0
 40
6.0
  0
LINE
  8
SIZE
  6
CONTINUOUS
 62
    30
 10
-182.5
 20
-724.55179694855269
 30
0.0
 11
-170.5
 21
-724.55179694855269
 31
0.0
  0
LINE
  8
SIZE
  6
CONTINUOUS
 62
    30
 10
-34.711229999999887
 20
-876.8016508439639
 30
0.0
 11
-46.711229999999887
 21
-876.8016508439639
 31
0.0
  0
CIRCLE
  8
SIZE
  6
CONTINUOUS
 62
    30
 10
-34.711229999999887
 20
-876.8016508439639
 30
0.0
 40
6.0
  0
LINE
  8
SIZE
  6
CONTINUOUS
 62
    30
 10
-38.5
 20
-724.55179694855269
 30
0.0
 11
-50.5
 21
-724.55179694855269
 31
0.0
  0
LINE
  8
SIZE
  6
CONTINUOUS
 62
    30
 10
-210.5
 20
-278.0
 30
0.0
 11
-679.86427977984931
 21
-278.0
 31
0.0
  0
LINE
  8
SIZE
  6
CONTINUOUS
 62
    30
 10
-202.5
 20
-335.0
 30
0.0
 11
-679.86427977984931
 21
-335.0
 31
0.0
  0
LINE
  8
SIZE
  6
CONTINUOUS
 62
    30
 10
-206.5
 20
-308.0
 30
0.0
 11
-551.18598077984871
 21
-308.0
 31
0.0
  0
LINE
  8
SIZE
  6
CONTINUOUS
 62
    30
 10
-202.5
 20
-335.0
 30
0.0
 11
-551.18598077984871
 21
-335.0
 31
0.0
  0
LINE
  8
SIZE
  6
CONTINUOUS
 62
    30
 10
-202.5
 20
-335.0
 30
0.0
 11
-795.22983177984952
 21
-335.0
 31
0.0
  0
LINE
  8
SIZE
  6
CONTINUOUS
 62
    30
 10
-226.33142388065431
 20
-193.0
 30
0.0
 11
-795.22983177984952
 21
-193.0
 31
0.0
  0
LINE
  8
SIZE
  6
CONTINUOUS
 62
    30
 10
-213.0
 20
-193.0
 30
0.0
 11
-795.22983177984952
 21
-193.0
 31
0.0
  0
LINE
  8
SIZE
  6
CONTINUOUS
 62
    30
 10
-249.0
 20
-70.0
 30
0.0
 11
-555.48464277984931
 21
-70.0
 31
0.0
  0
LINE
  8
SIZE
  6
CONTINUOUS
 62
    30
 10
-294.00587199999973
 20
0.0
 30
0.0
 11
-555.48464277984931
 21
0.0
 31
0.0
  0
LINE
  8
SIZE
  6
CONTINUOUS
 62
    30
 10
-294.00587199999973
 20
0.0
 30
0.0
 11
-555.48464277984931
 21
0.0
 31
0.0
  0
LINE
  8
SIZE
  6
CONTINUOUS
 62
    30
 10
-659.86427977984931
 20
-335.0
 30
0.0
 11
-659.86427977984931
 21
-278.0
 31
0.0
  0
LINE
  8
SIZE
  6
CONTINUOUS
 62
    30
 10
-659.86427977984931
 20
-335.0
 30
0.0
 11
-659.86427977984931
 21
-278.0
 31
0.0
  0
LINE
  8
SIZE
  6
CONTINUOUS
 62
    30
 10
-531.18598077984916
 20
-335.0
 30
0.0
 11
-531.18598077984916
 21
-308.0
 31
0.0
  0
LINE
  8
SIZE
  6
CONTINUOUS
 62
    30
 10
-531.18598077984916
 20
-335.0
 30
0.0
 11
-531.18598077984916
 21
-308.0
 31
0.0
  0
LINE
  8
SIZE
  6
CONTINUOUS
 62
    30
 10
-775.22983177984952
 20
-335.0
 30
0.0
 11
-775.22983177984952
 21
-323.0
 31
0.0
  0
LINE
  8
SIZE
  6
CONTINUOUS
 62
    30
 10
-775.22983177984952
 20
-317.5
 30
0.0
 11
-775.22983177984952
 21
-507.079835
 31
0.0
  0
LINE
  8
SIZE
  6
CONTINUOUS
 62
    30
 10
-659.86427977984931
 20
-319.5
 30
0.0
 11
-659.86427977984931
 21
-468.69194499999992
 31
0.0
  0
LINE
  8
SIZE
  6
CONTINUOUS
 62
    30
 10
-531.18598077984916
 20
-323.49999999999977
 30
0.0
 11
-531.18598077984916
 21
-466.13275299999998
 31
0.0
  0
TEXT
  8
SIZE
  6
CONTINUOUS
 62
    30
 10
-555.44025077984907
 20
-454.49669242857141
 30
0.0
 40
64.0
  1
27
 50
90.0
 41
0.9
 72
     1
 11
-555.44025077984907
 21
-407.86812099999997
 31
0.0
  0
TEXT
  8
SIZE
  6
CONTINUOUS
 62
    30
 10
-678.76991077984894
 20
-455.28610942857142
 30
0.0
 40
64.0
  1
57
 50
90.0
 41
0.9
 72
     1
 11
-678.76991077984894
 21
-408.65753799999987
 31
0.0
  0
CIRCLE
  8
SIZE
  6
CONTINUOUS
 62
    30
 10
-775.22983177984952
 20
-335.0
 30
0.0
 40
6.0
  0
LINE
  8
SIZE
  6
CONTINUOUS
 62
    30
 10
-659.86427977984931
 20
-335.0
 30
0.0
 11
-659.86427977984931
 21
-347.0
 31
0.0
  0
CIRCLE
  8
SIZE
  6
CONTINUOUS
 62
    30
 10
-659.86427977984931
 20
-335.0
 30
0.0
 40
6.0
  0
LINE
  8
SIZE
  6
CONTINUOUS
 62
    30
 10
-659.86427977984931
 20
-347.0
 30
0.0
 11
-659.86427977984931
 21
-359.0
 31
0.0
  0
LINE
  8
SIZE
  6
CONTINUOUS
 62
    30
 10
-531.18598077984916
 20
-335.0
 30
0.0
 11
-531.18598077984916
 21
-347.0
 31
0.0
  0
CIRCLE
  8
SIZE
  6
CONTINUOUS
 62
    30
 10
-531.18598077984916
 20
-335.0
 30
0.0
 40
6.0
  0
LINE
  8
SIZE
  6
CONTINUOUS
 62
    30
 10
-531.18598077984916
 20
-347.0
 30
0.0
 11
-531.18598077984916
 21
-359.0
 31
0.0
  0
TEXT
  8
SIZE
  6
CONTINUOUS
 62
    30
 10
-571.63104952542062
 20
-171.57600942857141
 30
0.0
 40
64.0
  1
70
 50
90.0
 41
0.9
 72
     1
 11
-571.63104952542062
 21
-124.94743799999991
 31
0.0
  0
LINE
  8
SIZE
  6
CONTINUOUS
 62
    30
 10
-775.22983177984952
 20
-205.0
 30
0.0
 11
-775.22983177984952
 21
-323.0
 31
0.0
  0
LINE
  8
SIZE
  6
CONTINUOUS
 62
    30
 10
-775.22983177984952
 20
-193.0
 30
0.0
 11
-775.22983177984952
 21
-205.0
 31
0.0
  0
CIRCLE
  8
SIZE
  6
CONTINUOUS
 62
    30
 10
-775.22983177984952
 20
-193.0
 30
0.0
 40
6.0
  0
LINE
  8
SIZE
  6
CONTINUOUS
 62
    30
 10
-775.22983177984952
 20
-193.0
 30
0.0
 11
-775.22983177984952
 21
-181.0
 31
0.0
  0
CIRCLE
  8
SIZE
  6
CONTINUOUS
 62
    30
 10
-775.22983177984952
 20
-193.0
 30
0.0
 40
6.0
  0
CIRCLE
  8
SIZE
  6
CONTINUOUS
 62
    30
 10
-659.86427977984931
 20
-278.0
 30
0.0
 40
6.0
  0
LINE
  8
SIZE
  6
CONTINUOUS
 62
    30
 10
-535.48464277984931
 20
-72.0
 30
0.0
 11
-535.48464277984931
 21
-173.64898299999999
 31
0.0
  0
LINE
  8
SIZE
  6
CONTINUOUS
 62
    30
 10
-531.18598077984916
 20
-308.0
 30
0.0
 11
-531.18598077984916
 21
-296.0
 31
0.0
  0
CIRCLE
  8
SIZE
  6
CONTINUOUS
 62
    30
 10
-531.18598077984916
 20
-308.0
 30
0.0
 40
6.0
  0
LINE
  8
SIZE
  6
CONTINUOUS
 62
    30
 10
-531.18598077984916
 20
-296.0
 30
0.0
 11
-531.18598077984916
 21
-284.0
 31
0.0
  0
LINE
  8
SIZE
  6
CONTINUOUS
 62
    30
 10
-535.48464277984931
 20
-82.0
 30
0.0
 11
-535.48464277984931
 21
-94.0
 31
0.0
  0
LINE
  8
SIZE
  6
CONTINUOUS
 62
    30
 10
-535.48464277984931
 20
-70.0
 30
0.0
 11
-535.48464277984931
 21
-82.0
 31
0.0
  0
CIRCLE
  8
SIZE
  6
CONTINUOUS
 62
    30
 10
-535.48464277984931
 20
-70.0
 30
0.0
 40
6.0
  0
LINE
  8
SIZE
  6
CONTINUOUS
 62
    30
 10
-535.48464277984931
 20
0.0
 30
0.0
 11
-535.48464277984931
 21
-70.0
 31
0.0
  0
LINE
  8
SIZE
  6
CONTINUOUS
 62
    30
 10
-535.48464277984931
 20
0.0
 30
0.0
 11
-535.48464277984931
 21
-70.0
 31
0.0
  0
LINE
  8
BASIS
  6
DASHDOT
 62
     6
 10
-110.5
 20
-486.36855088435721
 30
0.0
 11
-110.5
 21
-167.09868099999991
 31
0.0
  0
LINE
  8
DETAIL
  6
CONTINUOUS
 62
     5
 10
-182.5
 20
-335.0
 30
0.0
 11
-182.5
 21
-308.0
 31
0.0
  0
LINE
  8
DETAIL
  6
CONTINUOUS
 62
     5
 10
-38.5
 20
-335.0
 30
0.0
 11
-38.5
 21
-308.0
 31
0.0
  0
TEXT
  8
SIZE
  6
CONTINUOUS
 62
    30
 10
-440.84846814285709
 20
-699.55179694855269
 30
0.0
 40
64.0
  1
φ144
 41
0.9
 72
     1
 11
-330.58561099999997
 21
-699.55179694855269
 31
0.0
  0
LINE
  8
DETAIL
  6
CONTINUOUS
 62
     5
 10
-182.5
 20
-335.0
 30
0.0
 11
-38.5
 21
-335.0
 31
0.0
  0
TEXT
  8
NOTE
  6
CONTINUOUS
 62
     4
 10
-162.21950000000021
 20
-437.36048199999988
 30
0.0
 40
64.0
  1
EA
 41
0.9
  0
LINE
  8
DETAIL
  6
CONTINUOUS
 62
     5
 10
-219.0
 20
-193.0
 30
0.0
 11
-219.0
 21
-100.0
 31
0.0
  0
LINE
  8
NOTE
  6
CONTINUOUS
 62
     4
 10
-205.0
 20
-170.0
 30
0.0
 11
-205.0
 21
-130.0
 31
0.0
  0
LINE
  8
OUTLINE
  6
CONTINUOUS
 62
     3
 10
-190.5
 20
-237.5
 30
0.0
 11
-30.5
 21
-237.5
 31
0.0
  0
LINE
  8
DETAIL
  6
CONTINUOUS
 62
     5
 10
-190.5
 20
-278.0
 30
0.0
 11
-30.5
 21
-278.0
 31
0.0
  0
LINE
  8
DETAIL
  6
CONTINUOUS
 62
     5
 10
-186.5
 20
-308.0
 30
0.0
 11
-34.5
 21
-308.0
 31
0.0
  0
LINE
  8
DETAIL
  6
CONTINUOUS
 62
     5
 10
-203.5
 20
-193.0
 30
0.0
 11
-18.5
 21
-193.0
 31
0.0
  0
LINE
  8
DETAIL
  6
CONTINUOUS
 62
     5
 10
-190.5
 20
-278.0
 30
0.0
 11
-190.5
 21
-196.0
 31
0.0
  0
LINE
  8
DETAIL
  6
CONTINUOUS
 62
     5
 10
-186.5
 20
-308.0
 30
0.0
 11
-186.5
 21
-278.0
 31
0.0
  0
LINE
  8
DETAIL
  6
CONTINUOUS
 62
     5
 10
-237.5
 20
-237.5
 30
0.0
 11
-190.5
 21
-237.5
 31
0.0
  0
LINE
  8
DETAIL
  6
CONTINUOUS
 62
     5
 10
-219.0
 20
-219.0
 30
0.0
 11
-219.0
 21
-193.0
 31
0.0
  0
LINE
  8
DETAIL
  6
CONTINUOUS
 62
     5
 10
-219.0
 20
-219.0
 30
0.0
 11
-190.5
 21
-219.0
 31
0.0
  0
LINE
  8
DETAIL
  6
CONTINUOUS
 62
     5
 10
-203.5
 20
-196.0
 30
0.0
 11
-203.5
 21
-193.0
 31
0.0
  0
CIRCLE
  8
FIX
  6
CONTINUOUS
 62
    11
 10
-150.0
 20
-205.0
 30
0.0
 40
2.5
  0
CIRCLE
  8
FIX
  6
CONTINUOUS
 62
    11
 10
-150.0
 20
-205.0
 30
0.0
 40
2.5
  0
LINE
  8
NOTE
  6
CONTINUOUS
 62
     4
 10
-130.0
 20
-205.0
 30
0.0
 11
-170.0
 21
-205.0
 31
0.0
  0
LINE
  8
NOTE
  6
CONTINUOUS
 62
     4
 10
-150.0
 20
-225.0
 30
0.0
 11
-150.0
 21
-185.0
 31
0.0
  0
LINE
  8
DETAIL
  6
CONTINUOUS
 62
     5
 10
-30.5
 20
-278.0
 30
0.0
 11
-30.5
 21
-196.0
 31
0.0
  0
LINE
  8
DETAIL
  6
CONTINUOUS
 62
     5
 10
-34.5
 20
-308.0
 30
0.0
 11
-34.5
 21
-278.0
 31
0.0
  0
LINE
  8
NOTE
  6
CONTINUOUS
 62
     4
 10
-209.0
 20
-50.0
 30
0.0
 11
-209.0
 21
-90.0
 31
0.0
  0
LINE
  8
DETAIL
  6
CONTINUOUS
 62
     5
 10
-224.25
 20
-40.0
 30
0.0
 11
-224.25
 21
-100.0
 31
0.0
  0
LINE
  8
DETAIL
  6
CONTINUOUS
 62
     5
 10
-193.75
 20
-40.0
 30
0.0
 11
-193.75
 21
-100.0
 31
0.0
  0
LINE
  8
DETAIL
  6
CONTINUOUS
 62
     5
 10
-206.5
 20
-152.5
 30
0.0
 11
-203.5
 21
-152.5
 31
0.0
  0
LINE
  8
DETAIL
  6
CONTINUOUS
 62
     5
 10
-206.5
 20
-147.5
 30
0.0
 11
-203.5
 21
-147.5
 31
0.0
  0
ARC
  8
DETAIL
  6
CONTINUOUS
 62
     5
 10
-203.5
 20
-150.0
 30
0.0
 40
2.5
 50
270.0
 51
90.0
  0
ARC
  8
DETAIL
  6
CONTINUOUS
 62
     5
 10
-206.5
 20
-150.0
 30
0.0
 40
2.5
 50
90.0
 51
270.0
  0
CIRCLE
  8
FIX
  6
CONTINUOUS
 62
    11
 10
-205.0
 20
-150.0
 30
0.0
 40
2.5
  0
LINE
  8
NOTE
  6
CONTINUOUS
 62
     4
 10
-185.0
 20
-150.0
 30
0.0
 11
-225.0
 21
-150.0
 31
0.0
  0
LINE
  8
DETAIL
  6
CONTINUOUS
 62
     5
 10
-193.75
 20
-100.0
 30
0.0
 11
-224.25
 21
-100.0
 31
0.0
  0
LINE
  8
DETAIL
  6
CONTINUOUS
 62
     5
 10
-193.75
 20
-100.0
 30
0.0
 11
-193.0
 21
-100.0
 31
0.0
  0
CIRCLE
  8
FIX
  6
CONTINUOUS
 62
    11
 10
-209.0
 20
-70.0
 30
0.0
 40
7.5
  0
LINE
  8
NOTE
  6
CONTINUOUS
 62
     4
 10
-189.0
 20
-70.0
 30
0.0
 11
-229.0
 21
-70.0
 31
0.0
  0
LINE
  8
DETAIL
  6
CONTINUOUS
 62
     5
 10
-216.5
 20
-66.5
 30
0.0
 11
-216.5
 21
-73.5
 31
0.0
  0
LINE
  8
DETAIL
  6
CONTINUOUS
 62
     5
 10
-201.5
 20
-66.5
 30
0.0
 11
-201.5
 21
-73.5
 31
0.0
  0
ARC
  8
DETAIL
  6
CONTINUOUS
 62
     5
 10
-209.0
 20
-73.5
 30
0.0
 40
7.5
 50
180.0
 51
0.0
  0
ARC
  8
DETAIL
  6
CONTINUOUS
 62
     5
 10
-209.0
 20
-66.5
 30
0.0
 40
7.5
 50
0.0
 51
180.0
  0
LINE
  8
DETAIL
  6
CONTINUOUS
 62
     5
 10
-193.75
 20
-40.0
 30
0.0
 11
-224.25
 21
-40.0
 31
0.0
  0
LINE
  8
DETAIL
  6
CONTINUOUS
 62
     5
 10
-193.75
 20
-40.0
 30
0.0
 11
-193.0
 21
-40.0
 31
0.0
  0
LINE
  8
SIZE
  6
CONTINUOUS
 62
    30
 10
-237.5
 20
239.5
 30
0.0
 11
-237.5
 21
1061.6568622235541
 31
0.0
  0
LINE
  8
SIZE
  6
CONTINUOUS
 62
    30
 10
-213.0
 20
193.0
 30
0.0
 11
-795.22983177984952
 21
193.0
 31
0.0
  0
LINE
  8
SIZE
  6
CONTINUOUS
 62
    30
 10
-249.0
 20
130.0
 30
0.0
 11
-555.48464277984931
 21
130.0
 31
0.0
  0
LINE
  8
SIZE
  6
CONTINUOUS
 62
    30
 10
-775.22983177984952
 20
193.0
 30
0.0
 11
-775.22983177984952
 21
181.0
 31
0.0
  0
CIRCLE
  8
SIZE
  6
CONTINUOUS
 62
    30
 10
-775.22983177984952
 20
193.0
 30
0.0
 40
6.0
  0
LINE
  8
SIZE
  6
CONTINUOUS
 62
    30
 10
-535.48464277984931
 20
12.0
 30
0.0
 11
-535.48464277984931
 21
118.0
 31
0.0
  0
LINE
  8
SIZE
  6
CONTINUOUS
 62
    30
 10
-535.48464277984931
 20
12.0
 30
0.0
 11
-535.48464277984931
 21
24.0
 31
0.0
  0
LINE
  8
SIZE
  6
CONTINUOUS
 62
    30
 10
-535.48464277984931
 20
130.0
 30
0.0
 11
-535.48464277984931
 21
118.0
 31
0.0
  0
CIRCLE
  8
SIZE
  6
CONTINUOUS
 62
    30
 10
-535.48464277984931
 20
130.0
 30
0.0
 40
6.0
  0
LINE
  8
SIZE
  6
CONTINUOUS
 62
    30
 10
-209.0
 20
170.0
 30
0.0
 11
-209.0
 21
804.42484822355391
 31
0.0
  0
LINE
  8
DETAIL
  6
CONTINUOUS
 62
     5
 10
-219.0
 20
160.0
 30
0.0
 11
-219.0
 21
219.0
 31
0.0
  0
LINE
  8
NOTE
  6
CONTINUOUS
 62
     4
 10
-205.0
 20
170.0
 30
0.0
 11
-205.0
 21
130.0
 31
0.0
  0
LINE
  8
DETAIL
  6
CONTINUOUS
 62
     5
 10
-193.75
 20
100.0
 30
0.0
 11
-193.0
 21
100.0
 31
0.0
  0
LINE
  8
DETAIL
  6
CONTINUOUS
 62
     5
 10
-193.75
 20
160.0
 30
0.0
 11
-193.0
 21
160.0
 31
0.0
  0
LINE
  8
DETAIL
  6
CONTINUOUS
 62
     5
 10
-193.75
 20
100.0
 30
0.0
 11
-224.25
 21
100.0
 31
0.0
  0
LINE
  8
DETAIL
  6
CONTINUOUS
 62
     5
 10
-193.75
 20
160.0
 30
0.0
 11
-224.25
 21
160.0
 31
0.0
  0
ARC
  8
DETAIL
  6
CONTINUOUS
 62
     5
 10
-209.0
 20
133.4999999999998
 30
0.0
 40
7.5
 50
0.0
 51
180.0
  0
ARC
  8
DETAIL
  6
CONTINUOUS
 62
     5
 10
-209.0
 20
126.5
 30
0.0
 40
7.5
 50
180.0
 51
0.0
  0
LINE
  8
DETAIL
  6
CONTINUOUS
 62
     5
 10
-201.5
 20
133.4999999999998
 30
0.0
 11
-201.5
 21
126.5
 31
0.0
  0
LINE
  8
DETAIL
  6
CONTINUOUS
 62
     5
 10
-216.5
 20
133.4999999999998
 30
0.0
 11
-216.5
 21
126.5
 31
0.0
  0
LINE
  8
DETAIL
  6
CONTINUOUS
 62
     5
 10
-193.75
 20
160.0
 30
0.0
 11
-193.75
 21
100.0
 31
0.0
  0
LINE
  8
DETAIL
  6
CONTINUOUS
 62
     5
 10
-224.25
 20
160.0
 30
0.0
 11
-224.25
 21
100.0
 31
0.0
  0
LINE
  8
NOTE
  6
CONTINUOUS
 62
     4
 10
-189.0
 20
130.0
 30
0.0
 11
-229.0
 21
130.0
 31
0.0
  0
LINE
  8
NOTE
  6
CONTINUOUS
 62
     4
 10
-209.0
 20
150.0
 30
0.0
 11
-209.0
 21
110.0
 31
0.0
  0
CIRCLE
  8
FIX
  6
CONTINUOUS
 62
    11
 10
-209.0
 20
130.0
 30
0.0
 40
7.5
  0
LINE
  8
NOTE
  6
CONTINUOUS
 62
     4
 10
-185.0
 20
150.0
 30
0.0
 11
-225.0
 21
150.0
 31
0.0
  0
CIRCLE
  8
FIX
  6
CONTINUOUS
 62
    11
 10
-205.0
 20
150.0
 30
0.0
 40
2.5
  0
LINE
  8
DETAIL
  6
CONTINUOUS
 62
     5
 10
-152.5
 20
206.5
 30
0.0
 11
-152.5
 21
203.5
 31
0.0
  0
LINE
  8
DETAIL
  6
CONTINUOUS
 62
     5
 10
-147.5
 20
206.5
 30
0.0
 11
-147.5
 21
203.5
 31
0.0
  0
ARC
  8
DETAIL
  6
CONTINUOUS
 62
     5
 10
-150.0
 20
203.5
 30
0.0
 40
2.5
 50
180.0
 51
0.0
  0
ARC
  8
DETAIL
  6
CONTINUOUS
 62
     5
 10
-150.0
 20
206.5
 30
0.0
 40
2.5
 50
0.0
 51
180.0
  0
CIRCLE
  8
FIX
  6
CONTINUOUS
 62
    11
 10
-150.0
 20
205.0
 30
0.0
 40
2.5
  0
LINE
  8
NOTE
  6
CONTINUOUS
 62
     4
 10
-170.0
 20
205.0
 30
0.0
 11
-130.0
 21
205.0
 31
0.0
  0
LINE
  8
NOTE
  6
CONTINUOUS
 62
     4
 10
-150.0
 20
185.0
 30
0.0
 11
-150.0
 21
225.0
 31
0.0
  0
LINE
  8
SIZE
  6
CONTINUOUS
 62
    30
 10
-209.0
 20
784.42484822355391
 30
0.0
 11
-197.0
 21
784.42484822355391
 31
0.0
  0
CIRCLE
  8
SIZE
  6
CONTINUOUS
 62
    30
 10
-209.0
 20
784.42484822355391
 30
0.0
 40
6.0
  0
LINE
  8
SIZE
  6
CONTINUOUS
 62
    30
 10
-237.5
 20
1041.6568622235529
 30
0.0
 11
-225.5
 21
1041.6568622235529
 31
0.0
  0
CIRCLE
  8
SIZE
  6
CONTINUOUS
 62
    30
 10
-237.5
 20
1041.6568622235529
 30
0.0
 40
6.0
  0
LINE
  8
OUTLINE
  6
CONTINUOUS
 62
     3
 10
237.5
 20
-237.49999999999989
 30
0.0
 11
237.5
 21
237.5
 31
0.0
  0
LINE
  8
DETAIL
  6
CONTINUOUS
 62
     5
 10
237.5
 20
-237.49999999999989
 30
0.0
 11
237.5
 21
237.5
 31
0.0
  0
LINE
  8
DETAIL
  6
CONTINUOUS
 62
     5
 10
219.0
 20
-100.0
 30
0.0
 11
219.0
 21
40.0
 31
0.0
  0
TEXT
  8
SIZE
  6
CONTINUOUS
 62
    30
 10
1077.921643466831
 20
-68.571428571428555
 30
0.0
 40
64.0
  1
410
 50
90.0
 41
0.9
 72
     1
 11
1077.921643466831
 21
0.0
 31
0.0
  0
LINE
  8
SIZE
  6
CONTINUOUS
 62
    30
 10
1104.767643466831
 20
193.0
 30
0.0
 11
1104.767643466831
 21
-193.0
 31
0.0
  0
TEXT
  8
SIZE
  6
CONTINUOUS
 62
    30
 10
935.61799546683051
 20
-74.05714285714285
 30
0.0
 40
64.0
  1
300
 50
90.0
 41
0.9
 72
     1
 11
935.61799546683051
 21
0.0
 31
0.0
  0
LINE
  8
SIZE
  6
CONTINUOUS
 62
    30
 10
967.92392046683108
 20
138.0
 30
0.0
 11
967.92392046683108
 21
-138.0
 31
0.0
  0
CIRCLE
  8
SIZE
  6
CONTINUOUS
 62
    30
 10
829.60540746683091
 20
0.0
 30
0.0
 40
6.0
  0
LINE
  8
SIZE
  6
CONTINUOUS
 62
    30
 10
829.60540746683091
 20
0.0
 30
0.0
 11
829.60540746683091
 21
70.0
 31
0.0
  0
LINE
  8
SIZE
  6
CONTINUOUS
 62
    30
 10
829.60540746683091
 20
0.0
 30
0.0
 11
829.60540746683091
 21
70.0
 31
0.0
  0
CIRCLE
  8
SIZE
  6
CONTINUOUS
 62
    30
 10
829.60540746683091
 20
0.0
 30
0.0
 40
6.0
  0
LINE
  8
DETAIL
  6
CONTINUOUS
 62
     5
 10
193.0
 20
-193.0
 30
0.0
 11
193.0
 21
193.0
 31
0.0
  0
LINE
  8
SIZE
  6
CONTINUOUS
 62
    30
 10
190.0
 20
-205.0
 30
0.0
 11
1124.767643466831
 21
-205.0
 31
0.0
  0
LINE
  8
SIZE
  6
CONTINUOUS
 62
    30
 10
245.0
 20
-150.0
 30
0.0
 11
987.92392046683108
 21
-150.0
 31
0.0
  0
LINE
  8
SIZE
  6
CONTINUOUS
 62
    30
 10
205.0
 20
190.0
 30
0.0
 11
205.0
 21
678.9371446843611
 31
0.0
  0
LINE
  8
SIZE
  6
CONTINUOUS
 62
    30
 10
150.0
 20
245.0
 30
0.0
 11
150.0
 21
406.57895477686912
 31
0.0
  0
LINE
  8
SIZE
  6
CONTINUOUS
 62
    30
 10
205.0
 20
658.9371446843611
 30
0.0
 11
193.0
 21
658.9371446843611
 31
0.0
  0
CIRCLE
  8
SIZE
  6
CONTINUOUS
 62
    30
 10
205.0
 20
658.9371446843611
 30
0.0
 40
6.0
  0
LINE
  8
SIZE
  6
CONTINUOUS
 62
    30
 10
150.0
 20
386.57895477686912
 30
0.0
 11
138.0
 21
386.57895477686912
 31
0.0
  0
CIRCLE
  8
SIZE
  6
CONTINUOUS
 62
    30
 10
150.0
 20
386.57895477686912
 30
0.0
 40
6.0
  0
LINE
  8
SIZE
  6
CONTINUOUS
 62
    30
 10
294.21735999999959
 20
0.0
 30
0.0
 11
750.7260830477785
 21
0.0
 31
0.0
  0
LINE
  8
SIZE
  6
CONTINUOUS
 62
    30
 10
294.21735999999959
 20
0.0
 30
0.0
 11
849.60540746683091
 21
0.0
 31
0.0
  0
LINE
  8
SIZE
  6
CONTINUOUS
 62
    30
 10
249.0
 20
-130.0
 30
0.0
 11
849.60540746683091
 21
-130.0
 31
0.0
  0
LINE
  8
SIZE
  6
CONTINUOUS
 62
    30
 10
294.21735999999959
 20
0.0
 30
0.0
 11
849.60540746683091
 21
0.0
 31
0.0
  0
TEXT
  8
NOTE
  6
CONTINUOUS
 62
     4
 10
267.267155
 20
-371.54614299999992
 30
0.0
 40
64.0
  1
EL
 41
0.9
  0
LINE
  8
NOTE
  6
CONTINUOUS
 62
     4
 10
255.47476499999991
 20
-401.31120700000002
 30
0.0
 11
363.59314511428062
 21
-401.31120700000002
 31
0.0
  0
LINE
  8
NOTE
  6
CONTINUOUS
 62
     4
 10
169.0
 20
-157.0
 30
0.0
 11
255.47476499999991
 21
-401.31120700000002
 31
0.0
  0
LINE
  8
DETAIL
  6
CONTINUOUS
 62
     5
 10
219.0
 20
-160.0
 30
0.0
 11
219.0
 21
-219.0
 31
0.0
  0
CIRCLE
  8
DETAIL
  6
CONTINUOUS
 62
     5
 10
169.0
 20
-157.0
 30
0.0
 40
9.5
  0
LINE
  8
NOTE
  6
CONTINUOUS
 62
     4
 10
169.0
 20
-177.0
 30
0.0
 11
169.0
 21
-137.0
 31
0.0
  0
LINE
  8
NOTE
  6
CONTINUOUS
 62
     4
 10
205.0
 20
-170.0
 30
0.0
 11
205.0
 21
-130.0
 31
0.0
  0
LINE
  8
NOTE
  6
CONTINUOUS
 62
     4
 10
169.0
 20
-157.0
 30
0.0
 11
172.08811299999979
 21
-196.88061599999989
 31
0.0
  0
LINE
  8
NOTE
  6
CONTINUOUS
 62
     4
 10
191.61469299999999
 20
-189.99357000000009
 30
0.0
 11
169.0
 21
-157.0
 31
0.0
  0
LINE
  8
DETAIL
  6
CONTINUOUS
 62
     5
 10
7.5
 20
-196.0
 30
0.0
 11
7.5
 21
-193.0
 31
0.0
  0
LINE
  8
NOTE
  6
CONTINUOUS
 62
     4
 10
130.0
 20
-205.0
 30
0.0
 11
170.0
 21
-205.0
 31
0.0
  0
LINE
  8
NOTE
  6
CONTINUOUS
 62
     4
 10
150.0
 20
-225.0
 30
0.0
 11
150.0
 21
-185.0
 31
0.0
  0
CIRCLE
  8
FIX
  6
CONTINUOUS
 62
    11
 10
150.0
 20
-205.0
 30
0.0
 40
2.5
  0
ARC
  8
DETAIL
  6
CONTINUOUS
 62
     5
 10
150.0
 20
-203.5
 30
0.0
 40
2.5
 50
0.0
 51
180.0
  0
ARC
  8
DETAIL
  6
CONTINUOUS
 62
     5
 10
150.0
 20
-206.5
 30
0.0
 40
2.5
 50
180.0
 51
0.0
  0
LINE
  8
DETAIL
  6
CONTINUOUS
 62
     5
 10
152.5
 20
-203.5
 30
0.0
 11
152.5
 21
-206.5
 31
0.0
  0
LINE
  8
DETAIL
  6
CONTINUOUS
 62
     5
 10
147.5
 20
-203.5
 30
0.0
 11
147.5
 21
-206.5
 31
0.0
  0
LINE
  8
NOTE
  6
CONTINUOUS
 62
     4
 10
149.0
 20
-157.0
 30
0.0
 11
189.0
 21
-157.0
 31
0.0
  0
LINE
  8
DETAIL
  6
CONTINUOUS
 62
     5
 10
193.75
 20
-160.0
 30
0.0
 11
193.0
 21
-160.0
 31
0.0
  0
LINE
  8
DETAIL
  6
CONTINUOUS
 62
     5
 10
193.75
 20
-160.0
 30
0.0
 11
224.25
 21
-160.0
 31
0.0
  0
LINE
  8
DETAIL
  6
CONTINUOUS
 62
     5
 10
193.75
 20
-100.0
 30
0.0
 11
224.25
 21
-100.0
 31
0.0
  0
ARC
  8
DETAIL
  6
CONTINUOUS
 62
     5
 10
209.0
 20
-126.5
 30
0.0
 40
7.5
 50
0.0
 51
180.0
  0
ARC
  8
DETAIL
  6
CONTINUOUS
 62
     5
 10
209.0
 20
-133.4999999999998
 30
0.0
 40
7.5
 50
180.0
 51
0.0
  0
LINE
  8
DETAIL
  6
CONTINUOUS
 62
     5
 10
201.5
 20
-126.5
 30
0.0
 11
201.5
 21
-133.4999999999998
 31
0.0
  0
LINE
  8
DETAIL
  6
CONTINUOUS
 62
     5
 10
216.5
 20
-126.5
 30
0.0
 11
216.5
 21
-133.4999999999998
 31
0.0
  0
LINE
  8
DETAIL
  6
CONTINUOUS
 62
     5
 10
193.75
 20
-100.0
 30
0.0
 11
193.75
 21
-160.0
 31
0.0
  0
LINE
  8
DETAIL
  6
CONTINUOUS
 62
     5
 10
224.25
 20
-100.0
 30
0.0
 11
224.25
 21
-160.0
 31
0.0
  0
LINE
  8
NOTE
  6
CONTINUOUS
 62
     4
 10
189.0
 20
-130.0
 30
0.0
 11
229.0
 21
-130.0
 31
0.0
  0
LINE
  8
NOTE
  6
CONTINUOUS
 62
     4
 10
209.0
 20
-110.0
 30
0.0
 11
209.0
 21
-150.0
 31
0.0
  0
CIRCLE
  8
FIX
  6
CONTINUOUS
 62
    11
 10
209.0
 20
-130.0
 30
0.0
 40
7.5
  0
LINE
  8
NOTE
  6
CONTINUOUS
 62
     4
 10
225.0
 20
-150.0
 30
0.0
 11
185.0
 21
-150.0
 31
0.0
  0
CIRCLE
  8
FIX
  6
CONTINUOUS
 62
    11
 10
205.0
 20
-150.0
 30
0.0
 40
2.5
  0
CIRCLE
  8
FIX
  6
CONTINUOUS
 62
    11
 10
205.0
 20
-150.0
 30
0.0
 40
2.5
  0
LINE
  8
SIZE
  6
CONTINUOUS
 62
    30
 10
829.60540746683091
 20
-130.0
 30
0.0
 11
829.60540746683091
 21
-384.57195099999979
 31
0.0
  0
TEXT
  8
SIZE
  6
CONTINUOUS
 62
    30
 10
804.60540746683091
 20
-379.70897757142848
 30
0.0
 40
64.0
  1
130
 50
90.0
 41
0.9
 72
     1
 11
804.60540746683091
 21
-311.13754899999992
 31
0.0
  0
LINE
  8
SIZE
  6
CONTINUOUS
 62
    30
 10
829.60540746683091
 20
-404.708977
 30
0.0
 11
829.60540746683091
 21
-130.0
 31
0.0
  0
LINE
  8
SIZE
  6
CONTINUOUS
 62
    30
 10
829.60540746683091
 20
-12.0
 30
0.0
 11
829.60540746683091
 21
-118.0
 31
0.0
  0
LINE
  8
SIZE
  6
CONTINUOUS
 62
    30
 10
829.60540746683091
 20
-130.0
 30
0.0
 11
829.60540746683091
 21
-118.0
 31
0.0
  0
CIRCLE
  8
SIZE
  6
CONTINUOUS
 62
    30
 10
829.60540746683091
 20
-130.0
 30
0.0
 40
6.0
  0
LINE
  8
SIZE
  6
CONTINUOUS
 62
    30
 10
829.60540746683091
 20
0.0
 30
0.0
 11
829.60540746683091
 21
-12.0
 31
0.0
  0
LINE
  8
SIZE
  6
CONTINUOUS
 62
    30
 10
829.60540746683091
 20
-12.0
 30
0.0
 11
829.60540746683091
 21
-24.0
 31
0.0
  0
LINE
  8
SIZE
  6
CONTINUOUS
 62
    30
 10
829.60540746683091
 20
0.0
 30
0.0
 11
829.60540746683091
 21
-12.0
 31
0.0
  0
CIRCLE
  8
SIZE
  6
CONTINUOUS
 62
    30
 10
1104.767643466831
 20
-205.0
 30
0.0
 40
6.0
  0
LINE
  8
SIZE
  6
CONTINUOUS
 62
    30
 10
1104.767643466831
 20
-205.0
 30
0.0
 11
1104.767643466831
 21
-193.0
 31
0.0
  0
LINE
  8
SIZE
  6
CONTINUOUS
 62
    30
 10
967.92392046683108
 20
-150.0
 30
0.0
 11
967.92392046683108
 21
-138.0
 31
0.0
  0
CIRCLE
  8
SIZE
  6
CONTINUOUS
 62
    30
 10
967.92392046683108
 20
-150.0
 30
0.0
 40
6.0
  0
LINE
  8
SIZE
  6
CONTINUOUS
 62
    30
 10
190.0
 20
205.0
 30
0.0
 11
1124.767643466831
 21
205.0
 31
0.0
  0
LINE
  8
SIZE
  6
CONTINUOUS
 62
    30
 10
245.0
 20
150.0
 30
0.0
 11
987.92392046683108
 21
150.0
 31
0.0
  0
LINE
  8
NOTE
  6
CONTINUOUS
 62
     4
 10
358.19126004704458
 20
291.87998503574858
 30
0.0
 11
616.99267792106548
 21
291.87998503574858
 31
0.0
  0
TEXT
  8
NOTE
  6
CONTINUOUS
 62
     4
 10
396.68350404704461
 20
329.36959503574849
 30
0.0
 40
64.0
  1
AH 4
 41
0.9
  0
LINE
  8
SIZE
  6
CONTINUOUS
 62
    30
 10
237.5
 20
239.5
 30
0.0
 11
237.5
 21
1061.6568622235541
 31
0.0
  0
LINE
  8
SIZE
  6
CONTINUOUS
 62
    30
 10
249.0
 20
70.0
 30
0.0
 11
849.60540746683091
 21
70.0
 31
0.0
  0
TEXT
  8
NOTE
  6
CONTINUOUS
 62
     4
 10
281.62662738157633
 20
459.87537802178173
 30
0.0
 40
64.0
  1
8-φ5×8
 41
0.9
  0
LINE
  8
NOTE
  6
CONTINUOUS
 62
     4
 10
665.91699438157639
 20
433.34412202178191
 30
0.0
 11
269.25283738157668
 21
433.34412202178191
 31
0.0
  0
LINE
  8
NOTE
  6
CONTINUOUS
 62
     4
 10
150.0
 20
205.0
 30
0.0
 11
269.25283738157668
 21
433.34412202178191
 31
0.0
  0
LINE
  8
NOTE
  6
CONTINUOUS
 62
     4
 10
209.0
 20
70.0
 30
0.0
 11
358.19126004704458
 21
291.87998503574858
 31
0.0
  0
LINE
  8
SIZE
  6
CONTINUOUS
 62
    30
 10
209.0
 20
110.0
 30
0.0
 11
209.0
 21
804.42484822355391
 31
0.0
  0
LINE
  8
NOTE
  6
CONTINUOUS
 62
     4
 10
209.0
 20
70.0
 30
0.0
 11
239.3859709999997
 21
96.01331899999991
 31
0.0
  0
LINE
  8
DETAIL
  6
CONTINUOUS
 62
     5
 10
219.0
 20
100.0
 30
0.0
 11
219.0
 21
219.0
 31
0.0
  0
LINE
  8
NOTE
  6
CONTINUOUS
 62
     4
 10
205.0
 20
130.0
 30
0.0
 11
205.0
 21
170.0
 31
0.0
  0
LINE
  8
NOTE
  6
CONTINUOUS
 62
     4
 10
222.3083630000001
 20
107.7211809999999
 30
0.0
 11
209.0
 21
70.0
 31
0.0
  0
LINE
  8
NOTE
  6
CONTINUOUS
 62
     4
 10
209.0
 20
90.0
 30
0.0
 11
209.0
 21
50.0
 31
0.0
  0
LINE
  8
DETAIL
  6
CONTINUOUS
 62
     5
 10
224.25
 20
100.0
 30
0.0
 11
224.25
 21
40.0
 31
0.0
  0
LINE
  8
DETAIL
  6
CONTINUOUS
 62
     5
 10
193.75
 20
100.0
 30
0.0
 11
193.75
 21
40.0
 31
0.0
  0
CIRCLE
  8
FIX
  6
CONTINUOUS
 62
    11
 10
209.0
 20
70.0
 30
0.0
 40
7.5
  0
LINE
  8
NOTE
  6
CONTINUOUS
 62
     4
 10
189.0
 20
70.0
 30
0.0
 11
229.0
 21
70.0
 31
0.0
  0
LINE
  8
DETAIL
  6
CONTINUOUS
 62
     5
 10
216.5
 20
73.5
 30
0.0
 11
216.5
 21
66.5
 31
0.0
  0
LINE
  8
DETAIL
  6
CONTINUOUS
 62
     5
 10
201.5
 20
73.5
 30
0.0
 11
201.5
 21
66.5
 31
0.0
  0
ARC
  8
DETAIL
  6
CONTINUOUS
 62
     5
 10
209.0
 20
66.5
 30
0.0
 40
7.5
 50
180.0
 51
0.0
  0
ARC
  8
DETAIL
  6
CONTINUOUS
 62
     5
 10
209.0
 20
73.5
 30
0.0
 40
7.5
 50
0.0
 51
180.0
  0
LINE
  8
DETAIL
  6
CONTINUOUS
 62
     5
 10
193.75
 20
40.0
 30
0.0
 11
224.25
 21
40.0
 31
0.0
  0
LINE
  8
DETAIL
  6
CONTINUOUS
 62
     5
 10
193.75
 20
40.0
 30
0.0
 11
193.0
 21
40.0
 31
0.0
  0
LINE
  8
DETAIL
  6
CONTINUOUS
 62
     5
 10
203.5
 20
147.5
 30
0.0
 11
206.5
 21
147.5
 31
0.0
  0
LINE
  8
DETAIL
  6
CONTINUOUS
 62
     5
 10
203.5
 20
152.5
 30
0.0
 11
206.5
 21
152.5
 31
0.0
  0
ARC
  8
DETAIL
  6
CONTINUOUS
 62
     5
 10
206.5
 20
150.0
 30
0.0
 40
2.5
 50
270.0
 51
90.0
  0
ARC
  8
DETAIL
  6
CONTINUOUS
 62
     5
 10
203.5
 20
150.0
 30
0.0
 40
2.5
 50
90.0
 51
270.0
  0
CIRCLE
  8
FIX
  6
CONTINUOUS
 62
    11
 10
205.0
 20
150.0
 30
0.0
 40
2.5
  0
LINE
  8
NOTE
  6
CONTINUOUS
 62
     4
 10
225.0
 20
150.0
 30
0.0
 11
185.0
 21
150.0
 31
0.0
  0
LINE
  8
DETAIL
  6
CONTINUOUS
 62
     5
 10
193.75
 20
100.0
 30
0.0
 11
224.25
 21
100.0
 31
0.0
  0
LINE
  8
DETAIL
  6
CONTINUOUS
 62
     5
 10
193.75
 20
100.0
 30
0.0
 11
193.0
 21
100.0
 31
0.0
  0
LINE
  8
NOTE
  6
CONTINUOUS
 62
     4
 10
150.0
 20
205.0
 30
0.0
 11
177.23244799999969
 21
234.29835800000001
 31
0.0
  0
LINE
  8
NOTE
  6
CONTINUOUS
 62
     4
 10
158.93481199999999
 20
243.98934599999981
 30
0.0
 11
150.0
 21
205.0
 31
0.0
  0
LINE
  8
NOTE
  6
CONTINUOUS
 62
     4
 10
170.0
 20
205.0
 30
0.0
 11
130.0
 21
205.0
 31
0.0
  0
LINE
  8
NOTE
  6
CONTINUOUS
 62
     4
 10
150.0
 20
185.0
 30
0.0
 11
150.0
 21
225.0
 31
0.0
  0
CIRCLE
  8
FIX
  6
CONTINUOUS
 62
    11
 10
150.0
 20
205.0
 30
0.0
 40
2.5
  0
ARC
  8
DETAIL
  6
CONTINUOUS
 62
     5
 10
150.0
 20
206.5
 30
0.0
 40
2.5
 50
0.0
 51
180.0
  0
ARC
  8
DETAIL
  6
CONTINUOUS
 62
     5
 10
150.0
 20
203.5
 30
0.0
 40
2.5
 50
180.0
 51
0.0
  0
LINE
  8
DETAIL
  6
CONTINUOUS
 62
     5
 10
147.5
 20
206.5
 30
0.0
 11
147.5
 21
203.5
 31
0.0
  0
LINE
  8
DETAIL
  6
CONTINUOUS
 62
     5
 10
152.5
 20
206.5
 30
0.0
 11
152.5
 21
203.5
 31
0.0
  0
LINE
  8
SIZE
  6
CONTINUOUS
 62
    30
 10
209.0
 20
784.42484822355391
 30
0.0
 11
197.0
 21
784.42484822355391
 31
0.0
  0
CIRCLE
  8
SIZE
  6
CONTINUOUS
 62
    30
 10
209.0
 20
784.42484822355391
 30
0.0
 40
6.0
  0
LINE
  8
SIZE
  6
CONTINUOUS
 62
    30
 10
829.60540746683091
 20
70.0
 30
0.0
 11
829.60540746683091
 21
376.212673
 31
0.0
  0
TEXT
  8
SIZE
  6
CONTINUOUS
 62
    30
 10
804.60540746683091
 20
246.71414457142839
 30
0.0
 40
64.0
  1
70
 50
90.0
 41
0.9
 72
     1
 11
804.60540746683091
 21
293.34271599999988
 31
0.0
  0
LINE
  8
SIZE
  6
CONTINUOUS
 62
    30
 10
829.60540746683091
 20
364.97128800000002
 30
0.0
 11
829.60540746683091
 21
70.0
 31
0.0
  0
LINE
  8
SIZE
  6
CONTINUOUS
 62
    30
 10
829.60540746683091
 20
82.0
 30
0.0
 11
829.60540746683091
 21
94.0
 31
0.0
  0
LINE
  8
SIZE
  6
CONTINUOUS
 62
    30
 10
829.60540746683091
 20
70.0
 30
0.0
 11
829.60540746683091
 21
82.0
 31
0.0
  0
CIRCLE
  8
SIZE
  6
CONTINUOUS
 62
    30
 10
829.60540746683091
 20
70.0
 30
0.0
 40
6.0
  0
LINE
  8
SIZE
  6
CONTINUOUS
 62
    30
 10
237.5
 20
1041.6568622235529
 30
0.0
 11
225.5
 21
1041.6568622235529
 31
0.0
  0
CIRCLE
  8
SIZE
  6
CONTINUOUS
 62
    30
 10
237.5
 20
1041.6568622235529
 30
0.0
 40
6.0
  0
LINE
  8
SIZE
  6
CONTINUOUS
 62
    30
 10
967.92392046683108
 20
150.0
 30
0.0
 11
967.92392046683108
 21
138.0
 31
0.0
  0
CIRCLE
  8
SIZE
  6
CONTINUOUS
 62
    30
 10
967.92392046683108
 20
150.0
 30
0.0
 40
6.0
  0
CIRCLE
  8
SIZE
  6
CONTINUOUS
 62
    30
 10
1104.767643466831
 20
205.0
 30
0.0
 40
6.0
  0
LINE
  8
SIZE
  6
CONTINUOUS
 62
    30
 10
1104.767643466831
 20
205.0
 30
0.0
 11
1104.767643466831
 21
193.0
 31
0.0
  0
LINE
  8
SIZE
  6
CONTINUOUS
 62
    30
 10
0.0
 20
-296.49377599999991
 30
0.0
 11
0.0
 21
-652.80678580463723
 31
0.0
  0
LINE
  8
SIZE
  6
CONTINUOUS
 62
    30
 10
-110.5
 20
-506.36855088435721
 30
0.0
 11
-110.5
 21
-652.80678580463723
 31
0.0
  0
LINE
  8
SIZE
  6
CONTINUOUS
 62
    30
 10
-98.5
 20
-632.80678580463723
 30
0.0
 11
-12.0
 21
-632.80678580463723
 31
0.0
  0
LINE
  8
SIZE
  6
CONTINUOUS
 62
    30
 10
0.0
 20
-632.80678580463723
 30
0.0
 11
163.48571428571449
 21
-632.80678580463723
 31
0.0
  0
CIRCLE
  8
SIZE
  6
CONTINUOUS
 62
    30
 10
-110.5
 20
-632.80678580463723
 30
0.0
 40
6.0
  0
LINE
  8
SIZE
  6
CONTINUOUS
 62
    30
 10
-110.5
 20
-632.80678580463723
 30
0.0
 11
-98.5
 21
-632.80678580463723
 31
0.0
  0
CIRCLE
  8
SIZE
  6
CONTINUOUS
 62
    30
 10
0.0
 20
-632.80678580463723
 30
0.0
 40
6.0
  0
LINE
  8
SIZE
  6
CONTINUOUS
 62
    30
 10
0.0
 20
-632.80678580463723
 30
0.0
 11
-12.0
 21
-632.80678580463723
 31
0.0
  0
TEXT
  8
SIZE
  6
CONTINUOUS
 62
    30
 10
37.000000000000107
 20
-607.80678580463723
 30
0.0
 40
64.0
  1
111
 41
0.9
 72
     1
 11
87.742857142857247
 21
-607.80678580463723
 31
0.0
  0
POINT
  8
DEFPOINTS
  6
CONTINUOUS
 62
    30
 10
0.0
 20
-276.49377599999991
 30
0.0
  0
POINT
  8
DEFPOINTS
  6
CONTINUOUS
 62
    30
 10
-110.5
 20
-486.36855088435721
 30
0.0
  0
POINT
  8
DEFPOINTS
  6
CONTINUOUS
 62
    30
 10
-110.5
 20
-632.80678580463723
 30
0.0
  0
LINE
  8
SIZE
  6
CONTINUOUS
 62
    30
 10
239.0
 20
219.0
 30
0.0
 11
1247.091804081954
 21
218.9999999999998
 31
0.0
  0
LINE
  8
SIZE
  6
CONTINUOUS
 62
    30
 10
234.0
 20
-219.0
 30
0.0
 11
1247.091804081954
 21
-219.00000000000031
 31
0.0
  0
LINE
  8
SIZE
  6
CONTINUOUS
 62
    30
 10
1227.091804081954
 20
206.9999999999998
 30
0.0
 11
1227.091804081954
 21
-207.00000000000031
 31
0.0
  0
CIRCLE
  8
SIZE
  6
CONTINUOUS
 62
    30
 10
1227.091804081954
 20
218.9999999999998
 30
0.0
 40
6.0
  0
LINE
  8
SIZE
  6
CONTINUOUS
 62
    30
 10
1227.091804081954
 20
218.9999999999998
 30
0.0
 11
1227.091804081954
 21
206.9999999999998
 31
0.0
  0
CIRCLE
  8
SIZE
  6
CONTINUOUS
 62
    30
 10
1227.091804081954
 20
-219.00000000000031
 30
0.0
 40
6.0
  0
LINE
  8
SIZE
  6
CONTINUOUS
 62
    30
 10
1227.091804081954
 20
-219.00000000000031
 30
0.0
 11
1227.091804081954
 21
-207.00000000000031
 31
0.0
  0
TEXT
  8
SIZE
  6
CONTINUOUS
 62
    30
 10
1202.091804081954
 20
-74.057142857143191
 30
0.0
 40
64.0
  1
438
 50
90.0
 41
0.9
 72
     1
 11
1202.091804081954
 21
-0.0000000000003411
 31
0.0
  0
POINT
  8
DEFPOINTS
  6
CONTINUOUS
 62
    30
 10
219.0
 20
219.0
 30
0.0
  0
POINT
  8
DEFPOINTS
  6
CONTINUOUS
 62
    30
 10
214.0
 20
-219.0
 30
0.0
  0
POINT
  8
DEFPOINTS
  6
CONTINUOUS
 62
    30
 10
1227.091804081954
 20
-219.00000000000031
 30
0.0
  0
LINE
  8
SIZE
  6
CONTINUOUS
 62
    30
 10
-219.0
 20
239.0
 30
0.0
 11
-219.0
 21
930.34130982313809
 31
0.0
  0
LINE
  8
SIZE
  6
CONTINUOUS
 62
    30
 10
219.0
 20
239.0
 30
0.0
 11
219.0
 21
930.34130982313809
 31
0.0
  0
LINE
  8
SIZE
  6
CONTINUOUS
 62
    30
 10
-207.0
 20
910.34130982313809
 30
0.0
 11
207.0
 21
910.34130982313809
 31
0.0
  0
CIRCLE
  8
SIZE
  6
CONTINUOUS
 62
    30
 10
-219.0
 20
910.34130982313809
 30
0.0
 40
6.0
  0
LINE
  8
SIZE
  6
CONTINUOUS
 62
    30
 10
-219.0
 20
910.34130982313809
 30
0.0
 11
-207.0
 21
910.34130982313809
 31
0.0
  0
CIRCLE
  8
SIZE
  6
CONTINUOUS
 62
    30
 10
219.0
 20
910.34130982313809
 30
0.0
 40
6.0
  0
LINE
  8
SIZE
  6
CONTINUOUS
 62
    30
 10
219.0
 20
910.34130982313809
 30
0.0
 11
207.0
 21
910.34130982313809
 31
0.0
  0
TEXT
  8
SIZE
  6
CONTINUOUS
 62
    30
 10
-74.05714285714285
 20
935.34130982313809
 30
0.0
 40
64.0
  1
438
 41
0.9
 72
     1
 11
0.0
 21
935.34130982313809
 31
0.0
  0
POINT
  8
DEFPOINTS
  6
CONTINUOUS
 62
    30
 10
-219.0
 20
219.0
 30
0.0
  0
POINT
  8
DEFPOINTS
  6
CONTINUOUS
 62
    30
 10
219.0
 20
219.0
 30
0.0
  0
POINT
  8
DEFPOINTS
  6
CONTINUOUS
 62
    30
 10
219.0
 20
910.34130982313809
 30
0.0
  0
LINE
  8
SIZE
  6
CONTINUOUS
 62
    30
 10
-487.91901840353972
 20
346.89206907474272
 30
0.0
 11
-13.584123741984969
 21
37.337850883247476
 31
0.0
  0
LINE
  8
SIZE
  6
CONTINUOUS
 62
    30
 10
88.584123741984968
 20
-29.33785088324748
 30
0.0
 11
98.633459560080155
 21
-35.896116630771417
 31
0.0
  0
TEXT
  8
SIZE
  6
CONTINUOUS
 62
    30
 10
-465.26420190467371
 20
361.96009901025201
 30
0.0
 40
64.0
  1
φ98
 50
326.87125676830112
 41
0.9
 72
     1
 11
-392.44958580556022
 21
314.44077919390662
 31
0.0
  0
LINE
  8
SIZE
  6
CONTINUOUS
 62
    30
 10
78.53478792388978
 20
-22.77958513572344
 30
0.0
 11
-3.5347879238897799
 21
30.77958513572344
 31
0.0
  0
CIRCLE
  8
SIZE
  6
CONTINUOUS
 62
    30
 10
78.53478792388978
 20
-22.77958513572344
 30
0.0
 40
6.0
  0
LINE
  8
SIZE
  6
CONTINUOUS
 62
    30
 10
78.53478792388978
 20
-22.77958513572344
 30
0.0
 11
88.584123741984968
 21
-29.33785088324748
 31
0.0
  0
CIRCLE
  8
SIZE
  6
CONTINUOUS
 62
    30
 10
-3.5347879238897799
 20
30.77958513572344
 30
0.0
 40
6.0
  0
LINE
  8
SIZE
  6
CONTINUOUS
 62
    30
 10
-3.5347879238897799
 20
30.77958513572344
 30
0.0
 11
-13.584123741984969
 21
37.337850883247476
 31
0.0
  0
POINT
  8
DEFPOINTS
  6
CONTINUOUS
 62
    30
 10
-3.5347879238897799
 20
30.77958513572344
 30
0.0
  0
POINT
  8
DEFPOINTS
  6
CONTINUOUS
 62
    30
 10
78.53478792388978
 20
-22.77958513572344
 30
0.0
  0
LINE
  8
SIZE
  6
CONTINUOUS
 62
    30
 10
-193.0
 20
-213.0
 30
0.0
 11
-193.0
 21
-522.88632548867406
 31
0.0
  0
LINE
  8
SIZE
  6
CONTINUOUS
 62
    30
 10
-203.5
 20
-216.0
 30
0.0
 11
-203.5
 21
-522.88632548867406
 31
0.0
  0
LINE
  8
SIZE
  6
CONTINUOUS
 62
    30
 10
-181.0
 20
-502.88632548867372
 30
0.0
 11
-169.0
 21
-502.88632548867372
 31
0.0
  0
LINE
  8
SIZE
  6
CONTINUOUS
 62
    30
 10
-215.5
 20
-502.88632548867372
 30
0.0
 11
-376.55714285714288
 21
-502.88632548867372
 31
0.0
  0
LINE
  8
SIZE
  6
CONTINUOUS
 62
    30
 10
-193.0
 20
-502.88632548867372
 30
0.0
 11
-203.5
 21
-502.88632548867372
 31
0.0
  0
CIRCLE
  8
SIZE
  6
CONTINUOUS
 62
    30
 10
-193.0
 20
-502.88632548867372
 30
0.0
 40
6.0
  0
LINE
  8
SIZE
  6
CONTINUOUS
 62
    30
 10
-193.0
 20
-502.88632548867372
 30
0.0
 11
-181.0
 21
-502.88632548867372
 31
0.0
  0
CIRCLE
  8
SIZE
  6
CONTINUOUS
 62
    30
 10
-203.5
 20
-502.88632548867372
 30
0.0
 40
6.0
  0
LINE
  8
SIZE
  6
CONTINUOUS
 62
    30
 10
-203.5
 20
-502.88632548867372
 30
0.0
 11
-215.5
 21
-502.88632548867372
 31
0.0
  0
TEXT
  8
SIZE
  6
CONTINUOUS
 62
    30
 10
-351.55714285714282
 20
-477.88632548867372
 30
0.0
 40
64.0
  1
11
 41
0.9
 72
     1
 11
-322.75714285714281
 21
-477.88632548867372
 31
0.0
  0
POINT
  8
DEFPOINTS
  6
CONTINUOUS
 62
    30
 10
-193.0
 20
-193.0
 30
0.0
  0
POINT
  8
DEFPOINTS
  6
CONTINUOUS
 62
    30
 10
-203.5
 20
-196.0
 30
0.0
  0
POINT
  8
DEFPOINTS
  6
CONTINUOUS
 62
    30
 10
-203.5
 20
-502.88632548867372
 30
0.0
  0
LINE
  8
SIZE
  6
CONTINUOUS
 62
    30
 10
-193.0
 20
213.0
 30
0.0
 11
-193.0
 21
536.87559724663561
 31
0.0
  0
LINE
  8
SIZE
  6
CONTINUOUS
 62
    30
 10
193.0
 20
213.0
 30
0.0
 11
193.0
 21
536.87559724663561
 31
0.0
  0
LINE
  8
SIZE
  6
CONTINUOUS
 62
    30
 10
-181.0
 20
516.87559724663561
 30
0.0
 11
181.0
 21
516.87559724663561
 31
0.0
  0
CIRCLE
  8
SIZE
  6
CONTINUOUS
 62
    30
 10
-193.0
 20
516.87559724663561
 30
0.0
 40
6.0
  0
LINE
  8
SIZE
  6
CONTINUOUS
 62
    30
 10
-193.0
 20
516.87559724663561
 30
0.0
 11
-181.0
 21
516.87559724663561
 31
0.0
  0
CIRCLE
  8
SIZE
  6
CONTINUOUS
 62
    30
 10
193.0
 20
516.87559724663561
 30
0.0
 40
6.0
  0
LINE
  8
SIZE
  6
CONTINUOUS
 62
    30
 10
193.0
 20
516.87559724663561
 30
0.0
 11
181.0
 21
516.87559724663561
 31
0.0
  0
TEXT
  8
SIZE
  6
CONTINUOUS
 62
    30
 10
-109.1657142857143
 20
541.87559724663561
 30
0.0
 40
64.0
  1
□386
 41
0.9
 72
     1
 11
0.0
 21
541.87559724663561
 31
0.0
  0
POINT
  8
DEFPOINTS
  6
CONTINUOUS
 62
    30
 10
-193.0
 20
193.0
 30
0.0
  0
POINT
  8
DEFPOINTS
  6
CONTINUOUS
 62
    30
 10
193.0
 20
193.0
 30
0.0
  0
POINT
  8
DEFPOINTS
  6
CONTINUOUS
 62
    30
 10
193.0
 20
516.87559724663561
 30
0.0
  0
LINE
  8
OUTLINE
  6
CONTINUOUS
 62
     3
 10
-182.5
 20
-335.0
 30
0.0
 11
-182.5
 21
-308.0
 31
0.0
  0
LINE
  8
OUTLINE
  6
CONTINUOUS
 62
     3
 10
-38.5
 20
-335.0
 30
0.0
 11
-38.5
 21
-308.0
 31
0.0
  0
LINE
  8
OUTLINE
  6
CONTINUOUS
 62
     3
 10
-182.5
 20
-335.0
 30
0.0
 11
-38.5
 21
-335.0
 31
0.0
  0
LINE
  8
OUTLINE
  6
CONTINUOUS
 62
     3
 10
-190.5
 20
-278.0
 30
0.0
 11
-30.5
 21
-278.0
 31
0.0
  0
LINE
  8
OUTLINE
  6
CONTINUOUS
 62
     3
 10
-186.5
 20
-308.0
 30
0.0
 11
-34.5
 21
-308.0
 31
0.0
  0
LINE
  8
OUTLINE
  6
CONTINUOUS
 62
     3
 10
-190.5
 20
-278.0
 30
0.0
 11
-190.5
 21
-237.5
 31
0.0
  0
LINE
  8
OUTLINE
  6
CONTINUOUS
 62
     3
 10
-186.5
 20
-308.0
 30
0.0
 11
-186.5
 21
-278.0
 31
0.0
  0
LINE
  8
OUTLINE
  6
CONTINUOUS
 62
     3
 10
-30.5
 20
-278.0
 30
0.0
 11
-30.5
 21
-237.5
 31
0.0
  0
LINE
  8
OUTLINE
  6
CONTINUOUS
 62
     3
 10
-34.5
 20
-308.0
 30
0.0
 11
-34.5
 21
-278.0
 31
0.0
  0
ENDSEC
  0
EOF
