  0
SECTION
  2
HEADER
  9
$ACADVER
  1
AC1009
  9
$DWGCODEPAGE
  3
dos932
  9
$INSBASE
 10
0.0
 20
0.0
 30
0.0
  9
$EXTMIN
 10
-954.86295989815153
 20
-821.91466158478943
 30
-0.0015258207003583
  9
$EXTMAX
 10
1181.456005400343
 20
1020.263680396909
 30
0.0000000349246037
  9
$LIMMIN
 10
-2970.0
 20
-2100.0
  9
$LIMMAX
 10
2970.0
 20
2100.0
  9
$ORTHOMODE
 70
     1
  9
$REGENMODE
 70
     1
  9
$FILLMODE
 70
     1
  9
$QTEXTMODE
 70
     0
  9
$MIRRTEXT
 70
     0
  9
$LTSCALE
 40
20.0
  9
$ATTMODE
 70
     1
  9
$TEXTSIZE
 40
64.0
  9
$TRACEWID
 40
0.05
  9
$TEXTSTYLE
  7
STANDARD
  9
$CLAYER
  8
SIZE
  9
$CELTYPE
  6
CONTINUOUS
  9
$CECOLOR
 62
     7
  9
$DIMSCALE
 40
1.0
  9
$DIMASZ
 40
12.0
  9
$DIMEXO
 40
20.0
  9
$DIMDLI
 40
200.0
  9
$DIMRND
 40
0.0
  9
$DIMDLE
 40
0.0
  9
$DIMEXE
 40
20.0
  9
$DIMTP
 40
0.0
  9
$DIMTM
 40
0.0
  9
$DIMTXT
 40
64.0
  9
$DIMCEN
 40
0.09
  9
$DIMTSZ
 40
0.0
  9
$DIMTOL
 70
     0
  9
$DIMLIM
 70
     0
  9
$DIMTIH
 70
     0
  9
$DIMTOH
 70
     0
  9
$DIMSE1
 70
     0
  9
$DIMSE2
 70
     0
  9
$DIMTAD
 70
     1
  9
$DIMZIN
 70
     8
  9
$DIMBLK
  1

  9
$DIMASO
 70
     1
  9
$DIMSHO
 70
     0
  9
$DIMPOST
  1

  9
$DIMAPOST
  1

  9
$DIMALT
 70
     0
  9
$DIMALTD
 70
     2
  9
$DIMALTF
 40
25.399999999999999
  9
$DIMLFAC
 40
1.0
  9
$DIMTOFL
 70
     1
  9
$DIMTVP
 40
0.0
  9
$DIMTIX
 70
     1
  9
$DIMSOXD
 70
     0
  9
$DIMSAH
 70
     0
  9
$DIMBLK1
  1

  9
$DIMBLK2
  1

  9
$DIMSTYLE
  2
STANDARD
  9
$DIMCLRD
 70
     7
  9
$DIMCLRE
 70
     7
  9
$DIMCLRT
 70
     7
  9
$DIMTFAC
 40
1.0
  9
$DIMGAP
 40
25.0
  9
$LUNITS
 70
     2
  9
$LUPREC
 70
     4
  9
$SKETCHINC
 40
0.1
  9
$FILLETRAD
 40
3.0
  9
$AUNITS
 70
     1
  9
$AUPREC
 70
     3
  9
$MENU
  1
ACAD
  9
$ELEVATION
 40
0.0
  9
$PELEVATION
 40
0.0
  9
$THICKNESS
 40
0.0
  9
$LIMCHECK
 70
     0
  9
$CHAMFERA
 40
0.0
  9
$CHAMFERB
 40
0.0
  9
$SKPOLY
 70
     0
  9
$TDCREATE
 40
2453019.62301037
  9
$TDUPDATE
 40
2459025.521493704
  9
$TDINDWG
 40
1.7137659838
  9
$TDUSRTIMER
 40
1.7137659838
  9
$USRTIMER
 70
     1
  9
$ANGBASE
 50
0.0
  9
$ANGDIR
 70
     0
  9
$PDMODE
 70
     3
  9
$PDSIZE
 40
-2.0
  9
$PLINEWID
 40
0.0
  9
$SPLFRAME
 70
     0
  9
$SPLINETYPE
 70
     6
  9
$SPLINESEGS
 70
     8
  9
$SURFTAB1
 70
     6
  9
$SURFTAB2
 70
     6
  9
$SURFTYPE
 70
     6
  9
$SURFU
 70
     6
  9
$SURFV
 70
     6
  9
$UCSNAME
  2

  9
$UCSORG
 10
0.0
 20
0.0
 30
0.0
  9
$UCSXDIR
 10
1.0
 20
0.0
 30
0.0
  9
$UCSYDIR
 10
0.0
 20
1.0
 30
0.0
  9
$PUCSNAME
  2

  9
$PUCSORG
 10
0.0
 20
0.0
 30
0.0
  9
$PUCSXDIR
 10
1.0
 20
0.0
 30
0.0
  9
$PUCSYDIR
 10
0.0
 20
1.0
 30
0.0
  9
$USERI1
 70
     0
  9
$USERI2
 70
     0
  9
$USERI3
 70
     0
  9
$USERI4
 70
     0
  9
$USERI5
 70
     0
  9
$USERR1
 40
20.0
  9
$USERR2
 40
0.0
  9
$USERR3
 40
0.0
  9
$USERR4
 40
0.0
  9
$USERR5
 40
0.0
  9
$WORLDVIEW
 70
     1
  9
$SHADEDGE
 70
     3
  9
$SHADEDIF
 70
    70
  9
$TILEMODE
 70
     1
  9
$MAXACTVP
 70
    48
  9
$PINSBASE
 10
0.0
 20
0.0
 30
0.0
  9
$PLIMCHECK
 70
     0
  9
$PEXTMIN
 10
-100000000000000000000.0
 20
-100000000000000000000.0
 30
-100000000000000000000.0
  9
$PEXTMAX
 10
100000000000000000000.0
 20
100000000000000000000.0
 30
100000000000000000000.0
  9
$PLIMMIN
 10
0.0
 20
0.0
  9
$PLIMMAX
 10
12.0
 20
9.0
  9
$UNITMODE
 70
     0
  9
$VISRETAIN
 70
     0
  9
$PLINEGEN
 70
     0
  9
$PSLTSCALE
 70
     0
  9
$TREEDEPTH
 70
  3020
  9
$ATTDIA
 70
     0
  9
$ATTREQ
 70
     1
  9
$BLIPMODE
 70
     1
  9
$COORDS
 70
     1
  9
$DRAGMODE
 70
     2
  9
$OSMODE
 70
     0
  9
$HANDLING
 70
     0
  9
$HANDSEED
  5
EF1C
  0
ENDSEC
  0
SECTION
  2
TABLES
  0
TABLE
  2
LTYPE
 70
     2
  0
LTYPE
  2
CONTINUOUS
 70
     0
  3
実線
 72
    65
 73
     0
 40
0.0
  0
LTYPE
  2
DASHDOT
 70
     0
  3
____ _ ____ _ ____ _ ____ _ ____ _ ____ _ ____
 72
    65
 73
     4
 40
5.5
 49
4.0
 49
-0.6
 49
0.3
 49
-0.6
  0
ENDTAB
  0
TABLE
  2
LAYER
 70
    12
  0
LAYER
  2
0
 70
     0
 62
     7
  6
CONTINUOUS
  0
LAYER
  2
BASIS
 70
     0
 62
     6
  6
DASHDOT
  0
LAYER
  2
OUTLINE
 70
     0
 62
     3
  6
CONTINUOUS
  0
LAYER
  2
DETAIL
 70
     0
 62
     5
  6
CONTINUOUS
  0
LAYER
  2
SIZE
 70
     0
 62
    30
  6
CONTINUOUS
  0
LAYER
  2
ARRANGE
 70
     0
 62
     1
  6
CONTINUOUS
  0
LAYER
  2
DEFPOINTS
 70
     0
 62
     7
  6
CONTINUOUS
  0
LAYER
  2
ETC
 70
     0
 62
    61
  6
CONTINUOUS
  0
LAYER
  2
FIX
 70
     0
 62
    11
  6
CONTINUOUS
  0
LAYER
  2
NOTE
 70
     0
 62
     4
  6
CONTINUOUS
  0
LAYER
  2
SERVICESPACE
 70
    64
 62
     2
  6
DASHDOT
  0
LAYER
  2
SYMBOLLINE
 70
    64
 62
    15
  6
CONTINUOUS
  0
ENDTAB
  0
TABLE
  2
STYLE
 70
     1
  0
STYLE
  2
STANDARD
 70
     0
 40
64.0
 41
0.9
 50
0.0
 71
     0
 42
64.0
  3
SIMPLEX.shx
  4
BIGFONT.shx
  0
ENDTAB
  0
TABLE
  2
APPID
 70
    19
  0
APPID
  2
ACAD
 70
     0
  0
APPID
  2
AUTOCAD_POSTSCRIPT_FIGURE
 70
     0
  0
APPID
  2
ACAD_EXEMPT_FROM_CAD_STANDARDS
 70
     0
  0
APPID
  2
ACAD_PSEXT
 70
     0
  0
APPID
  2
ACAUTHENVIRON
 70
     0
  0
APPID
  2
GENIUS_GENOENT_13
 70
     0
  0
APPID
  2
GENIUS_GENCFG_13
 70
     0
  0
APPID
  2
GENIUS_GENCFG0_13
 70
     0
  0
APPID
  2
GENIUS_GENCFG1_13
 70
     0
  0
APPID
  2
GENIUS_GENCFG2_13
 70
     0
  0
APPID
  2
GENIUS_GENCFG3_13
 70
     0
  0
APPID
  2
GENIUS_GENCFG4_13
 70
     0
  0
APPID
  2
GENIUS_GEVCFG0_13
 70
     0
  0
APPID
  2
CONTENTBLOCKICON
 70
     0
  0
APPID
  2
CONTENTBLOCKDESCRIPTION
 70
     0
  0
APPID
  2
ACAD_NAV_VCDISPLAY
 70
     0
  0
APPID
  2
ACAD_MLEADERVER
 70
     0
  0
APPID
  2
ACDBDYNAMICBLOCKTRUENAME
 70
     0
  0
APPID
  2
ACDBDYNAMICBLOCKGUID
 70
     0
  0
ENDTAB
  0
TABLE
  2
DIMSTYLE
 70
     1
  0
DIMSTYLE
  2
STANDARD
 70
     0
  3

  4

  5
_ORIGIN
  6

  7

 40
1.0
 41
12.0
 42
20.0
 43
200.0
 44
20.0
 45
0.0
 46
0.0
 47
0.0
 48
0.0
140
64.0
141
0.09
142
0.0
143
25.399999999999999
144
1.0
145
0.0
146
1.0
147
25.0
 71
     0
 72
     0
 73
     0
 74
     0
 75
     0
 76
     0
 77
     1
 78
     8
170
     0
171
     2
172
     1
173
     0
174
     1
175
     0
176
     7
177
     7
178
     7
  0
ENDTAB
  0
TABLE
  2
VIEW
 70
     1
  0
VIEW
  2
ALL
 70
     0
 40
4282.6198079999986
 10
0.0
 20
41.309904000000003
 41
5940.0
 11
0.0
 21
0.0
 31
1.0
 12
0.0
 22
0.0
 32
0.0
 42
50.0
 43
0.0
 44
0.0
 50
0.0
 71
     0
  0
ENDTAB
  0
TABLE
  2
UCS
 70
     0
  0
ENDTAB
  0
TABLE
  2
VPORT
 70
     1
  0
VPORT
  2
*ACTIVE
 70
     0
 10
0.0
 20
0.0
 11
1.0
 21
1.0
 12
113.29652275109579
 22
99.174509406059656
 13
0.0
 23
0.0
 14
1.0
 24
1.0
 15
0.0
 25
0.0
 16
0.0
 26
0.0
 36
1.0
 17
0.0
 27
0.0
 37
0.0
 40
1854.39167905561
 41
1.747787610619469
 42
50.0
 43
0.0
 44
0.0
 50
0.0
 51
0.0
 71
     0
 72
  1000
 73
     1
 74
     3
 75
     0
 76
     0
 77
     0
 78
     0
  0
ENDTAB
  0
ENDSEC
  0
SECTION
  2
BLOCKS
  0
BLOCK
  8
0
  2
_ORIGIN
 70
     0
 10
0.0
 20
0.0
 30
0.0
  3
_ORIGIN
  1
_ORIGIN
  0
CIRCLE
  8
0
  6
CONTINUOUS
 62
     7
 10
0.0
 20
0.0
 30
0.0
 40
0.5
  0
LINE
  8
0
  6
CONTINUOUS
 62
     7
 10
0.0
 20
0.0
 30
0.0
 11
-1.0
 21
0.0
 31
0.0
  0
ENDBLK
  8
0
  0
ENDSEC
  0
SECTION
  2
ENTITIES
  0
TEXT
  8
ETC
  6
CONTINUOUS
 62
    61
 10
321.09709649629173
 20
943.47342267480803
 30
0.0
 40
64.0
  1
VD-23ZVX6-FP_1
 41
0.9
  0
TEXT
  8
ETC
  6
CONTINUOUS
 62
    61
 10
316.91110249629128
 20
825.51811265997685
 30
0.0
 40
64.0
  1
換気扇
 41
0.9
  0
TEXT
  8
ETC
  6
CONTINUOUS
 62
    61
 10
367.51860514854798
 20
717.68233262042941
 30
0.0
 40
40.0
  1
VD-23ZVX6-FP
 41
0.9
  0
LINE
  8
OUTLINE
  6
CONTINUOUS
 62
     3
 10
-234.0
 20
235.0
 30
0.0
 11
234.0
 21
235.0
 31
0.0
  0
LINE
  8
OUTLINE
  6
CONTINUOUS
 62
     3
 10
-30.5
 20
-235.0
 30
0.0
 11
234.0
 21
-235.0
 31
0.0
  0
POINT
  8
ARRANGE
  6
CONTINUOUS
 62
     1
 10
0.0
 20
0.0
 30
0.0
  0
CIRCLE
  8
ARRANGE
  6
CONTINUOUS
 62
     1
 10
0.0
 20
0.0
 30
0.0
 40
40.0
  0
CIRCLE
  8
DETAIL
  6
CONTINUOUS
 62
     5
 10
37.5
 20
4.0
 30
0.0
 40
49.0
  0
LINE
  8
DETAIL
  6
CONTINUOUS
 62
     5
 10
-30.5
 20
-219.0
 30
0.0
 11
219.0
 21
-219.0
 31
0.0
  0
LINE
  8
DETAIL
  6
CONTINUOUS
 62
     5
 10
-219.0
 20
219.0
 30
0.0
 11
219.0
 21
219.0
 31
0.0
  0
TEXT
  8
SIZE
  6
CONTINUOUS
 62
    30
 10
-110.5371428571429
 20
956.22951210878819
 30
0.0
 40
64.0
  1
□470
 41
0.9
 72
     1
 11
0.0
 21
956.22951210878819
 31
0.0
  0
LINE
  8
SIZE
  6
CONTINUOUS
 62
    30
 10
223.0
 20
931.22951210878819
 30
0.0
 11
-223.0
 21
931.22951210878819
 31
0.0
  0
LINE
  8
DETAIL
  6
CONTINUOUS
 62
     5
 10
-234.0
 20
235.0
 30
0.0
 11
234.0
 21
235.0
 31
0.0
  0
LINE
  8
DETAIL
  6
CONTINUOUS
 62
     5
 10
-30.5
 20
-235.0
 30
0.0
 11
234.0
 21
-235.0
 31
0.0
  0
TEXT
  8
SIZE
  6
CONTINUOUS
 62
    30
 10
-74.05714285714285
 20
831.43681110878833
 30
0.0
 40
64.0
  1
438
 41
0.9
 72
     1
 11
0.0
 21
831.43681110878833
 31
0.0
  0
LINE
  8
SIZE
  6
CONTINUOUS
 62
    30
 10
207.0
 20
806.43681110878833
 30
0.0
 11
-207.0
 21
806.43681110878833
 31
0.0
  0
TEXT
  8
SIZE
  6
CONTINUOUS
 62
    30
 10
-68.571428571428555
 20
696.27756210878852
 30
0.0
 40
64.0
  1
418
 41
0.9
 72
     1
 11
0.0
 21
696.27756210878852
 31
0.0
  0
LINE
  8
SIZE
  6
CONTINUOUS
 62
    30
 10
197.0
 20
671.27756210878852
 30
0.0
 11
-197.0
 21
671.27756210878852
 31
0.0
  0
TEXT
  8
SIZE
  6
CONTINUOUS
 62
    30
 10
-68.571428571428555
 20
556.06508683904462
 30
0.0
 40
64.0
  1
410
 41
0.9
 72
     1
 11
0.0
 21
556.06508683904462
 31
0.0
  0
LINE
  8
SIZE
  6
CONTINUOUS
 62
    30
 10
-193.0
 20
530.62014707024809
 30
0.0
 11
193.0
 21
530.62014707024809
 31
0.0
  0
TEXT
  8
SIZE
  6
CONTINUOUS
 62
    30
 10
-74.05714285714285
 20
406.33808683904482
 30
0.0
 40
64.0
  1
300
 41
0.9
 72
     1
 11
0.0
 21
406.33808683904482
 31
0.0
  0
LINE
  8
SIZE
  6
CONTINUOUS
 62
    30
 10
-138.0
 20
385.48114707024803
 30
0.0
 11
138.0
 21
385.48114707024803
 31
0.0
  0
LINE
  8
DETAIL
  6
CONTINUOUS
 62
     5
 10
-193.0
 20
-193.0
 30
0.0
 11
193.0
 21
-193.0
 31
0.0
  0
LINE
  8
DETAIL
  6
CONTINUOUS
 62
     5
 10
-193.0
 20
193.0
 30
0.0
 11
193.0
 21
193.0
 31
0.0
  0
LINE
  8
BASIS
  6
DASHDOT
 62
     6
 10
-274.00587199999973
 20
0.0
 30
0.0
 11
274.2173600000001
 21
0.0
 31
0.0
  0
TEXT
  8
SIZE
  6
CONTINUOUS
 62
    30
 10
-888.18115500000022
 20
-109.1657142857143
 30
0.0
 40
64.0
  1
□386
 50
90.0
 41
0.9
 72
     1
 11
-888.18115500000022
 21
0.0
 31
0.0
  0
LINE
  8
SIZE
  6
CONTINUOUS
 62
    30
 10
-863.18115500000022
 20
181.0
 30
0.0
 11
-863.18115500000022
 21
-181.0
 31
0.0
  0
LINE
  8
OUTLINE
  6
CONTINUOUS
 62
     3
 10
-234.0
 20
-235.0
 30
0.0
 11
-190.5
 21
-235.0
 31
0.0
  0
TEXT
  8
SIZE
  6
CONTINUOUS
 62
    30
 10
-890.69700000000012
 20
-491.17499257142862
 30
0.0
 40
64.0
  1
142
 50
90.0
 41
0.9
 72
     1
 11
-890.69700000000012
 21
-422.60356400000001
 31
0.0
  0
LINE
  8
SIZE
  6
CONTINUOUS
 62
    30
 10
-205.0
 20
190.0
 30
0.0
 11
-205.0
 21
550.62014707024809
 31
0.0
  0
LINE
  8
SIZE
  6
CONTINUOUS
 62
    30
 10
-150.0
 20
245.0
 30
0.0
 11
-150.0
 21
405.48114707024803
 31
0.0
  0
LINE
  8
SIZE
  6
CONTINUOUS
 62
    30
 10
-187.21122999999989
 20
-327.60827399999988
 30
0.0
 11
-187.21122999999989
 21
-821.86764700000003
 31
0.0
  0
LINE
  8
SIZE
  6
CONTINUOUS
 62
    30
 10
-35.211229999999887
 20
-327.60827399999988
 30
0.0
 11
-35.211229999999887
 21
-821.86764700000003
 31
0.0
  0
CIRCLE
  8
SIZE
  6
CONTINUOUS
 62
    30
 10
-183.0
 20
-660.18595500000004
 30
0.0
 40
6.0
  0
CIRCLE
  8
SIZE
  6
CONTINUOUS
 62
    30
 10
-39.0
 20
-660.18595500000004
 30
0.0
 40
6.0
  0
LINE
  8
SIZE
  6
CONTINUOUS
 62
    30
 10
-183.0
 20
-355.0
 30
0.0
 11
-183.0
 21
-680.18595500000004
 31
0.0
  0
LINE
  8
SIZE
  6
CONTINUOUS
 62
    30
 10
-39.0
 20
-355.0
 30
0.0
 11
-39.0
 21
-680.18595500000004
 31
0.0
  0
LINE
  8
SIZE
  6
CONTINUOUS
 62
    30
 10
-205.0
 20
530.62014707024809
 30
0.0
 11
-193.0
 21
530.62014707024809
 31
0.0
  0
CIRCLE
  8
SIZE
  6
CONTINUOUS
 62
    30
 10
-205.0
 20
530.62014707024809
 30
0.0
 40
6.0
  0
LINE
  8
SIZE
  6
CONTINUOUS
 62
    30
 10
-150.0
 20
385.48114707024803
 30
0.0
 11
-138.0
 21
385.48114707024803
 31
0.0
  0
CIRCLE
  8
SIZE
  6
CONTINUOUS
 62
    30
 10
-150.0
 20
385.48114707024803
 30
0.0
 40
6.0
  0
LINE
  8
SIZE
  6
CONTINUOUS
 62
    30
 10
-183.2112299999994
 20
-660.18595500000004
 30
0.0
 11
-446.36528300000009
 21
-660.18595500000004
 31
0.0
  0
LINE
  8
SIZE
  6
CONTINUOUS
 62
    30
 10
-191.21122999999989
 20
-801.86764699999981
 30
0.0
 11
-446.94879500000019
 21
-801.86764699999981
 31
0.0
  0
LINE
  8
SIZE
  6
CONTINUOUS
 62
    30
 10
-452.82630499999999
 20
-801.86764699999981
 30
0.0
 11
-187.21122999999989
 21
-801.86764699999981
 31
0.0
  0
LINE
  8
SIZE
  6
CONTINUOUS
 62
    30
 10
-454.8284679999997
 20
-660.18595500000004
 30
0.0
 11
-183.0
 21
-660.18595500000004
 31
0.0
  0
TEXT
  8
SIZE
  6
CONTINUOUS
 62
    30
 10
-439.34630557142867
 20
-776.86764699999981
 30
0.0
 40
64.0
  1
φ152
 41
0.9
 72
     1
 11
-330.45487700000012
 21
-776.86764699999981
 31
0.0
  0
LINE
  8
SIZE
  6
CONTINUOUS
 62
    30
 10
-47.211229999999887
 20
-801.86764699999981
 30
0.0
 11
-175.2112299999994
 21
-801.86764699999981
 31
0.0
  0
LINE
  8
SIZE
  6
CONTINUOUS
 62
    30
 10
-51.0
 20
-660.18595500000004
 30
0.0
 11
-171.0
 21
-660.18595500000004
 31
0.0
  0
LINE
  8
SIZE
  6
CONTINUOUS
 62
    30
 10
-187.21122999999989
 20
-801.86764699999981
 30
0.0
 11
-175.2112299999994
 21
-801.86764699999981
 31
0.0
  0
CIRCLE
  8
SIZE
  6
CONTINUOUS
 62
    30
 10
-187.21122999999989
 20
-801.86764699999981
 30
0.0
 40
6.0
  0
LINE
  8
SIZE
  6
CONTINUOUS
 62
    30
 10
-183.0
 20
-660.18595500000004
 30
0.0
 11
-171.0
 21
-660.18595500000004
 31
0.0
  0
LINE
  8
SIZE
  6
CONTINUOUS
 62
    30
 10
-35.211229999999887
 20
-801.86764699999981
 30
0.0
 11
-47.211229999999887
 21
-801.86764699999981
 31
0.0
  0
CIRCLE
  8
SIZE
  6
CONTINUOUS
 62
    30
 10
-35.211229999999887
 20
-801.86764699999981
 30
0.0
 40
6.0
  0
LINE
  8
SIZE
  6
CONTINUOUS
 62
    30
 10
-39.0
 20
-660.18595500000004
 30
0.0
 11
-51.0
 21
-660.18595500000004
 31
0.0
  0
LINE
  8
SIZE
  6
CONTINUOUS
 62
    30
 10
-213.0
 20
-193.0
 30
0.0
 11
-883.18115500000022
 21
-193.0
 31
0.0
  0
LINE
  8
SIZE
  6
CONTINUOUS
 62
    30
 10
-210.5
 20
-278.0
 30
0.0
 11
-767.81560300000001
 21
-278.0
 31
0.0
  0
LINE
  8
SIZE
  6
CONTINUOUS
 62
    30
 10
-202.5
 20
-335.0
 30
0.0
 11
-767.81560300000001
 21
-335.0
 31
0.0
  0
LINE
  8
SIZE
  6
CONTINUOUS
 62
    30
 10
-206.5
 20
-308.0
 30
0.0
 11
-639.13730399999963
 21
-308.0
 31
0.0
  0
LINE
  8
SIZE
  6
CONTINUOUS
 62
    30
 10
-202.5
 20
-335.0
 30
0.0
 11
-639.13730399999963
 21
-335.0
 31
0.0
  0
LINE
  8
SIZE
  6
CONTINUOUS
 62
    30
 10
-202.5
 20
-335.0
 30
0.0
 11
-883.18115500000022
 21
-335.0
 31
0.0
  0
LINE
  8
SIZE
  6
CONTINUOUS
 62
    30
 10
-198.5
 20
-193.0
 30
0.0
 11
-883.18115500000022
 21
-193.0
 31
0.0
  0
LINE
  8
SIZE
  6
CONTINUOUS
 62
    30
 10
-747.81560300000001
 20
-335.0
 30
0.0
 11
-747.81560300000001
 21
-278.0
 31
0.0
  0
LINE
  8
SIZE
  6
CONTINUOUS
 62
    30
 10
-747.81560300000001
 20
-335.0
 30
0.0
 11
-747.81560300000001
 21
-278.0
 31
0.0
  0
LINE
  8
SIZE
  6
CONTINUOUS
 62
    30
 10
-619.13730399999986
 20
-335.0
 30
0.0
 11
-619.13730399999986
 21
-308.0
 31
0.0
  0
LINE
  8
SIZE
  6
CONTINUOUS
 62
    30
 10
-619.13730399999986
 20
-335.0
 30
0.0
 11
-619.13730399999986
 21
-308.0
 31
0.0
  0
LINE
  8
SIZE
  6
CONTINUOUS
 62
    30
 10
-863.18115500000022
 20
-335.0
 30
0.0
 11
-863.18115500000022
 21
-323.0
 31
0.0
  0
LINE
  8
SIZE
  6
CONTINUOUS
 62
    30
 10
-863.18115500000022
 20
-317.5
 30
0.0
 11
-863.18115500000022
 21
-507.079835
 31
0.0
  0
LINE
  8
SIZE
  6
CONTINUOUS
 62
    30
 10
-747.81560300000001
 20
-319.5
 30
0.0
 11
-747.81560300000001
 21
-468.69194499999992
 31
0.0
  0
LINE
  8
SIZE
  6
CONTINUOUS
 62
    30
 10
-619.13730399999986
 20
-323.49999999999972
 30
0.0
 11
-619.13730399999986
 21
-466.13275299999998
 31
0.0
  0
TEXT
  8
SIZE
  6
CONTINUOUS
 62
    30
 10
-647.22490900000003
 20
-454.49669242857141
 30
0.0
 40
64.0
  1
27
 50
90.0
 41
0.9
 72
     1
 11
-647.22490900000003
 21
-407.86812099999997
 31
0.0
  0
TEXT
  8
SIZE
  6
CONTINUOUS
 62
    30
 10
-762.07022499999994
 20
-455.28610942857142
 30
0.0
 40
64.0
  1
57
 50
90.0
 41
0.9
 72
     1
 11
-762.07022499999994
 21
-408.65753799999987
 31
0.0
  0
CIRCLE
  8
SIZE
  6
CONTINUOUS
 62
    30
 10
-863.18115500000022
 20
-335.0
 30
0.0
 40
6.0
  0
LINE
  8
SIZE
  6
CONTINUOUS
 62
    30
 10
-747.81560300000001
 20
-335.0
 30
0.0
 11
-747.81560300000001
 21
-347.0
 31
0.0
  0
CIRCLE
  8
SIZE
  6
CONTINUOUS
 62
    30
 10
-747.81560300000001
 20
-335.0
 30
0.0
 40
6.0
  0
LINE
  8
SIZE
  6
CONTINUOUS
 62
    30
 10
-747.81560300000001
 20
-347.0
 30
0.0
 11
-747.81560300000001
 21
-359.0
 31
0.0
  0
LINE
  8
SIZE
  6
CONTINUOUS
 62
    30
 10
-619.13730399999986
 20
-335.0
 30
0.0
 11
-619.13730399999986
 21
-347.0
 31
0.0
  0
CIRCLE
  8
SIZE
  6
CONTINUOUS
 62
    30
 10
-619.13730399999986
 20
-335.0
 30
0.0
 40
6.0
  0
LINE
  8
SIZE
  6
CONTINUOUS
 62
    30
 10
-619.13730399999986
 20
-347.0
 30
0.0
 11
-619.13730399999986
 21
-359.0
 31
0.0
  0
LINE
  8
SIZE
  6
CONTINUOUS
 62
    30
 10
-863.18115500000022
 20
-205.0
 30
0.0
 11
-863.18115500000022
 21
-323.0
 31
0.0
  0
LINE
  8
SIZE
  6
CONTINUOUS
 62
    30
 10
-863.18115500000022
 20
-193.0
 30
0.0
 11
-863.18115500000022
 21
-181.0
 31
0.0
  0
CIRCLE
  8
SIZE
  6
CONTINUOUS
 62
    30
 10
-863.18115500000022
 20
-193.0
 30
0.0
 40
6.0
  0
LINE
  8
SIZE
  6
CONTINUOUS
 62
    30
 10
-863.18115500000022
 20
-193.0
 30
0.0
 11
-863.18115500000022
 21
-205.0
 31
0.0
  0
CIRCLE
  8
SIZE
  6
CONTINUOUS
 62
    30
 10
-863.18115500000022
 20
-193.0
 30
0.0
 40
6.0
  0
CIRCLE
  8
SIZE
  6
CONTINUOUS
 62
    30
 10
-747.81560300000001
 20
-278.0
 30
0.0
 40
6.0
  0
LINE
  8
SIZE
  6
CONTINUOUS
 62
    30
 10
-619.13730399999986
 20
-308.0
 30
0.0
 11
-619.13730399999986
 21
-296.0
 31
0.0
  0
CIRCLE
  8
SIZE
  6
CONTINUOUS
 62
    30
 10
-619.13730399999986
 20
-308.0
 30
0.0
 40
6.0
  0
LINE
  8
SIZE
  6
CONTINUOUS
 62
    30
 10
-619.13730399999986
 20
-296.0
 30
0.0
 11
-619.13730399999986
 21
-284.0
 31
0.0
  0
LINE
  8
DETAIL
  6
CONTINUOUS
 62
     5
 10
-183.0
 20
-335.0
 30
0.0
 11
-183.0
 21
-308.0
 31
0.0
  0
LINE
  8
DETAIL
  6
CONTINUOUS
 62
     5
 10
-39.0
 20
-335.0
 30
0.0
 11
-39.0
 21
-308.0
 31
0.0
  0
TEXT
  8
SIZE
  6
CONTINUOUS
 62
    30
 10
-440.84846814285709
 20
-635.18595500000004
 30
0.0
 40
64.0
  1
φ144
 41
0.9
 72
     1
 11
-330.58561099999997
 21
-635.18595500000004
 31
0.0
  0
LINE
  8
DETAIL
  6
CONTINUOUS
 62
     5
 10
-183.0
 20
-335.0
 30
0.0
 11
-39.0
 21
-335.0
 31
0.0
  0
TEXT
  8
NOTE
  6
CONTINUOUS
 62
     4
 10
-162.21950000000021
 20
-437.36048199999988
 30
0.0
 40
64.0
  1
EA
 41
0.9
  0
LINE
  8
OUTLINE
  6
CONTINUOUS
 62
     3
 10
-190.5
 20
-235.0
 30
0.0
 11
-30.5
 21
-235.0
 31
0.0
  0
LINE
  8
DETAIL
  6
CONTINUOUS
 62
     5
 10
-204.5
 20
-193.0
 30
0.0
 11
-18.5
 21
-193.0
 31
0.0
  0
LINE
  8
DETAIL
  6
CONTINUOUS
 62
     5
 10
-204.5
 20
-196.0
 30
0.0
 11
-18.5
 21
-196.0
 31
0.0
  0
LINE
  8
DETAIL
  6
CONTINUOUS
 62
     5
 10
-191.0
 20
-278.0
 30
0.0
 11
-31.0
 21
-278.0
 31
0.0
  0
LINE
  8
DETAIL
  6
CONTINUOUS
 62
     5
 10
-187.0
 20
-308.0
 30
0.0
 11
-35.0
 21
-308.0
 31
0.0
  0
LINE
  8
DETAIL
  6
CONTINUOUS
 62
     5
 10
-191.0
 20
-278.0
 30
0.0
 11
-191.0
 21
-196.0
 31
0.0
  0
LINE
  8
DETAIL
  6
CONTINUOUS
 62
     5
 10
-187.0
 20
-308.0
 30
0.0
 11
-187.0
 21
-278.0
 31
0.0
  0
LINE
  8
DETAIL
  6
CONTINUOUS
 62
     5
 10
-219.0
 20
-219.0
 30
0.0
 11
-190.5
 21
-219.0
 31
0.0
  0
LINE
  8
DETAIL
  6
CONTINUOUS
 62
     5
 10
-234.0
 20
-235.0
 30
0.0
 11
-190.5
 21
-235.0
 31
0.0
  0
LINE
  8
DETAIL
  6
CONTINUOUS
 62
     5
 10
-204.5
 20
-196.0
 30
0.0
 11
-204.5
 21
-193.0
 31
0.0
  0
CIRCLE
  8
FIX
  6
CONTINUOUS
 62
    11
 10
-150.0
 20
-205.0
 30
0.0
 40
2.5
  0
CIRCLE
  8
FIX
  6
CONTINUOUS
 62
    11
 10
-150.0
 20
-205.0
 30
0.0
 40
2.5
  0
LINE
  8
NOTE
  6
CONTINUOUS
 62
     4
 10
-130.0
 20
-205.0
 30
0.0
 11
-170.0
 21
-205.0
 31
0.0
  0
LINE
  8
NOTE
  6
CONTINUOUS
 62
     4
 10
-150.0
 20
-225.0
 30
0.0
 11
-150.0
 21
-185.0
 31
0.0
  0
LINE
  8
DETAIL
  6
CONTINUOUS
 62
     5
 10
-31.0
 20
-278.0
 30
0.0
 11
-31.0
 21
-196.0
 31
0.0
  0
LINE
  8
DETAIL
  6
CONTINUOUS
 62
     5
 10
-35.0
 20
-308.0
 30
0.0
 11
-35.0
 21
-278.0
 31
0.0
  0
LINE
  8
DETAIL
  6
CONTINUOUS
 62
     5
 10
-18.5
 20
-196.0
 30
0.0
 11
-18.5
 21
-193.0
 31
0.0
  0
LINE
  8
NOTE
  6
CONTINUOUS
 62
     4
 10
-543.43243099999995
 20
395.50282499999997
 30
0.0
 11
-775.43733104001149
 21
395.50282499999997
 31
0.0
  0
TEXT
  8
NOTE
  6
CONTINUOUS
 62
     4
 10
-764.43731333625783
 20
430.69469199999997
 30
0.0
 40
64.0
  1
AH 4
 41
0.9
  0
LINE
  8
SIZE
  6
CONTINUOUS
 62
    30
 10
-235.0
 20
256.34099662681461
 30
0.0
 11
-235.0
 21
951.22951210878819
 31
0.0
  0
LINE
  8
SIZE
  6
CONTINUOUS
 62
    30
 10
-219.0
 20
239.0
 30
0.0
 11
-219.0
 21
826.43681110878833
 31
0.0
  0
LINE
  8
SIZE
  6
CONTINUOUS
 62
    30
 10
-213.0
 20
193.0
 30
0.0
 11
-883.18115500000022
 21
193.0
 31
0.0
  0
LINE
  8
SIZE
  6
CONTINUOUS
 62
    30
 10
-863.18115500000022
 20
193.0
 30
0.0
 11
-863.18115500000022
 21
181.0
 31
0.0
  0
CIRCLE
  8
SIZE
  6
CONTINUOUS
 62
    30
 10
-863.18115500000022
 20
193.0
 30
0.0
 40
6.0
  0
LINE
  8
SIZE
  6
CONTINUOUS
 62
    30
 10
-209.0
 20
170.0
 30
0.0
 11
-209.0
 21
691.27756210878852
 31
0.0
  0
LINE
  8
NOTE
  6
CONTINUOUS
 62
     4
 10
-205.0
 20
170.0
 30
0.0
 11
-205.0
 21
130.0
 31
0.0
  0
LINE
  8
NOTE
  6
CONTINUOUS
 62
     4
 10
-185.0
 20
150.0
 30
0.0
 11
-225.0
 21
150.0
 31
0.0
  0
CIRCLE
  8
FIX
  6
CONTINUOUS
 62
    11
 10
-205.0
 20
150.0
 30
0.0
 40
2.5
  0
LINE
  8
DETAIL
  6
CONTINUOUS
 62
     5
 10
-152.5
 20
206.5
 30
0.0
 11
-152.5
 21
203.5
 31
0.0
  0
LINE
  8
DETAIL
  6
CONTINUOUS
 62
     5
 10
-147.5
 20
206.5
 30
0.0
 11
-147.5
 21
203.5
 31
0.0
  0
ARC
  8
DETAIL
  6
CONTINUOUS
 62
     5
 10
-150.0
 20
203.5
 30
0.0
 40
2.5
 50
180.0
 51
0.0
  0
ARC
  8
DETAIL
  6
CONTINUOUS
 62
     5
 10
-150.0
 20
206.5
 30
0.0
 40
2.5
 50
0.0
 51
180.0
  0
CIRCLE
  8
FIX
  6
CONTINUOUS
 62
    11
 10
-150.0
 20
205.0
 30
0.0
 40
2.5
  0
LINE
  8
NOTE
  6
CONTINUOUS
 62
     4
 10
-170.0
 20
205.0
 30
0.0
 11
-130.0
 21
205.0
 31
0.0
  0
LINE
  8
NOTE
  6
CONTINUOUS
 62
     4
 10
-150.0
 20
185.0
 30
0.0
 11
-150.0
 21
225.0
 31
0.0
  0
LINE
  8
SIZE
  6
CONTINUOUS
 62
    30
 10
-209.0
 20
671.27756210878852
 30
0.0
 11
-197.0
 21
671.27756210878852
 31
0.0
  0
CIRCLE
  8
SIZE
  6
CONTINUOUS
 62
    30
 10
-209.0
 20
671.27756210878852
 30
0.0
 40
6.0
  0
LINE
  8
SIZE
  6
CONTINUOUS
 62
    30
 10
-235.0
 20
931.22951210878819
 30
0.0
 11
-223.0
 21
931.22951210878819
 31
0.0
  0
CIRCLE
  8
SIZE
  6
CONTINUOUS
 62
    30
 10
-235.0
 20
931.22951210878819
 30
0.0
 40
6.0
  0
LINE
  8
SIZE
  6
CONTINUOUS
 62
    30
 10
-219.0
 20
806.43681110878833
 30
0.0
 11
-207.0
 21
806.43681110878833
 31
0.0
  0
CIRCLE
  8
SIZE
  6
CONTINUOUS
 62
    30
 10
-219.0
 20
806.43681110878833
 30
0.0
 40
6.0
  0
TEXT
  8
SIZE
  6
CONTINUOUS
 62
    30
 10
1128.6175316115421
 20
-74.05714285714285
 30
0.0
 40
64.0
  1
438
 50
90.0
 41
0.9
 72
     1
 11
1128.6175316115421
 21
0.0
 31
0.0
  0
LINE
  8
SIZE
  6
CONTINUOUS
 62
    30
 10
1161.137531611543
 20
207.0
 30
0.0
 11
1161.137531611543
 21
-207.0
 31
0.0
  0
TEXT
  8
SIZE
  6
CONTINUOUS
 62
    30
 10
999.99053161154416
 20
-68.571428571428555
 30
0.0
 40
64.0
  1
410
 50
90.0
 41
0.9
 72
     1
 11
999.99053161154416
 21
0.0
 31
0.0
  0
LINE
  8
SIZE
  6
CONTINUOUS
 62
    30
 10
1025.1185316115441
 20
193.0
 30
0.0
 11
1025.1185316115441
 21
-193.0
 31
0.0
  0
TEXT
  8
SIZE
  6
CONTINUOUS
 62
    30
 10
852.9884716115439
 20
-74.05714285714285
 30
0.0
 40
64.0
  1
300
 50
90.0
 41
0.9
 72
     1
 11
852.9884716115439
 21
0.0
 31
0.0
  0
LINE
  8
SIZE
  6
CONTINUOUS
 62
    30
 10
888.2748086115439
 20
138.0
 30
0.0
 11
888.2748086115439
 21
-138.0
 31
0.0
  0
LINE
  8
SIZE
  6
CONTINUOUS
 62
    30
 10
239.0
 20
-219.0
 30
0.0
 11
1181.137531611543
 21
-219.0
 31
0.0
  0
LINE
  8
SIZE
  6
CONTINUOUS
 62
    30
 10
190.0
 20
-205.0
 30
0.0
 11
1045.1185316115441
 21
-205.0
 31
0.0
  0
LINE
  8
SIZE
  6
CONTINUOUS
 62
    30
 10
245.0
 20
-150.0
 30
0.0
 11
908.2748086115439
 21
-150.0
 31
0.0
  0
LINE
  8
SIZE
  6
CONTINUOUS
 62
    30
 10
205.0
 20
190.0
 30
0.0
 11
205.0
 21
550.62014707024809
 31
0.0
  0
LINE
  8
SIZE
  6
CONTINUOUS
 62
    30
 10
150.0
 20
245.0
 30
0.0
 11
150.0
 21
405.48114707024803
 31
0.0
  0
LINE
  8
SIZE
  6
CONTINUOUS
 62
    30
 10
205.0
 20
530.62014707024809
 30
0.0
 11
193.0
 21
530.62014707024809
 31
0.0
  0
CIRCLE
  8
SIZE
  6
CONTINUOUS
 62
    30
 10
205.0
 20
530.62014707024809
 30
0.0
 40
6.0
  0
LINE
  8
SIZE
  6
CONTINUOUS
 62
    30
 10
150.0
 20
385.48114707024803
 30
0.0
 11
138.0
 21
385.48114707024803
 31
0.0
  0
CIRCLE
  8
SIZE
  6
CONTINUOUS
 62
    30
 10
150.0
 20
385.48114707024803
 30
0.0
 40
6.0
  0
TEXT
  8
NOTE
  6
CONTINUOUS
 62
     4
 10
266.767155
 20
-371.04614299999992
 30
0.0
 40
64.0
  1
EL
 41
0.9
  0
LINE
  8
NOTE
  6
CONTINUOUS
 62
     4
 10
255.47476499999991
 20
-401.31120700000002
 30
0.0
 11
353.38086698291232
 21
-401.31120700000002
 31
0.0
  0
LINE
  8
NOTE
  6
CONTINUOUS
 62
     4
 10
169.0
 20
-157.0
 30
0.0
 11
255.47476499999991
 21
-401.31120700000002
 31
0.0
  0
CIRCLE
  8
DETAIL
  6
CONTINUOUS
 62
     5
 10
169.0
 20
-157.0
 30
0.0
 40
9.5
  0
LINE
  8
NOTE
  6
CONTINUOUS
 62
     4
 10
169.0
 20
-177.0
 30
0.0
 11
169.0
 21
-137.0
 31
0.0
  0
LINE
  8
NOTE
  6
CONTINUOUS
 62
     4
 10
205.0
 20
-170.0
 30
0.0
 11
205.0
 21
-130.0
 31
0.0
  0
LINE
  8
NOTE
  6
CONTINUOUS
 62
     4
 10
169.0
 20
-157.0
 30
0.0
 11
172.08811299999979
 21
-196.88061599999989
 31
0.0
  0
LINE
  8
NOTE
  6
CONTINUOUS
 62
     4
 10
191.61469299999999
 20
-189.99357000000009
 30
0.0
 11
169.0
 21
-157.0
 31
0.0
  0
LINE
  8
NOTE
  6
CONTINUOUS
 62
     4
 10
130.0
 20
-205.0
 30
0.0
 11
170.0
 21
-205.0
 31
0.0
  0
LINE
  8
NOTE
  6
CONTINUOUS
 62
     4
 10
150.0
 20
-225.0
 30
0.0
 11
150.0
 21
-185.0
 31
0.0
  0
CIRCLE
  8
FIX
  6
CONTINUOUS
 62
    11
 10
150.0
 20
-205.0
 30
0.0
 40
2.5
  0
ARC
  8
DETAIL
  6
CONTINUOUS
 62
     5
 10
150.0
 20
-203.5
 30
0.0
 40
2.5
 50
0.0
 51
180.0
  0
ARC
  8
DETAIL
  6
CONTINUOUS
 62
     5
 10
150.0
 20
-206.5
 30
0.0
 40
2.5
 50
180.0
 51
0.0
  0
LINE
  8
DETAIL
  6
CONTINUOUS
 62
     5
 10
152.5
 20
-203.5
 30
0.0
 11
152.5
 21
-206.5
 31
0.0
  0
LINE
  8
DETAIL
  6
CONTINUOUS
 62
     5
 10
147.5
 20
-203.5
 30
0.0
 11
147.5
 21
-206.5
 31
0.0
  0
LINE
  8
NOTE
  6
CONTINUOUS
 62
     4
 10
149.0
 20
-157.0
 30
0.0
 11
189.0
 21
-157.0
 31
0.0
  0
LINE
  8
NOTE
  6
CONTINUOUS
 62
     4
 10
225.0
 20
-150.0
 30
0.0
 11
185.0
 21
-150.0
 31
0.0
  0
CIRCLE
  8
FIX
  6
CONTINUOUS
 62
    11
 10
205.0
 20
-150.0
 30
0.0
 40
2.5
  0
CIRCLE
  8
FIX
  6
CONTINUOUS
 62
    11
 10
205.0
 20
-150.0
 30
0.0
 40
2.5
  0
CIRCLE
  8
SIZE
  6
CONTINUOUS
 62
    30
 10
1025.1185316115441
 20
-205.0
 30
0.0
 40
6.0
  0
LINE
  8
SIZE
  6
CONTINUOUS
 62
    30
 10
1025.1185316115441
 20
-205.0
 30
0.0
 11
1025.1185316115441
 21
-193.0
 31
0.0
  0
LINE
  8
SIZE
  6
CONTINUOUS
 62
    30
 10
888.2748086115439
 20
-150.0
 30
0.0
 11
888.2748086115439
 21
-138.0
 31
0.0
  0
CIRCLE
  8
SIZE
  6
CONTINUOUS
 62
    30
 10
888.2748086115439
 20
-150.0
 30
0.0
 40
6.0
  0
LINE
  8
SIZE
  6
CONTINUOUS
 62
    30
 10
1161.137531611543
 20
-219.0
 30
0.0
 11
1161.137531611543
 21
-207.0
 31
0.0
  0
CIRCLE
  8
SIZE
  6
CONTINUOUS
 62
    30
 10
1161.137531611543
 20
-219.0
 30
0.0
 40
6.0
  0
LINE
  8
SIZE
  6
CONTINUOUS
 62
    30
 10
239.0
 20
219.0
 30
0.0
 11
1181.137531611543
 21
219.0
 31
0.0
  0
LINE
  8
SIZE
  6
CONTINUOUS
 62
    30
 10
190.0
 20
205.0
 30
0.0
 11
1045.1185316115441
 21
205.0
 31
0.0
  0
LINE
  8
SIZE
  6
CONTINUOUS
 62
    30
 10
245.0
 20
150.0
 30
0.0
 11
908.2748086115439
 21
150.0
 31
0.0
  0
LINE
  8
SIZE
  6
CONTINUOUS
 62
    30
 10
235.0
 20
256.02571923731739
 30
0.0
 11
235.0
 21
951.22951210878819
 31
0.0
  0
LINE
  8
SIZE
  6
CONTINUOUS
 62
    30
 10
219.0
 20
239.0
 30
0.0
 11
219.0
 21
826.43681110878833
 31
0.0
  0
TEXT
  8
NOTE
  6
CONTINUOUS
 62
     4
 10
347.04780299999987
 20
479.71049399999993
 30
0.0
 40
64.0
  1
8-φ5×8
 41
0.9
  0
LINE
  8
NOTE
  6
CONTINUOUS
 62
     4
 10
731.33816999999999
 20
453.17923799999988
 30
0.0
 11
334.67401299999977
 21
453.17923799999988
 31
0.0
  0
LINE
  8
NOTE
  6
CONTINUOUS
 62
     4
 10
150.0
 20
205.0
 30
0.0
 11
334.67401299999977
 21
453.17923799999988
 31
0.0
  0
LINE
  8
SIZE
  6
CONTINUOUS
 62
    30
 10
209.0
 20
110.0
 30
0.0
 11
209.0
 21
691.27756210878852
 31
0.0
  0
LINE
  8
NOTE
  6
CONTINUOUS
 62
     4
 10
150.0
 20
205.0
 30
0.0
 11
181.7353949999997
 21
229.34881299999981
 31
0.0
  0
LINE
  8
NOTE
  6
CONTINUOUS
 62
     4
 10
165.3092509999997
 20
241.95438799999991
 30
0.0
 11
150.0
 21
205.0
 31
0.0
  0
LINE
  8
NOTE
  6
CONTINUOUS
 62
     4
 10
170.0
 20
205.0
 30
0.0
 11
130.0
 21
205.0
 31
0.0
  0
LINE
  8
NOTE
  6
CONTINUOUS
 62
     4
 10
150.0
 20
185.0
 30
0.0
 11
150.0
 21
225.0
 31
0.0
  0
CIRCLE
  8
FIX
  6
CONTINUOUS
 62
    11
 10
150.0
 20
205.0
 30
0.0
 40
2.5
  0
ARC
  8
DETAIL
  6
CONTINUOUS
 62
     5
 10
150.0
 20
206.5
 30
0.0
 40
2.5
 50
0.0
 51
180.0
  0
ARC
  8
DETAIL
  6
CONTINUOUS
 62
     5
 10
150.0
 20
203.5
 30
0.0
 40
2.5
 50
180.0
 51
0.0
  0
LINE
  8
DETAIL
  6
CONTINUOUS
 62
     5
 10
147.5
 20
206.5
 30
0.0
 11
147.5
 21
203.5
 31
0.0
  0
LINE
  8
DETAIL
  6
CONTINUOUS
 62
     5
 10
152.5
 20
206.5
 30
0.0
 11
152.5
 21
203.5
 31
0.0
  0
LINE
  8
SIZE
  6
CONTINUOUS
 62
    30
 10
209.0
 20
671.27756210878852
 30
0.0
 11
197.0
 21
671.27756210878852
 31
0.0
  0
CIRCLE
  8
SIZE
  6
CONTINUOUS
 62
    30
 10
209.0
 20
671.27756210878852
 30
0.0
 40
6.0
  0
LINE
  8
SIZE
  6
CONTINUOUS
 62
    30
 10
235.0
 20
931.22951210878819
 30
0.0
 11
223.0
 21
931.22951210878819
 31
0.0
  0
CIRCLE
  8
SIZE
  6
CONTINUOUS
 62
    30
 10
235.0
 20
931.22951210878819
 30
0.0
 40
6.0
  0
LINE
  8
SIZE
  6
CONTINUOUS
 62
    30
 10
219.0
 20
806.43681110878833
 30
0.0
 11
207.0
 21
806.43681110878833
 31
0.0
  0
CIRCLE
  8
SIZE
  6
CONTINUOUS
 62
    30
 10
219.0
 20
806.43681110878833
 30
0.0
 40
6.0
  0
LINE
  8
SIZE
  6
CONTINUOUS
 62
    30
 10
888.2748086115439
 20
150.0
 30
0.0
 11
888.2748086115439
 21
138.0
 31
0.0
  0
CIRCLE
  8
SIZE
  6
CONTINUOUS
 62
    30
 10
888.2748086115439
 20
150.0
 30
0.0
 40
6.0
  0
CIRCLE
  8
SIZE
  6
CONTINUOUS
 62
    30
 10
1025.1185316115441
 20
205.0
 30
0.0
 40
6.0
  0
LINE
  8
SIZE
  6
CONTINUOUS
 62
    30
 10
1025.1185316115441
 20
205.0
 30
0.0
 11
1025.1185316115441
 21
193.0
 31
0.0
  0
LINE
  8
SIZE
  6
CONTINUOUS
 62
    30
 10
1161.137531611543
 20
219.0
 30
0.0
 11
1161.137531611543
 21
207.0
 31
0.0
  0
CIRCLE
  8
SIZE
  6
CONTINUOUS
 62
    30
 10
1161.137531611543
 20
219.0
 30
0.0
 40
6.0
  0
LINE
  8
SIZE
  6
CONTINUOUS
 62
    30
 10
-111.0
 20
-395.95097900000002
 30
0.0
 11
-111.0
 21
-554.66451691799193
 31
0.0
  0
LINE
  8
SIZE
  6
CONTINUOUS
 62
    30
 10
-0.000000000001819
 20
-319.90797269154092
 30
0.0
 11
-0.000000000001819
 21
-554.66451691799193
 31
0.0
  0
LINE
  8
SIZE
  6
CONTINUOUS
 62
    30
 10
-99.0
 20
-534.66451691799193
 30
0.0
 11
-12.000000000001821
 21
-534.66451691799193
 31
0.0
  0
LINE
  8
SIZE
  6
CONTINUOUS
 62
    30
 10
-0.000000000001819
 20
-534.66451691799193
 30
0.0
 11
163.48571428571219
 21
-534.66451691799193
 31
0.0
  0
CIRCLE
  8
SIZE
  6
CONTINUOUS
 62
    30
 10
-111.0
 20
-534.66451691799193
 30
0.0
 40
6.0
  0
LINE
  8
SIZE
  6
CONTINUOUS
 62
    30
 10
-111.0
 20
-534.66451691799193
 30
0.0
 11
-99.0
 21
-534.66451691799193
 31
0.0
  0
CIRCLE
  8
SIZE
  6
CONTINUOUS
 62
    30
 10
-0.000000000001819
 20
-534.66451691799193
 30
0.0
 40
6.0
  0
LINE
  8
SIZE
  6
CONTINUOUS
 62
    30
 10
-0.000000000001819
 20
-534.66451691799193
 30
0.0
 11
-12.000000000001821
 21
-534.66451691799193
 31
0.0
  0
TEXT
  8
SIZE
  6
CONTINUOUS
 62
    30
 10
36.999999999998288
 20
-509.66451691799188
 30
0.0
 40
64.0
  1
111
 41
0.9
 72
     1
 11
87.742857142855428
 21
-509.66451691799188
 31
0.0
  0
POINT
  8
DEFPOINTS
  6
CONTINUOUS
 62
    30
 10
-111.0
 20
-375.95097900000002
 30
0.0
  0
POINT
  8
DEFPOINTS
  6
CONTINUOUS
 62
    30
 10
-0.000000000001819
 20
-299.90797269154092
 30
0.0
  0
POINT
  8
DEFPOINTS
  6
CONTINUOUS
 62
    30
 10
-0.000000000001819
 20
-534.66451691799193
 30
0.0
  0
ARC
  8
DETAIL
  6
CONTINUOUS
 62
     5
 10
-234.0
 20
234.0
 30
0.0
 40
1.0
 50
90.0
 51
180.0
  0
ARC
  8
DETAIL
  6
CONTINUOUS
 62
     5
 10
234.0
 20
234.0
 30
0.0
 40
1.0
 50
0.0
 51
90.0
  0
ARC
  8
DETAIL
  6
CONTINUOUS
 62
     5
 10
234.0
 20
-234.0
 30
0.0
 40
1.0
 50
270.0
 51
0.0
  0
ARC
  8
DETAIL
  6
CONTINUOUS
 62
     5
 10
-234.0
 20
-234.0
 30
0.0
 40
1.0
 50
180.0
 51
270.0
  0
ARC
  8
OUTLINE
  6
CONTINUOUS
 62
     3
 10
-234.0
 20
-234.0
 30
0.0
 40
1.0
 50
180.0
 51
270.0
  0
ARC
  8
OUTLINE
  6
CONTINUOUS
 62
     3
 10
-234.0
 20
234.0
 30
0.0
 40
1.0
 50
90.0
 51
180.0
  0
ARC
  8
OUTLINE
  6
CONTINUOUS
 62
     3
 10
234.0
 20
234.0
 30
0.0
 40
1.0
 50
0.0
 51
90.0
  0
ARC
  8
OUTLINE
  6
CONTINUOUS
 62
     3
 10
234.0
 20
-234.0
 30
0.0
 40
1.0
 50
270.0
 51
0.0
  0
LINE
  8
SIZE
  6
CONTINUOUS
 62
    30
 10
515.77677546023688
 20
361.6585086805012
 30
0.0
 11
86.351385127650246
 21
40.531386109892082
 31
0.0
  0
LINE
  8
SIZE
  6
CONTINUOUS
 62
    30
 10
-11.35138512765025
 20
-32.531386109892082
 30
0.0
 11
-20.961493677351431
 21
-39.717888295444709
 31
0.0
  0
TEXT
  8
SIZE
  6
CONTINUOUS
 62
    30
 10
352.94193526442672
 20
271.10667667457568
 30
0.0
 40
64.0
  1
φ98
 50
36.789380904231962
 41
0.9
 72
     1
 11
422.57403607026481
 21
323.17801822475082
 31
0.0
  0
LINE
  8
SIZE
  6
CONTINUOUS
 62
    30
 10
-1.741276577948156
 20
-25.34488392433957
 30
0.0
 11
76.741276577948156
 21
33.34488392433957
 31
0.0
  0
CIRCLE
  8
SIZE
  6
CONTINUOUS
 62
    30
 10
-1.741276577948156
 20
-25.34488392433957
 30
0.0
 40
6.0
  0
LINE
  8
SIZE
  6
CONTINUOUS
 62
    30
 10
-1.741276577948156
 20
-25.34488392433957
 30
0.0
 11
-11.35138512765025
 21
-32.531386109892082
 31
0.0
  0
CIRCLE
  8
SIZE
  6
CONTINUOUS
 62
    30
 10
76.741276577948156
 20
33.34488392433957
 30
0.0
 40
6.0
  0
LINE
  8
SIZE
  6
CONTINUOUS
 62
    30
 10
76.741276577948156
 20
33.34488392433957
 30
0.0
 11
86.351385127650246
 21
40.531386109892082
 31
0.0
  0
POINT
  8
DEFPOINTS
  6
CONTINUOUS
 62
    30
 10
76.741276577948156
 20
33.34488392433957
 30
0.0
  0
POINT
  8
DEFPOINTS
  6
CONTINUOUS
 62
    30
 10
-1.741276577948156
 20
-25.34488392433957
 30
0.0
  0
LINE
  8
DETAIL
  6
CONTINUOUS
 62
     5
 10
-193.022427671016
 20
-192.22232421208449
 30
0.0
 11
-193.02242767101509
 21
-95.011041375757486
 31
0.0
  0
LINE
  8
DETAIL
  6
CONTINUOUS
 62
     5
 10
193.02245056186169
 20
192.22232395138121
 30
0.0
 11
193.0224505618603
 21
95.011041375757486
 31
0.0
  0
LINE
  8
BASIS
  6
DASHDOT
 62
     6
 10
0.000000000001819
 20
272.1080991501492
 30
0.0
 11
-0.000000000001819
 21
-299.90797269154092
 31
0.0
  0
LINE
  8
DETAIL
  6
CONTINUOUS
 62
     5
 10
-193.02242767101231
 20
115.0133658759225
 30
0.0
 11
-193.02242767101191
 21
145.01685262616249
 31
0.0
  0
LINE
  8
DETAIL
  6
CONTINUOUS
 62
     5
 10
-193.02242767101191
 20
155.01801487624269
 30
0.0
 11
-193.0224276710114
 21
192.2223239609277
 31
0.0
  0
LINE
  8
DETAIL
  6
CONTINUOUS
 62
     5
 10
-193.02242767101461
 20
-45.005230125358139
 30
0.0
 11
-193.02242767101231
 21
105.0122036258433
 31
0.0
  0
LINE
  8
DETAIL
  6
CONTINUOUS
 62
     5
 10
-193.02242767101509
 20
-85.009879125677344
 30
0.0
 11
-193.02242767101461
 21
-55.006392375437372
 31
0.0
  0
LINE
  8
DETAIL
  6
CONTINUOUS
 62
     5
 10
193.0224505618576
 20
-115.0133658759225
 30
0.0
 11
193.02245056185711
 21
-145.01685262616269
 31
0.0
  0
LINE
  8
DETAIL
  6
CONTINUOUS
 62
     5
 10
193.02245056185711
 20
-155.01801487624269
 30
0.0
 11
193.0224505618562
 21
-192.22232396092701
 31
0.0
  0
LINE
  8
DETAIL
  6
CONTINUOUS
 62
     5
 10
193.0224505618603
 20
85.009879125677344
 30
0.0
 11
193.02245056185981
 21
55.006392375438281
 31
0.0
  0
LINE
  8
DETAIL
  6
CONTINUOUS
 62
     5
 10
193.02245056185939
 20
45.00523012535723
 30
0.0
 11
193.0224505618576
 21
-105.0122036258426
 31
0.0
  0
ARC
  8
DETAIL
  6
CONTINUOUS
 62
     5
 10
-183.2212886659363
 20
-46.005346350365699
 30
0.0
 40
1.0001162250080129
 50
0.0
 51
90.0
  0
ARC
  8
DETAIL
  6
CONTINUOUS
 62
     5
 10
-183.2212886659363
 20
-54.006276150429358
 30
0.0
 40
1.0001162250080009
 50
270.0
 51
0.0
  0
ARC
  8
DETAIL
  6
CONTINUOUS
 62
     5
 10
-183.22128866593721
 20
-86.009995350684903
 30
0.0
 40
1.0001162250080129
 50
0.0
 51
90.0
  0
ARC
  8
DETAIL
  6
CONTINUOUS
 62
     5
 10
-183.22128866593721
 20
-94.010925150749472
 30
0.0
 40
1.0001162250080009
 50
270.0
 51
0.0
  0
ARC
  8
DETAIL
  6
CONTINUOUS
 62
     5
 10
-220.00582144124789
 20
-48.0055788003815
 30
0.0
 40
3.0003486750240032
 50
90.0
 51
180.0
  0
ARC
  8
DETAIL
  6
CONTINUOUS
 62
     5
 10
-220.0058214412484
 20
-92.010692700733671
 30
0.0
 40
3.0003486750240032
 50
180.0
 51
270.0
  0
LINE
  8
DETAIL
  6
CONTINUOUS
 62
     5
 10
-193.02242767101461
 20
-64.007438400509272
 30
0.0
 11
-193.9225322735233
 21
-63.257351231752857
 31
0.0
  0
LINE
  8
DETAIL
  6
CONTINUOUS
 62
     5
 10
-193.02242767101509
 20
-76.008833100605671
 30
0.0
 11
-193.92253227352381
 21
-76.758920269360942
 31
0.0
  0
LINE
  8
DETAIL
  6
CONTINUOUS
 62
     5
 10
-193.02242767101461
 20
-62.507264062997358
 30
0.0
 11
-194.2225671410265
 21
-63.507380288005614
 31
0.0
  0
LINE
  8
DETAIL
  6
CONTINUOUS
 62
     5
 10
-193.02242767101509
 20
-77.509007438117351
 30
0.0
 11
-194.22256714102701
 21
-76.508891213109109
 31
0.0
  0
LINE
  8
DETAIL
  6
CONTINUOUS
 62
     5
 10
-186.62168383096599
 20
-55.006392375437372
 30
0.0
 11
-186.62168383096599
 21
-45.005230125358139
 31
0.0
  0
LINE
  8
DETAIL
  6
CONTINUOUS
 62
     5
 10
-186.6216838309665
 20
-95.011041375757486
 30
0.0
 11
-186.6216838309665
 21
-85.009879125677344
 31
0.0
  0
LINE
  8
DETAIL
  6
CONTINUOUS
 62
     5
 10
-182.22117244092939
 20
-54.006276150429358
 30
0.0
 11
-182.22117244092939
 21
-46.005346350365699
 31
0.0
  0
LINE
  8
DETAIL
  6
CONTINUOUS
 62
     5
 10
-194.2225671410265
 20
-55.006392375437372
 30
0.0
 11
-183.22128866593681
 21
-55.006392375437599
 31
0.0
  0
LINE
  8
DETAIL
  6
CONTINUOUS
 62
     5
 10
-194.22256714102701
 20
-85.009879125677344
 30
0.0
 11
-183.22128866593721
 21
-85.009879125677571
 31
0.0
  0
LINE
  8
NOTE
  6
CONTINUOUS
 62
     4
 10
-209.00454296616269
 20
-101.0994731872634
 30
0.0
 11
-209.00454296616181
 21
-41.092500460125393
 31
0.0
  0
LINE
  8
NOTE
  6
CONTINUOUS
 62
     4
 10
-228.00675124131519
 20
-70.008135750556903
 30
0.0
 11
-188.0218465459761
 21
-70.008135750557358
 31
0.0
  0
LINE
  8
DETAIL
  6
CONTINUOUS
 62
     5
 10
-182.22117244092991
 20
-94.010925150749472
 30
0.0
 11
-182.22117244092991
 21
-86.009995350684903
 31
0.0
  0
LINE
  8
DETAIL
  6
CONTINUOUS
 62
     5
 10
-223.00617011627401
 20
-92.010692700733671
 30
0.0
 11
-223.00617011627361
 21
-48.0055788003815
 31
0.0
  0
LINE
  8
DETAIL
  6
CONTINUOUS
 62
     5
 10
-194.22256714102701
 20
-95.011041375757486
 30
0.0
 11
-194.2225671410265
 21
-45.005230125358139
 31
0.0
  0
LINE
  8
DETAIL
  6
CONTINUOUS
 62
     5
 10
-220.00582144124789
 20
-45.005230125357677
 30
0.0
 11
-183.2212886659363
 21
-45.005230125358374
 31
0.0
  0
LINE
  8
DETAIL
  6
CONTINUOUS
 62
     5
 10
-220.0058214412488
 20
-95.011041375757259
 30
0.0
 11
-183.22128866593721
 21
-95.011041375757713
 31
0.0
  0
LINE
  8
DETAIL
  6
CONTINUOUS
 62
     5
 10
-218.50564710373871
 20
-61.132984681278231
 30
0.0
 11
-218.50564710373871
 21
-78.88328681983694
 31
0.0
  0
LINE
  8
DETAIL
  6
CONTINUOUS
 62
     5
 10
-215.00524031620989
 20
-62.641816442695017
 30
0.0
 11
-215.00524031620989
 21
-77.374451732525358
 31
0.0
  0
ARC
  8
DETAIL
  6
CONTINUOUS
 62
     5
 10
-209.00454296616229
 20
-70.00813575055713
 30
0.0
 40
9.5011041375760197
 50
230.8332892838813
 51
309.16676425220521
  0
ARC
  8
DETAIL
  6
CONTINUOUS
 62
     5
 10
-209.00454296616229
 20
-70.00813575055713
 30
0.0
 40
13.001510925103821
 50
223.04907980022301
 51
316.9508849624462
  0
ARC
  8
DETAIL
  6
CONTINUOUS
 62
     5
 10
-209.00454296616229
 20
-70.00813575055713
 30
0.0
 40
9.5011041375759966
 50
50.833218444962718
 51
129.16671071611859
  0
ARC
  8
DETAIL
  6
CONTINUOUS
 62
     5
 10
-209.00454296616229
 20
-70.00813575055713
 30
0.0
 40
13.00151092510408
 50
43.049063583763292
 51
136.95092019977699
  0
LINE
  8
DETAIL
  6
CONTINUOUS
 62
     5
 10
-199.5034388285867
 20
-61.132989366237332
 30
0.0
 11
-199.5034388285867
 21
-78.88328690380331
 31
0.0
  0
LINE
  8
DETAIL
  6
CONTINUOUS
 62
     5
 10
-203.00384561611551
 20
-62.641816442695017
 30
0.0
 11
-203.00384561611551
 21
-77.374452197063874
 31
0.0
  0
ARC
  8
DETAIL
  6
CONTINUOUS
 62
     5
 10
-183.22128866593451
 20
106.0123198508504
 30
0.0
 40
1.0001162250079889
 50
270.0
 51
0.0
  0
ARC
  8
DETAIL
  6
CONTINUOUS
 62
     5
 10
-183.22128866593451
 20
114.0132496509141
 30
0.0
 40
1.0001162250080129
 50
0.0
 51
90.0
  0
ARC
  8
DETAIL
  6
CONTINUOUS
 62
     5
 10
-183.221288665934
 20
146.01696885116959
 30
0.0
 40
1.0001162250079889
 50
270.0
 51
0.0
  0
ARC
  8
DETAIL
  6
CONTINUOUS
 62
     5
 10
-183.221288665934
 20
154.01789865123419
 30
0.0
 40
1.0001162250080129
 50
0.0
 51
90.0
  0
ARC
  8
DETAIL
  6
CONTINUOUS
 62
     5
 10
-220.0058214412461
 20
108.0125523008674
 30
0.0
 40
3.0003486750240032
 50
180.0
 51
270.0
  0
ARC
  8
DETAIL
  6
CONTINUOUS
 62
     5
 10
-220.00582144124559
 20
152.0176662012191
 30
0.0
 40
3.0003486750239792
 50
90.0
 51
180.0
  0
LINE
  8
DETAIL
  6
CONTINUOUS
 62
     5
 10
-193.02242767101231
 20
124.0144119009944
 30
0.0
 11
-193.922532273521
 21
123.2643247322378
 31
0.0
  0
LINE
  8
DETAIL
  6
CONTINUOUS
 62
     5
 10
-193.02242767101231
 20
136.01580660109059
 30
0.0
 11
-193.922532273521
 21
136.76589376984629
 31
0.0
  0
LINE
  8
DETAIL
  6
CONTINUOUS
 62
     5
 10
-193.02242767101231
 20
122.5142375634825
 30
0.0
 11
-194.2225671410242
 21
123.51435378849079
 31
0.0
  0
LINE
  8
DETAIL
  6
CONTINUOUS
 62
     5
 10
-193.02242767101231
 20
137.5159809386025
 30
0.0
 11
-194.2225671410242
 21
136.51586471359431
 31
0.0
  0
LINE
  8
DETAIL
  6
CONTINUOUS
 62
     5
 10
-186.6216838309638
 20
115.0133658759223
 30
0.0
 11
-186.6216838309638
 21
105.0122036258431
 31
0.0
  0
LINE
  8
DETAIL
  6
CONTINUOUS
 62
     5
 10
-186.62168383096329
 20
155.0180148762424
 30
0.0
 11
-186.62168383096329
 21
145.01685262616229
 31
0.0
  0
LINE
  8
DETAIL
  6
CONTINUOUS
 62
     5
 10
-182.22117244092709
 20
114.0132496509141
 30
0.0
 11
-182.22117244092709
 21
106.0123198508504
 31
0.0
  0
LINE
  8
DETAIL
  6
CONTINUOUS
 62
     5
 10
-194.2225671410242
 20
115.0133658759225
 30
0.0
 11
-183.22128866593451
 21
115.0133658759223
 31
0.0
  0
LINE
  8
DETAIL
  6
CONTINUOUS
 62
     5
 10
-194.2225671410238
 20
145.01685262616249
 30
0.0
 11
-183.221288665934
 21
145.01685262616229
 31
0.0
  0
LINE
  8
NOTE
  6
CONTINUOUS
 62
     4
 10
-209.00454296615951
 20
161.10644668774921
 30
0.0
 11
-209.00454296615999
 21
101.09947396061121
 31
0.0
  0
LINE
  8
NOTE
  6
CONTINUOUS
 62
     4
 10
-228.00675124131249
 20
130.01510925104299
 30
0.0
 11
-188.02184654597389
 21
130.0151092510423
 31
0.0
  0
LINE
  8
DETAIL
  6
CONTINUOUS
 62
     5
 10
-182.22117244092669
 20
154.01789865123419
 30
0.0
 11
-182.22117244092669
 21
146.01696885116959
 31
0.0
  0
LINE
  8
DETAIL
  6
CONTINUOUS
 62
     5
 10
-223.00617011627131
 20
152.0176662012191
 30
0.0
 11
-223.0061701162717
 21
108.0125523008674
 31
0.0
  0
LINE
  8
DETAIL
  6
CONTINUOUS
 62
     5
 10
-194.2225671410238
 20
155.01801487624269
 30
0.0
 11
-194.2225671410242
 21
105.0122036258433
 31
0.0
  0
LINE
  8
DETAIL
  6
CONTINUOUS
 62
     5
 10
-220.0058214412461
 20
105.0122036258435
 30
0.0
 11
-183.22128866593451
 21
105.0122036258431
 31
0.0
  0
LINE
  8
DETAIL
  6
CONTINUOUS
 62
     5
 10
-220.00582144124559
 20
155.01801487624289
 30
0.0
 11
-183.221288665934
 21
155.0180148762424
 31
0.0
  0
LINE
  8
DETAIL
  6
CONTINUOUS
 62
     5
 10
-218.50564710373601
 20
121.1399581817641
 30
0.0
 11
-218.50564710373601
 21
138.89026032032231
 31
0.0
  0
LINE
  8
DETAIL
  6
CONTINUOUS
 62
     5
 10
-215.00524031620719
 20
122.6487899431809
 30
0.0
 11
-215.00524031620719
 21
137.38142523301121
 31
0.0
  0
ARC
  8
DETAIL
  6
CONTINUOUS
 62
     5
 10
-209.00454296615951
 20
130.01510925104279
 30
0.0
 40
9.5011041375761529
 50
50.833235747794753
 51
129.16671071611859
  0
ARC
  8
DETAIL
  6
CONTINUOUS
 62
     5
 10
-209.00454296615951
 20
130.01510925104279
 30
0.0
 40
13.001510925103901
 50
43.049115037553783
 51
136.95092019977699
  0
ARC
  8
DETAIL
  6
CONTINUOUS
 62
     5
 10
-209.00454296615951
 20
130.01510925104279
 30
0.0
 40
9.5011041375760197
 50
230.8332892838813
 51
309.16678155503718
  0
ARC
  8
DETAIL
  6
CONTINUOUS
 62
     5
 10
-209.00454296615951
 20
130.01510925104279
 30
0.0
 40
13.001510925103821
 50
223.04907980022301
 51
316.95093641623669
  0
LINE
  8
DETAIL
  6
CONTINUOUS
 62
     5
 10
-199.503438828584
 20
121.1399628667225
 30
0.0
 11
-199.503438828584
 21
138.89026040428851
 31
0.0
  0
LINE
  8
DETAIL
  6
CONTINUOUS
 62
     5
 10
-203.00384561611281
 20
122.6487899431809
 30
0.0
 11
-203.00384561611281
 21
137.3814256975493
 31
0.0
  0
ARC
  8
DETAIL
  6
CONTINUOUS
 62
     5
 10
183.2212886659363
 20
46.005346350365699
 30
0.0
 40
1.0001162250080371
 50
180.0
 51
270.0
  0
ARC
  8
DETAIL
  6
CONTINUOUS
 62
     5
 10
183.2212886659363
 20
54.006276150430267
 30
0.0
 40
1.0001162250080129
 50
90.0
 51
180.0
  0
ARC
  8
DETAIL
  6
CONTINUOUS
 62
     5
 10
183.22128866593721
 20
86.009995350685813
 30
0.0
 40
1.0001162250080371
 50
180.0
 51
270.0
  0
ARC
  8
DETAIL
  6
CONTINUOUS
 62
     5
 10
183.22128866593721
 20
94.010925150750381
 30
0.0
 40
1.0001162250080129
 50
90.0
 51
180.0
  0
ARC
  8
DETAIL
  6
CONTINUOUS
 62
     5
 10
220.00582144124789
 20
48.0055788003815
 30
0.0
 40
3.0003486750240032
 50
270.0
 51
0.0
  0
ARC
  8
DETAIL
  6
CONTINUOUS
 62
     5
 10
220.0058214412484
 20
92.010692700733671
 30
0.0
 40
3.0003486750240271
 50
0.0
 51
90.0
  0
LINE
  8
DETAIL
  6
CONTINUOUS
 62
     5
 10
193.02242767101461
 20
64.007438400509045
 30
0.0
 11
193.9225322735233
 21
63.257351231753773
 31
0.0
  0
LINE
  8
DETAIL
  6
CONTINUOUS
 62
     5
 10
193.02242767101461
 20
76.008833100605443
 30
0.0
 11
193.9225322735233
 21
76.758920269361852
 31
0.0
  0
LINE
  8
DETAIL
  6
CONTINUOUS
 62
     5
 10
193.02242767101461
 20
62.507264062997358
 30
0.0
 11
194.22256714102599
 21
63.507380288006289
 31
0.0
  0
LINE
  8
DETAIL
  6
CONTINUOUS
 62
     5
 10
193.02242767101461
 20
77.509007438117351
 30
0.0
 11
194.22256714102599
 21
76.508891213109109
 31
0.0
  0
LINE
  8
DETAIL
  6
CONTINUOUS
 62
     5
 10
186.6216838309638
 20
55.006392375438281
 30
0.0
 11
186.62168383096329
 21
45.00523012535723
 31
0.0
  0
LINE
  8
DETAIL
  6
CONTINUOUS
 62
     5
 10
186.6216838309638
 20
95.011041375757486
 30
0.0
 11
186.6216838309638
 21
85.009879125677344
 31
0.0
  0
LINE
  8
DETAIL
  6
CONTINUOUS
 62
     5
 10
182.22117244092939
 20
54.006276150430267
 30
0.0
 11
182.22117244092939
 21
46.005346350365699
 31
0.0
  0
LINE
  8
DETAIL
  6
CONTINUOUS
 62
     5
 10
194.22256714102599
 20
55.006392375438281
 30
0.0
 11
183.2212886659363
 21
55.006392375438509
 31
0.0
  0
LINE
  8
DETAIL
  6
CONTINUOUS
 62
     5
 10
194.2225671410265
 20
85.009879125677344
 30
0.0
 11
183.22128866593721
 21
85.009879125677571
 31
0.0
  0
LINE
  8
NOTE
  6
CONTINUOUS
 62
     4
 10
209.0045429661632
 20
101.0994731872634
 30
0.0
 11
209.00454296616229
 21
41.092500460125393
 31
0.0
  0
LINE
  8
NOTE
  6
CONTINUOUS
 62
     4
 10
228.0067512413157
 20
70.008135750556903
 30
0.0
 11
188.02184654597571
 21
70.008135750557358
 31
0.0
  0
LINE
  8
DETAIL
  6
CONTINUOUS
 62
     5
 10
182.22117244092991
 20
94.010925150750381
 30
0.0
 11
182.22117244092991
 21
86.009995350685813
 31
0.0
  0
LINE
  8
DETAIL
  6
CONTINUOUS
 62
     5
 10
223.00617011627401
 20
92.010692700733671
 30
0.0
 11
223.0061701162731
 21
48.0055788003815
 31
0.0
  0
LINE
  8
DETAIL
  6
CONTINUOUS
 62
     5
 10
194.2225671410265
 20
95.011041375757486
 30
0.0
 11
194.22256714102559
 21
45.00523012535723
 31
0.0
  0
LINE
  8
DETAIL
  6
CONTINUOUS
 62
     5
 10
220.00582144124789
 20
45.005230125356768
 30
0.0
 11
183.2212886659363
 21
45.005230125357457
 31
0.0
  0
LINE
  8
DETAIL
  6
CONTINUOUS
 62
     5
 10
220.0058214412484
 20
95.011041375757031
 30
0.0
 11
183.22128866593721
 21
95.011041375757713
 31
0.0
  0
LINE
  8
DETAIL
  6
CONTINUOUS
 62
     5
 10
218.5056471037351
 20
61.132984681278231
 30
0.0
 11
218.5056471037351
 21
78.88328681983603
 31
0.0
  0
LINE
  8
DETAIL
  6
CONTINUOUS
 62
     5
 10
215.00524031620989
 20
62.641816442695927
 30
0.0
 11
215.00524031620989
 21
77.374451732525358
 31
0.0
  0
ARC
  8
DETAIL
  6
CONTINUOUS
 62
     5
 10
209.00454296616269
 20
70.008135750557358
 30
0.0
 40
9.5011041375759966
 50
50.833289283881371
 51
129.16676425220521
  0
ARC
  8
DETAIL
  6
CONTINUOUS
 62
     5
 10
209.00454296616269
 20
70.008135750557358
 30
0.0
 40
13.001510925103769
 50
43.049079800223012
 51
136.9508849624462
  0
ARC
  8
DETAIL
  6
CONTINUOUS
 62
     5
 10
209.00454296616269
 20
70.008135750557358
 30
0.0
 40
9.5011041375759966
 50
230.83321844496271
 51
309.16671071611859
  0
ARC
  8
DETAIL
  6
CONTINUOUS
 62
     5
 10
209.00454296616269
 20
70.008135750557358
 30
0.0
 40
13.0015109251041
 50
223.04906358376331
 51
316.95092019977699
  0
LINE
  8
DETAIL
  6
CONTINUOUS
 62
     5
 10
199.50343882858579
 20
61.132989366238228
 30
0.0
 11
199.50343882858579
 21
78.883286903803082
 31
0.0
  0
LINE
  8
DETAIL
  6
CONTINUOUS
 62
     5
 10
203.0038456161119
 20
62.641816442695927
 30
0.0
 11
203.0038456161119
 21
77.374452197064784
 31
0.0
  0
ARC
  8
DETAIL
  6
CONTINUOUS
 62
     5
 10
183.22128866593451
 20
-106.0123198508504
 30
0.0
 40
1.0001162250080009
 50
90.0
 51
180.0
  0
ARC
  8
DETAIL
  6
CONTINUOUS
 62
     5
 10
183.22128866593451
 20
-114.0132496509141
 30
0.0
 40
1.0001162250080371
 50
180.0
 51
270.0
  0
ARC
  8
DETAIL
  6
CONTINUOUS
 62
     5
 10
183.221288665934
 20
-146.01696885117079
 30
0.0
 40
1.0001162250079889
 50
90.0
 51
180.0
  0
ARC
  8
DETAIL
  6
CONTINUOUS
 62
     5
 10
183.221288665934
 20
-154.01789865123439
 30
0.0
 40
1.0001162250080371
 50
180.0
 51
270.0
  0
ARC
  8
DETAIL
  6
CONTINUOUS
 62
     5
 10
220.0058214412461
 20
-108.0125523008664
 30
0.0
 40
3.0003486750240271
 50
0.0
 51
90.0
  0
ARC
  8
DETAIL
  6
CONTINUOUS
 62
     5
 10
220.00582144124559
 20
-152.01766620121839
 30
0.0
 40
3.0003486750240151
 50
270.0
 51
0.0
  0
LINE
  8
DETAIL
  6
CONTINUOUS
 62
     5
 10
193.02242767101231
 20
-124.0144119009944
 30
0.0
 11
193.922532273521
 21
-123.2643247322389
 31
0.0
  0
LINE
  8
DETAIL
  6
CONTINUOUS
 62
     5
 10
193.02242767101191
 20
-136.01580660108991
 30
0.0
 11
193.9225322735206
 21
-136.76589376984629
 31
0.0
  0
LINE
  8
DETAIL
  6
CONTINUOUS
 62
     5
 10
193.02242767101231
 20
-122.5142375634825
 30
0.0
 11
194.2225671410238
 21
-123.5143537884899
 31
0.0
  0
LINE
  8
DETAIL
  6
CONTINUOUS
 62
     5
 10
193.02242767101191
 20
-137.51598093860281
 30
0.0
 11
194.22256714102329
 21
-136.51586471359451
 31
0.0
  0
LINE
  8
DETAIL
  6
CONTINUOUS
 62
     5
 10
186.6216838309615
 20
-115.0133658759223
 30
0.0
 11
186.6216838309615
 21
-105.0122036258426
 31
0.0
  0
LINE
  8
DETAIL
  6
CONTINUOUS
 62
     5
 10
186.62168383096099
 20
-155.0180148762424
 30
0.0
 11
186.62168383096099
 21
-145.01685262616269
 31
0.0
  0
LINE
  8
DETAIL
  6
CONTINUOUS
 62
     5
 10
182.22117244092709
 20
-114.0132496509141
 30
0.0
 11
182.22117244092709
 21
-106.0123198508504
 31
0.0
  0
LINE
  8
DETAIL
  6
CONTINUOUS
 62
     5
 10
194.2225671410238
 20
-115.0133658759225
 30
0.0
 11
183.22128866593451
 21
-115.0133658759223
 31
0.0
  0
LINE
  8
DETAIL
  6
CONTINUOUS
 62
     5
 10
194.22256714102329
 20
-145.01685262616269
 30
0.0
 11
183.221288665934
 21
-145.01685262616249
 31
0.0
  0
LINE
  8
NOTE
  6
CONTINUOUS
 62
     4
 10
209.00454296615951
 20
-161.1064466877483
 30
0.0
 11
209.00454296616039
 21
-101.0994739606103
 31
0.0
  0
LINE
  8
NOTE
  6
CONTINUOUS
 62
     4
 10
228.00675124131291
 20
-130.01510925104299
 30
0.0
 11
188.02184654597389
 21
-130.0151092510423
 31
0.0
  0
LINE
  8
DETAIL
  6
CONTINUOUS
 62
     5
 10
182.22117244092669
 20
-154.01789865123439
 30
0.0
 11
182.22117244092669
 21
-146.01696885117079
 31
0.0
  0
LINE
  8
DETAIL
  6
CONTINUOUS
 62
     5
 10
223.00617011627079
 20
-152.01766620121859
 30
0.0
 11
223.00617011627131
 21
-108.0125523008664
 31
0.0
  0
LINE
  8
DETAIL
  6
CONTINUOUS
 62
     5
 10
194.22256714102329
 20
-155.01801487624269
 30
0.0
 11
194.2225671410238
 21
-105.0122036258426
 31
0.0
  0
LINE
  8
DETAIL
  6
CONTINUOUS
 62
     5
 10
220.0058214412461
 20
-105.0122036258429
 30
0.0
 11
183.22128866593451
 21
-105.0122036258424
 31
0.0
  0
LINE
  8
DETAIL
  6
CONTINUOUS
 62
     5
 10
220.00582144124519
 20
-155.01801487624289
 30
0.0
 11
183.221288665934
 21
-155.0180148762424
 31
0.0
  0
LINE
  8
DETAIL
  6
CONTINUOUS
 62
     5
 10
218.5056471037328
 20
-121.13995818176321
 30
0.0
 11
218.5056471037328
 21
-138.89026032032169
 31
0.0
  0
LINE
  8
DETAIL
  6
CONTINUOUS
 62
     5
 10
215.00524031620719
 20
-122.6487899431809
 30
0.0
 11
215.00524031620719
 21
-137.3814252330103
 31
0.0
  0
ARC
  8
DETAIL
  6
CONTINUOUS
 62
     5
 10
209.00454296615999
 20
-130.01510925104279
 30
0.0
 40
9.501104137576176
 50
230.83323574779479
 51
309.16671071611859
  0
ARC
  8
DETAIL
  6
CONTINUOUS
 62
     5
 10
209.00454296615999
 20
-130.01510925104279
 30
0.0
 40
13.001510925103901
 50
223.0491150375538
 51
316.95092019977699
  0
ARC
  8
DETAIL
  6
CONTINUOUS
 62
     5
 10
209.00454296615999
 20
-130.01510925104279
 30
0.0
 40
9.5011041375759842
 50
50.833289283881371
 51
129.16678155503729
  0
ARC
  8
DETAIL
  6
CONTINUOUS
 62
     5
 10
209.00454296615999
 20
-130.01510925104279
 30
0.0
 40
13.00151092510378
 50
43.049079800223012
 51
136.95093641623669
  0
LINE
  8
DETAIL
  6
CONTINUOUS
 62
     5
 10
199.50343882858351
 20
-121.1399628667225
 30
0.0
 11
199.50343882858351
 21
-138.89026040428851
 31
0.0
  0
LINE
  8
DETAIL
  6
CONTINUOUS
 62
     5
 10
203.0038456161092
 20
-122.6487899431809
 30
0.0
 11
203.0038456161092
 21
-137.38142569754839
 31
0.0
  0
LINE
  8
DETAIL
  6
CONTINUOUS
 62
     5
 10
-235.00000000000591
 20
-234.0000000000002
 30
0.0
 11
-235.0
 21
234.0
 31
0.0
  0
LINE
  8
DETAIL
  6
CONTINUOUS
 62
     5
 10
235.0
 20
-234.0
 30
0.0
 11
235.0
 21
233.9999999999998
 31
0.0
  0
LINE
  8
OUTLINE
  6
CONTINUOUS
 62
     3
 10
-235.00000000000591
 20
-234.0
 30
0.0
 11
-235.0
 21
234.0
 31
0.0
  0
LINE
  8
OUTLINE
  6
CONTINUOUS
 62
     3
 10
235.0
 20
-234.0
 30
0.0
 11
235.0
 21
234.0
 31
0.0
  0
LINE
  8
BASIS
  6
DASHDOT
 62
     6
 10
-110.5123045943583
 20
-374.63464339146731
 30
0.0
 11
-110.5123045943551
 21
-126.0694548015633
 31
0.0
  0
CIRCLE
  8
FIX
  6
CONTINUOUS
 62
    11
 10
209.00454296616269
 20
70.008135750557358
 30
0.0
 40
5.0
  0
CIRCLE
  8
DETAIL
  6
CONTINUOUS
 62
     5
 10
153.66749881652501
 20
-157.94603746342361
 30
0.0
 40
14.25
  0
CIRCLE
  8
FIX
  6
CONTINUOUS
 62
    11
 10
209.00454296615999
 20
-130.01510925104279
 30
0.0
 40
5.0
  0
CIRCLE
  8
FIX
  6
CONTINUOUS
 62
    11
 10
-209.00454296616229
 20
-70.00813575055713
 30
0.0
 40
5.0
  0
CIRCLE
  8
FIX
  6
CONTINUOUS
 62
    11
 10
-209.00454296615951
 20
130.01510925104279
 30
0.0
 40
5.0
  0
LINE
  8
NOTE
  6
CONTINUOUS
 62
     4
 10
204.90025979747909
 20
167.40207207501939
 30
0.0
 11
204.9002597974804
 21
132.59792792499411
 31
0.0
  0
LINE
  8
NOTE
  6
CONTINUOUS
 62
     4
 10
224.89271214514929
 20
150.0000000000073
 30
0.0
 11
184.90780744981021
 21
150.00000000000639
 31
0.0
  0
CIRCLE
  8
FIX
  6
CONTINUOUS
 62
    11
 10
204.90025979748
 20
150.00000000000679
 30
0.0
 40
5.0
  0
LINE
  8
NOTE
  6
CONTINUOUS
 62
     4
 10
-204.90025979747949
 20
-167.4020720750112
 30
0.0
 11
-204.90025979747909
 21
-132.5979279249859
 31
0.0
  0
LINE
  8
NOTE
  6
CONTINUOUS
 62
     4
 10
-224.89271214514881
 20
-149.99999999999821
 30
0.0
 11
-184.90780744980981
 21
-149.99999999999889
 31
0.0
  0
CIRCLE
  8
FIX
  6
CONTINUOUS
 62
    11
 10
-204.90025979747909
 20
-149.99999999999861
 30
0.0
 40
5.0
  0
LINE
  8
DETAIL
  6
CONTINUOUS
 62
     5
 10
-219.0
 20
219.0
 30
0.0
 11
-219.00000000000051
 21
155.01801487624289
 31
0.0
  0
LINE
  8
DETAIL
  6
CONTINUOUS
 62
     5
 10
-219.00000000000139
 20
105.0122036258435
 30
0.0
 11
-219.0000000000023
 21
-45.005230125357677
 31
0.0
  0
LINE
  8
DETAIL
  6
CONTINUOUS
 62
     5
 10
-219.0000000000027
 20
-95.011041375757259
 30
0.0
 11
-219.0
 21
-219.0
 31
0.0
  0
LINE
  8
DETAIL
  6
CONTINUOUS
 62
     5
 10
219.0
 20
219.0
 30
0.0
 11
219.00000000000321
 21
95.011041375757031
 31
0.0
  0
LINE
  8
DETAIL
  6
CONTINUOUS
 62
     5
 10
219.0000000000027
 20
45.005230125357002
 30
0.0
 11
219.00000000000051
 21
-105.0122036258429
 31
0.0
  0
LINE
  8
DETAIL
  6
CONTINUOUS
 62
     5
 10
219.0
 20
-155.01801487624289
 30
0.0
 11
219.0
 21
-219.0
 31
0.0
  0
LINE
  8
SIZE
  6
CONTINUOUS
 62
    30
 10
294.2173600000001
 20
0.0
 30
0.0
 11
751.87595204399986
 21
-0.0000000000001137
 31
0.0
  0
LINE
  8
SIZE
  6
CONTINUOUS
 62
    30
 10
248.00675124131291
 20
-130.01510925104299
 30
0.0
 11
751.87595204399986
 21
-130.0151092510431
 31
0.0
  0
LINE
  8
SIZE
  6
CONTINUOUS
 62
    30
 10
731.87595204399986
 20
-12.00000000000011
 30
0.0
 11
731.87595204399986
 21
-118.0151092510431
 31
0.0
  0
LINE
  8
SIZE
  6
CONTINUOUS
 62
    30
 10
731.87595204399986
 20
-130.0151092510431
 30
0.0
 11
731.87595204399986
 21
-415.16455748731568
 31
0.0
  0
CIRCLE
  8
SIZE
  6
CONTINUOUS
 62
    30
 10
731.87595204399986
 20
-0.0000000000001137
 30
0.0
 40
6.0
  0
LINE
  8
SIZE
  6
CONTINUOUS
 62
    30
 10
731.87595204399986
 20
-0.0000000000001137
 30
0.0
 11
731.87595204399986
 21
-12.00000000000011
 31
0.0
  0
CIRCLE
  8
SIZE
  6
CONTINUOUS
 62
    30
 10
731.87595204399986
 20
-130.0151092510431
 30
0.0
 40
6.0
  0
LINE
  8
SIZE
  6
CONTINUOUS
 62
    30
 10
731.87595204399986
 20
-130.0151092510431
 30
0.0
 11
731.87595204399986
 21
-118.0151092510431
 31
0.0
  0
TEXT
  8
SIZE
  6
CONTINUOUS
 62
    30
 10
706.87595204399986
 20
-390.16455748731568
 30
0.0
 40
64.0
  1
130
 50
90.0
 41
0.9
 72
     1
 11
706.87595204399986
 21
-321.59312891588712
 31
0.0
  0
POINT
  8
DEFPOINTS
  6
CONTINUOUS
 62
    30
 10
274.2173600000001
 20
0.0
 30
0.0
  0
POINT
  8
DEFPOINTS
  6
CONTINUOUS
 62
    30
 10
228.00675124131291
 20
-130.01510925104299
 30
0.0
  0
POINT
  8
DEFPOINTS
  6
CONTINUOUS
 62
    30
 10
731.87595204399986
 20
-130.0151092510431
 30
0.0
  0
LINE
  8
SIZE
  6
CONTINUOUS
 62
    30
 10
248.0067512413157
 20
70.008135750556903
 30
0.0
 11
751.87595204399986
 21
70.008135750556789
 31
0.0
  0
LINE
  8
SIZE
  6
CONTINUOUS
 62
    30
 10
294.2173600000001
 20
0.0
 30
0.0
 11
751.87595204399986
 21
-0.0000000000001137
 31
0.0
  0
LINE
  8
SIZE
  6
CONTINUOUS
 62
    30
 10
731.87595204399986
 20
-12.00000000000011
 30
0.0
 11
731.87595204399986
 21
-24.00000000000011
 31
0.0
  0
LINE
  8
SIZE
  6
CONTINUOUS
 62
    30
 10
731.87595204399986
 20
82.008135750556789
 30
0.0
 11
731.87595204399986
 21
364.50067545724511
 31
0.0
  0
LINE
  8
SIZE
  6
CONTINUOUS
 62
    30
 10
731.87595204399986
 20
-0.0000000000001137
 30
0.0
 11
731.87595204399986
 21
70.008135750556789
 31
0.0
  0
CIRCLE
  8
SIZE
  6
CONTINUOUS
 62
    30
 10
731.87595204399986
 20
-0.0000000000001137
 30
0.0
 40
6.0
  0
LINE
  8
SIZE
  6
CONTINUOUS
 62
    30
 10
731.87595204399986
 20
-0.0000000000001137
 30
0.0
 11
731.87595204399986
 21
-12.00000000000011
 31
0.0
  0
CIRCLE
  8
SIZE
  6
CONTINUOUS
 62
    30
 10
731.87595204399986
 20
70.008135750556789
 30
0.0
 40
6.0
  0
LINE
  8
SIZE
  6
CONTINUOUS
 62
    30
 10
731.87595204399986
 20
70.008135750556789
 30
0.0
 11
731.87595204399986
 21
82.008135750556789
 31
0.0
  0
TEXT
  8
SIZE
  6
CONTINUOUS
 62
    30
 10
706.87595204399986
 20
246.24353260010221
 30
0.0
 40
64.0
  1
70
 50
90.0
 41
0.9
 72
     1
 11
706.87595204399986
 21
292.87210402867368
 31
0.0
  0
POINT
  8
DEFPOINTS
  6
CONTINUOUS
 62
    30
 10
228.0067512413157
 20
70.008135750556903
 30
0.0
  0
POINT
  8
DEFPOINTS
  6
CONTINUOUS
 62
    30
 10
274.2173600000001
 20
0.0
 30
0.0
  0
POINT
  8
DEFPOINTS
  6
CONTINUOUS
 62
    30
 10
731.87595204399986
 20
-0.0000000000001137
 30
0.0
  0
LINE
  8
SIZE
  6
CONTINUOUS
 62
    30
 10
-248.00675124131249
 20
130.01510925104299
 30
0.0
 11
-494.83771684589283
 21
130.0151092510431
 31
0.0
  0
LINE
  8
SIZE
  6
CONTINUOUS
 62
    30
 10
-294.00587199999973
 20
0.0
 30
0.0
 11
-494.83771684589283
 21
0.0000000000001137
 31
0.0
  0
LINE
  8
SIZE
  6
CONTINUOUS
 62
    30
 10
-474.83771684589283
 20
142.0151092510431
 30
0.0
 11
-474.83771684589283
 21
154.0151092510431
 31
0.0
  0
LINE
  8
SIZE
  6
CONTINUOUS
 62
    30
 10
-474.83771684589283
 20
-11.99999999999989
 30
0.0
 11
-474.83771684589283
 21
-24.0
 31
0.0
  0
LINE
  8
SIZE
  6
CONTINUOUS
 62
    30
 10
-474.83771684589283
 20
130.0151092510431
 30
0.0
 11
-474.83771684589283
 21
0.0000000000001137
 31
0.0
  0
CIRCLE
  8
SIZE
  6
CONTINUOUS
 62
    30
 10
-474.83771684589283
 20
130.0151092510431
 30
0.0
 40
6.0
  0
LINE
  8
SIZE
  6
CONTINUOUS
 62
    30
 10
-474.83771684589283
 20
130.0151092510431
 30
0.0
 11
-474.83771684589283
 21
142.0151092510431
 31
0.0
  0
CIRCLE
  8
SIZE
  6
CONTINUOUS
 62
    30
 10
-474.83771684589283
 20
0.0000000000001137
 30
0.0
 40
6.0
  0
LINE
  8
SIZE
  6
CONTINUOUS
 62
    30
 10
-474.83771684589283
 20
0.0000000000001137
 30
0.0
 11
-474.83771684589283
 21
-12.0
 31
0.0
  0
TEXT
  8
SIZE
  6
CONTINUOUS
 62
    30
 10
-499.83771684589283
 20
-3.5638739459070758
 30
0.0
 40
64.0
  1
130
 50
90.0
 41
0.9
 72
     1
 11
-499.83771684589283
 21
65.007554625521493
 31
0.0
  0
POINT
  8
DEFPOINTS
  6
CONTINUOUS
 62
    30
 10
-228.00675124131249
 20
130.01510925104299
 30
0.0
  0
POINT
  8
DEFPOINTS
  6
CONTINUOUS
 62
    30
 10
-274.00587199999973
 20
0.0
 30
0.0
  0
POINT
  8
DEFPOINTS
  6
CONTINUOUS
 62
    30
 10
-474.83771684589283
 20
0.0000000000001137
 30
0.0
  0
LINE
  8
SIZE
  6
CONTINUOUS
 62
    30
 10
-294.00587199999973
 20
0.0
 30
0.0
 11
-494.83771684589283
 21
0.0000000000001137
 31
0.0
  0
LINE
  8
SIZE
  6
CONTINUOUS
 62
    30
 10
-248.00675124131519
 20
-70.008135750556903
 30
0.0
 11
-494.83771684589283
 21
-70.008135750556789
 31
0.0
  0
LINE
  8
SIZE
  6
CONTINUOUS
 62
    30
 10
-474.83771684589283
 20
12.00000000000011
 30
0.0
 11
-474.83771684589283
 21
24.0
 31
0.0
  0
LINE
  8
SIZE
  6
CONTINUOUS
 62
    30
 10
-474.83771684589283
 20
-82.008135750556789
 30
0.0
 11
-474.83771684589283
 21
-487.21536319242313
 31
0.0
  0
LINE
  8
SIZE
  6
CONTINUOUS
 62
    30
 10
-474.83771684589283
 20
0.0000000000001137
 30
0.0
 11
-474.83771684589283
 21
-70.008135750556903
 31
0.0
  0
CIRCLE
  8
SIZE
  6
CONTINUOUS
 62
    30
 10
-474.83771684589283
 20
0.0000000000001137
 30
0.0
 40
6.0
  0
LINE
  8
SIZE
  6
CONTINUOUS
 62
    30
 10
-474.83771684589283
 20
0.0000000000001137
 30
0.0
 11
-474.83771684589283
 21
12.0
 31
0.0
  0
CIRCLE
  8
SIZE
  6
CONTINUOUS
 62
    30
 10
-474.83771684589283
 20
-70.008135750556903
 30
0.0
 40
6.0
  0
LINE
  8
SIZE
  6
CONTINUOUS
 62
    30
 10
-474.83771684589283
 20
-70.008135750556903
 30
0.0
 11
-474.83771684589283
 21
-82.008135750556789
 31
0.0
  0
TEXT
  8
SIZE
  6
CONTINUOUS
 62
    30
 10
-499.83771684589283
 20
-462.21536319242301
 30
0.0
 40
64.0
  1
70
 50
90.0
 41
0.9
 72
     1
 11
-499.83771684589283
 21
-415.58679176385158
 31
0.0
  0
POINT
  8
DEFPOINTS
  6
CONTINUOUS
 62
    30
 10
-274.00587199999973
 20
0.0
 30
0.0
  0
POINT
  8
DEFPOINTS
  6
CONTINUOUS
 62
    30
 10
-228.00675124131519
 20
-70.008135750556903
 30
0.0
  0
POINT
  8
DEFPOINTS
  6
CONTINUOUS
 62
    30
 10
-474.83771684589283
 20
-70.008135750556903
 30
0.0
  0
LINE
  8
NOTE
  6
CONTINUOUS
 62
     4
 10
-209.0045427312148
 20
130.01511272539301
 30
0.0
 11
-543.43243099999995
 21
395.50282499999997
 31
0.0
  0
LINE
  8
NOTE
  6
CONTINUOUS
 62
     4
 10
-209.0045427312148
 20
130.01511272539301
 30
0.0
 11
-232.3496011706693
 21
162.49600305760879
 31
0.0
  0
LINE
  8
NOTE
  6
CONTINUOUS
 62
     4
 10
-245.4624014728183
 20
146.47185889870519
 30
0.0
 11
-209.0045427312148
 21
130.01511272539301
 31
0.0
  0
LINE
  8
SIZE
  6
CONTINUOUS
 62
    30
 10
-204.5
 20
-216.0
 30
0.0
 11
-204.5
 21
-549.52691492464965
 31
0.0
  0
LINE
  8
SIZE
  6
CONTINUOUS
 62
    30
 10
-193.022427671016
 20
-212.22232421208449
 30
0.0
 11
-193.022427671016
 21
-549.52691492464965
 31
0.0
  0
LINE
  8
SIZE
  6
CONTINUOUS
 62
    30
 10
-181.022427671016
 20
-529.52691492464965
 30
0.0
 11
-169.022427671016
 21
-529.52691492464965
 31
0.0
  0
LINE
  8
SIZE
  6
CONTINUOUS
 62
    30
 10
-216.5
 20
-529.52691492464965
 30
0.0
 11
-336.09999999999991
 21
-529.52691492464965
 31
0.0
  0
LINE
  8
SIZE
  6
CONTINUOUS
 62
    30
 10
-193.022427671016
 20
-529.52691492464965
 30
0.0
 11
-204.5
 21
-529.52691492464965
 31
0.0
  0
CIRCLE
  8
SIZE
  6
CONTINUOUS
 62
    30
 10
-193.022427671016
 20
-529.52691492464965
 30
0.0
 40
6.0
  0
LINE
  8
SIZE
  6
CONTINUOUS
 62
    30
 10
-193.022427671016
 20
-529.52691492464965
 30
0.0
 11
-181.022427671016
 21
-529.52691492464965
 31
0.0
  0
CIRCLE
  8
SIZE
  6
CONTINUOUS
 62
    30
 10
-204.5
 20
-529.52691492464965
 30
0.0
 40
6.0
  0
LINE
  8
SIZE
  6
CONTINUOUS
 62
    30
 10
-204.5
 20
-529.52691492464965
 30
0.0
 11
-216.5
 21
-529.52691492464965
 31
0.0
  0
TEXT
  8
SIZE
  6
CONTINUOUS
 62
    30
 10
-311.10000000000019
 20
-504.52691492464959
 30
0.0
 40
64.0
  1
11
 41
0.9
 72
     1
 11
-282.30000000000018
 21
-504.52691492464959
 31
0.0
  0
POINT
  8
DEFPOINTS
  6
CONTINUOUS
 62
    30
 10
-204.5
 20
-196.0
 30
0.0
  0
POINT
  8
DEFPOINTS
  6
CONTINUOUS
 62
    30
 10
-193.022427671016
 20
-192.22232421208449
 30
0.0
  0
POINT
  8
DEFPOINTS
  6
CONTINUOUS
 62
    30
 10
-193.022427671016
 20
-529.52691492464965
 30
0.0
  0
LINE
  8
OUTLINE
  6
CONTINUOUS
 62
     3
 10
-183.0
 20
-335.0
 30
0.0
 11
-183.0
 21
-308.0
 31
0.0
  0
LINE
  8
OUTLINE
  6
CONTINUOUS
 62
     3
 10
-39.0
 20
-335.0
 30
0.0
 11
-39.0
 21
-308.0
 31
0.0
  0
LINE
  8
OUTLINE
  6
CONTINUOUS
 62
     3
 10
-183.0
 20
-335.0
 30
0.0
 11
-39.0
 21
-335.0
 31
0.0
  0
LINE
  8
OUTLINE
  6
CONTINUOUS
 62
     3
 10
-191.0
 20
-278.0
 30
0.0
 11
-31.0
 21
-278.0
 31
0.0
  0
LINE
  8
OUTLINE
  6
CONTINUOUS
 62
     3
 10
-187.0
 20
-308.0
 30
0.0
 11
-35.0
 21
-308.0
 31
0.0
  0
LINE
  8
OUTLINE
  6
CONTINUOUS
 62
     3
 10
-191.0
 20
-278.0
 30
0.0
 11
-191.0
 21
-235.0
 31
0.0
  0
LINE
  8
OUTLINE
  6
CONTINUOUS
 62
     3
 10
-187.0
 20
-308.0
 30
0.0
 11
-187.0
 21
-278.0
 31
0.0
  0
LINE
  8
OUTLINE
  6
CONTINUOUS
 62
     3
 10
-31.0
 20
-278.0
 30
0.0
 11
-31.0
 21
-235.0
 31
0.0
  0
LINE
  8
OUTLINE
  6
CONTINUOUS
 62
     3
 10
-35.0
 20
-308.0
 30
0.0
 11
-35.0
 21
-278.0
 31
0.0
  0
ENDSEC
  0
EOF
