  0
SECTION
  2
HEADER
  9
$ACADVER
  1
AC1009
  9
$DWGCODEPAGE
  3
dos932
  9
$INSBASE
 10
0.0
 20
0.0
 30
0.0
  9
$EXTMIN
 10
-852.44291583360609
 20
-697.26561358811523
 30
-0.0015258207003583
  9
$EXTMAX
 10
1160.609447758887
 20
944.00025257375091
 30
0.0000000349246037
  9
$LIMMIN
 10
-2970.0
 20
-2100.0
  9
$LIMMAX
 10
2970.0
 20
2100.0
  9
$ORTHOMODE
 70
     1
  9
$REGENMODE
 70
     1
  9
$FILLMODE
 70
     1
  9
$QTEXTMODE
 70
     0
  9
$MIRRTEXT
 70
     0
  9
$LTSCALE
 40
20.0
  9
$ATTMODE
 70
     1
  9
$TEXTSIZE
 40
64.0
  9
$TRACEWID
 40
0.05
  9
$TEXTSTYLE
  7
STANDARD
  9
$CLAYER
  8
SIZE
  9
$CELTYPE
  6
CONTINUOUS
  9
$CECOLOR
 62
     7
  9
$DIMSCALE
 40
1.0
  9
$DIMASZ
 40
12.0
  9
$DIMEXO
 40
20.0
  9
$DIMDLI
 40
200.0
  9
$DIMRND
 40
0.0
  9
$DIMDLE
 40
0.0
  9
$DIMEXE
 40
20.0
  9
$DIMTP
 40
0.0
  9
$DIMTM
 40
0.0
  9
$DIMTXT
 40
64.0
  9
$DIMCEN
 40
0.09
  9
$DIMTSZ
 40
0.0
  9
$DIMTOL
 70
     0
  9
$DIMLIM
 70
     0
  9
$DIMTIH
 70
     0
  9
$DIMTOH
 70
     0
  9
$DIMSE1
 70
     0
  9
$DIMSE2
 70
     0
  9
$DIMTAD
 70
     1
  9
$DIMZIN
 70
     8
  9
$DIMBLK
  1

  9
$DIMASO
 70
     1
  9
$DIMSHO
 70
     0
  9
$DIMPOST
  1

  9
$DIMAPOST
  1

  9
$DIMALT
 70
     0
  9
$DIMALTD
 70
     2
  9
$DIMALTF
 40
25.399999999999999
  9
$DIMLFAC
 40
1.0
  9
$DIMTOFL
 70
     1
  9
$DIMTVP
 40
0.0
  9
$DIMTIX
 70
     1
  9
$DIMSOXD
 70
     0
  9
$DIMSAH
 70
     0
  9
$DIMBLK1
  1

  9
$DIMBLK2
  1

  9
$DIMSTYLE
  2
STANDARD
  9
$DIMCLRD
 70
     7
  9
$DIMCLRE
 70
     7
  9
$DIMCLRT
 70
     7
  9
$DIMTFAC
 40
1.0
  9
$DIMGAP
 40
25.0
  9
$LUNITS
 70
     2
  9
$LUPREC
 70
     4
  9
$SKETCHINC
 40
0.1
  9
$FILLETRAD
 40
3.0
  9
$AUNITS
 70
     1
  9
$AUPREC
 70
     3
  9
$MENU
  1
ACAD
  9
$ELEVATION
 40
0.0
  9
$PELEVATION
 40
0.0
  9
$THICKNESS
 40
0.0
  9
$LIMCHECK
 70
     0
  9
$CHAMFERA
 40
0.0
  9
$CHAMFERB
 40
0.0
  9
$SKPOLY
 70
     0
  9
$TDCREATE
 40
2453019.62301037
  9
$TDUPDATE
 40
2459025.521559062
  9
$TDINDWG
 40
1.7139627431
  9
$TDUSRTIMER
 40
1.7139627431
  9
$USRTIMER
 70
     1
  9
$ANGBASE
 50
0.0
  9
$ANGDIR
 70
     0
  9
$PDMODE
 70
     3
  9
$PDSIZE
 40
-2.0
  9
$PLINEWID
 40
0.0
  9
$SPLFRAME
 70
     0
  9
$SPLINETYPE
 70
     6
  9
$SPLINESEGS
 70
     8
  9
$SURFTAB1
 70
     6
  9
$SURFTAB2
 70
     6
  9
$SURFTYPE
 70
     6
  9
$SURFU
 70
     6
  9
$SURFV
 70
     6
  9
$UCSNAME
  2

  9
$UCSORG
 10
0.0
 20
0.0
 30
0.0
  9
$UCSXDIR
 10
1.0
 20
0.0
 30
0.0
  9
$UCSYDIR
 10
0.0
 20
1.0
 30
0.0
  9
$PUCSNAME
  2

  9
$PUCSORG
 10
0.0
 20
0.0
 30
0.0
  9
$PUCSXDIR
 10
1.0
 20
0.0
 30
0.0
  9
$PUCSYDIR
 10
0.0
 20
1.0
 30
0.0
  9
$USERI1
 70
     0
  9
$USERI2
 70
     0
  9
$USERI3
 70
     0
  9
$USERI4
 70
     0
  9
$USERI5
 70
     0
  9
$USERR1
 40
20.0
  9
$USERR2
 40
0.0
  9
$USERR3
 40
0.0
  9
$USERR4
 40
0.0
  9
$USERR5
 40
0.0
  9
$WORLDVIEW
 70
     1
  9
$SHADEDGE
 70
     3
  9
$SHADEDIF
 70
    70
  9
$TILEMODE
 70
     1
  9
$MAXACTVP
 70
    48
  9
$PINSBASE
 10
0.0
 20
0.0
 30
0.0
  9
$PLIMCHECK
 70
     0
  9
$PEXTMIN
 10
-100000000000000000000.0
 20
-100000000000000000000.0
 30
-100000000000000000000.0
  9
$PEXTMAX
 10
100000000000000000000.0
 20
100000000000000000000.0
 30
100000000000000000000.0
  9
$PLIMMIN
 10
0.0
 20
0.0
  9
$PLIMMAX
 10
12.0
 20
9.0
  9
$UNITMODE
 70
     0
  9
$VISRETAIN
 70
     0
  9
$PLINEGEN
 70
     0
  9
$PSLTSCALE
 70
     0
  9
$TREEDEPTH
 70
  3020
  9
$ATTDIA
 70
     0
  9
$ATTREQ
 70
     1
  9
$BLIPMODE
 70
     1
  9
$COORDS
 70
     1
  9
$DRAGMODE
 70
     2
  9
$OSMODE
 70
     0
  9
$HANDLING
 70
     0
  9
$HANDSEED
  5
F20E
  0
ENDSEC
  0
SECTION
  2
TABLES
  0
TABLE
  2
LTYPE
 70
     2
  0
LTYPE
  2
CONTINUOUS
 70
     0
  3
実線
 72
    65
 73
     0
 40
0.0
  0
LTYPE
  2
DASHDOT
 70
     0
  3
____ _ ____ _ ____ _ ____ _ ____ _ ____ _ ____
 72
    65
 73
     4
 40
5.5
 49
4.0
 49
-0.6
 49
0.3
 49
-0.6
  0
ENDTAB
  0
TABLE
  2
LAYER
 70
    12
  0
LAYER
  2
0
 70
     0
 62
     7
  6
CONTINUOUS
  0
LAYER
  2
BASIS
 70
     0
 62
     6
  6
DASHDOT
  0
LAYER
  2
OUTLINE
 70
     0
 62
     3
  6
CONTINUOUS
  0
LAYER
  2
DETAIL
 70
     0
 62
     5
  6
CONTINUOUS
  0
LAYER
  2
SIZE
 70
     0
 62
    30
  6
CONTINUOUS
  0
LAYER
  2
ARRANGE
 70
     0
 62
     1
  6
CONTINUOUS
  0
LAYER
  2
DEFPOINTS
 70
     0
 62
     7
  6
CONTINUOUS
  0
LAYER
  2
ETC
 70
     0
 62
    61
  6
CONTINUOUS
  0
LAYER
  2
FIX
 70
     0
 62
    11
  6
CONTINUOUS
  0
LAYER
  2
NOTE
 70
     0
 62
     4
  6
CONTINUOUS
  0
LAYER
  2
SERVICESPACE
 70
    64
 62
     2
  6
DASHDOT
  0
LAYER
  2
SYMBOLLINE
 70
    64
 62
    15
  6
CONTINUOUS
  0
ENDTAB
  0
TABLE
  2
STYLE
 70
     1
  0
STYLE
  2
STANDARD
 70
     0
 40
64.0
 41
0.9
 50
0.0
 71
     0
 42
64.0
  3
SIMPLEX.shx
  4
BIGFONT.shx
  0
ENDTAB
  0
TABLE
  2
APPID
 70
    19
  0
APPID
  2
ACAD
 70
     0
  0
APPID
  2
AUTOCAD_POSTSCRIPT_FIGURE
 70
     0
  0
APPID
  2
ACAD_EXEMPT_FROM_CAD_STANDARDS
 70
     0
  0
APPID
  2
ACAD_PSEXT
 70
     0
  0
APPID
  2
ACAUTHENVIRON
 70
     0
  0
APPID
  2
GENIUS_GENOENT_13
 70
     0
  0
APPID
  2
GENIUS_GENCFG_13
 70
     0
  0
APPID
  2
GENIUS_GENCFG0_13
 70
     0
  0
APPID
  2
GENIUS_GENCFG1_13
 70
     0
  0
APPID
  2
GENIUS_GENCFG2_13
 70
     0
  0
APPID
  2
GENIUS_GENCFG3_13
 70
     0
  0
APPID
  2
GENIUS_GENCFG4_13
 70
     0
  0
APPID
  2
GENIUS_GEVCFG0_13
 70
     0
  0
APPID
  2
CONTENTBLOCKICON
 70
     0
  0
APPID
  2
CONTENTBLOCKDESCRIPTION
 70
     0
  0
APPID
  2
ACAD_NAV_VCDISPLAY
 70
     0
  0
APPID
  2
ACAD_MLEADERVER
 70
     0
  0
APPID
  2
ACDBDYNAMICBLOCKTRUENAME
 70
     0
  0
APPID
  2
ACDBDYNAMICBLOCKGUID
 70
     0
  0
ENDTAB
  0
TABLE
  2
DIMSTYLE
 70
     1
  0
DIMSTYLE
  2
STANDARD
 70
     0
  3

  4

  5
_ORIGIN
  6

  7

 40
1.0
 41
12.0
 42
20.0
 43
200.0
 44
20.0
 45
0.0
 46
0.0
 47
0.0
 48
0.0
140
64.0
141
0.09
142
0.0
143
25.399999999999999
144
1.0
145
0.0
146
1.0
147
25.0
 71
     0
 72
     0
 73
     0
 74
     0
 75
     0
 76
     0
 77
     1
 78
     8
170
     0
171
     2
172
     1
173
     0
174
     1
175
     0
176
     7
177
     7
178
     7
  0
ENDTAB
  0
TABLE
  2
VIEW
 70
     1
  0
VIEW
  2
ALL
 70
     0
 40
4282.6198079999986
 10
0.0
 20
41.309904000000003
 41
5940.0
 11
0.0
 21
0.0
 31
1.0
 12
0.0
 22
0.0
 32
0.0
 42
50.0
 43
0.0
 44
0.0
 50
0.0
 71
     0
  0
ENDTAB
  0
TABLE
  2
UCS
 70
     0
  0
ENDTAB
  0
TABLE
  2
VPORT
 70
     1
  0
VPORT
  2
*ACTIVE
 70
     0
 10
0.0
 20
0.0
 11
1.0
 21
1.0
 12
154.08326596264021
 22
123.3673194928178
 13
0.0
 23
0.0
 14
1.0
 24
1.0
 15
0.0
 25
0.0
 16
0.0
 26
0.0
 36
1.0
 17
0.0
 27
0.0
 37
0.0
 40
1652.1471868215031
 41
1.747787610619469
 42
50.0
 43
0.0
 44
0.0
 50
0.0
 51
0.0
 71
     0
 72
  1000
 73
     1
 74
     3
 75
     0
 76
     0
 77
     0
 78
     0
  0
ENDTAB
  0
ENDSEC
  0
SECTION
  2
BLOCKS
  0
BLOCK
  8
0
  2
_ORIGIN
 70
     0
 10
0.0
 20
0.0
 30
0.0
  3
_ORIGIN
  1
_ORIGIN
  0
CIRCLE
  8
0
  6
CONTINUOUS
 62
     7
 10
0.0
 20
0.0
 30
0.0
 40
0.5
  0
LINE
  8
0
  6
CONTINUOUS
 62
     7
 10
0.0
 20
0.0
 30
0.0
 11
-1.0
 21
0.0
 31
0.0
  0
ENDBLK
  8
0
  0
ENDSEC
  0
SECTION
  2
ENTITIES
  0
POINT
  8
ARRANGE
  6
CONTINUOUS
 62
     1
 10
0.0
 20
0.0
 30
0.0
  0
LINE
  8
OUTLINE
  6
CONTINUOUS
 62
     3
 10
-234.9999999999998
 20
0.0
 30
0.0
 11
235.0
 21
0.0
 31
0.0
  0
LINE
  8
OUTLINE
  6
CONTINUOUS
 62
     3
 10
193.0
 20
230.0
 30
0.0
 11
-12.0
 21
230.0
 31
0.0
  0
CIRCLE
  8
ARRANGE
  6
CONTINUOUS
 62
     1
 10
0.0
 20
0.0
 30
0.0
 40
40.0
  0
TEXT
  8
SIZE
  6
CONTINUOUS
 62
    30
 10
-110.56453385714291
 20
-652.0470791685276
 30
0.0
 40
64.0
  1
□470
 41
0.9
 72
     1
 11
-0.0273910000000797
 21
-652.0470791685276
 31
0.0
  0
LINE
  8
SIZE
  6
CONTINUOUS
 62
    30
 10
222.97260899999989
 20
-677.0470791685276
 30
0.0
 11
-223.02739099999999
 21
-677.0470791685276
 31
0.0
  0
LINE
  8
DETAIL
  6
CONTINUOUS
 62
     5
 10
81.5
 20
266.0
 30
0.0
 11
-6.5
 21
266.0
 31
0.0
  0
LINE
  8
SIZE
  6
CONTINUOUS
 62
    30
 10
-11.5
 20
587.96441469406182
 30
0.0
 11
0.5
 21
587.96441469406182
 31
0.0
  0
LINE
  8
DETAIL
  6
CONTINUOUS
 62
     5
 10
193.0
 20
223.0
 30
0.0
 11
-12.0
 21
223.0
 31
0.0
  0
TEXT
  8
SIZE
  6
CONTINUOUS
 62
    30
 10
-68.571428571428555
 20
879.71487934182596
 30
0.0
 40
64.0
  1
418
 41
0.9
 72
     1
 11
0.0
 21
879.71487934182596
 31
0.0
  0
LINE
  8
SIZE
  6
CONTINUOUS
 62
    30
 10
197.0
 20
861.66990034182618
 30
0.0
 11
-197.0
 21
861.66990034182618
 31
0.0
  0
TEXT
  8
SIZE
  6
CONTINUOUS
 62
    30
 10
-68.571428571428555
 20
-522.48683779985436
 30
0.0
 40
64.0
  1
410
 41
0.9
 72
     1
 11
0.0
 21
-522.48683779985436
 31
0.0
  0
LINE
  8
SIZE
  6
CONTINUOUS
 62
    30
 10
193.0
 20
-550.68555879985433
 30
0.0
 11
-193.0
 21
-550.68555879985433
 31
0.0
  0
TEXT
  8
SIZE
  6
CONTINUOUS
 62
    30
 10
-109.1657142857143
 20
761.18735541059959
 30
0.0
 40
64.0
  1
□386
 41
0.9
 72
     1
 11
0.0
 21
761.18735541059959
 31
0.0
  0
LINE
  8
SIZE
  6
CONTINUOUS
 62
    30
 10
-181.0
 20
735.87865197322299
 30
0.0
 11
181.0
 21
735.87865197322299
 31
0.0
  0
TEXT
  8
SIZE
  6
CONTINUOUS
 62
    30
 10
-74.05714285714285
 20
-256.16446653876858
 30
0.0
 40
64.0
  1
300
 41
0.9
 72
     1
 11
0.0
 21
-256.16446653876858
 31
0.0
  0
LINE
  8
SIZE
  6
CONTINUOUS
 62
    30
 10
138.0
 20
-281.74680453876857
 30
0.0
 11
-138.0
 21
-281.74680453876857
 31
0.0
  0
LINE
  8
DETAIL
  6
CONTINUOUS
 62
     5
 10
193.0
 20
230.0
 30
0.0
 11
-12.0
 21
230.0
 31
0.0
  0
LINE
  8
OUTLINE
  6
CONTINUOUS
 62
     3
 10
-192.9999999999998
 20
0.0
 30
0.0
 11
-192.9999999999998
 21
80.579703705198881
 31
0.0
  0
LINE
  8
DETAIL
  6
CONTINUOUS
 62
     5
 10
-12.0
 20
0.0
 30
0.0
 11
-12.0
 21
256.0
 31
0.0
  0
LINE
  8
SIZE
  6
CONTINUOUS
 62
    30
 10
-755.315426
 20
0.0
 30
0.0
 11
-755.315426
 21
12.0
 31
0.0
  0
CIRCLE
  8
SIZE
  6
CONTINUOUS
 62
    30
 10
-755.315426
 20
0.0
 30
0.0
 40
6.0
  0
LINE
  8
SIZE
  6
CONTINUOUS
 62
    30
 10
-755.315426
 20
0.0
 30
0.0
 11
-755.315426
 21
12.0
 31
0.0
  0
CIRCLE
  8
SIZE
  6
CONTINUOUS
 62
    30
 10
-755.315426
 20
0.0
 30
0.0
 40
6.0
  0
LINE
  8
NOTE
  6
CONTINUOUS
 62
     4
 10
-204.9920093112294
 20
0.0647038855512392
 30
0.0
 11
-229.12598767243281
 21
-31.834372700257521
 31
0.0
  0
LINE
  8
NOTE
  6
CONTINUOUS
 62
     4
 10
-209.94310899326359
 20
-39.627696205252157
 30
0.0
 11
-204.9920093112294
 21
0.0647038855512392
 31
0.0
  0
LINE
  8
NOTE
  6
CONTINUOUS
 62
     4
 10
-204.99185407333789
 20
0.0102757512254357
 30
0.0
 11
-304.42947796560611
 21
-255.09703621408471
 31
0.0
  0
LINE
  8
NOTE
  6
CONTINUOUS
 62
     4
 10
-150.0
 20
-20.0
 30
0.0
 11
-150.0
 21
20.0
 31
0.0
  0
CIRCLE
  8
FIX
  6
CONTINUOUS
 62
    11
 10
-150.0
 20
0.0
 30
0.0
 40
2.5
  0
CIRCLE
  8
FIX
  6
CONTINUOUS
 62
    11
 10
-205.0
 20
0.0
 30
0.0
 40
2.5
  0
LINE
  8
NOTE
  6
CONTINUOUS
 62
     4
 10
-205.0
 20
-20.0
 30
0.0
 11
-205.0
 21
20.0
 31
0.0
  0
LINE
  8
DETAIL
  6
CONTINUOUS
 62
     5
 10
-193.0
 20
0.0
 30
0.0
 11
-193.0
 21
80.579703705198995
 31
0.0
  0
LINE
  8
BASIS
  6
DASHDOT
 62
     6
 10
0.0
 20
-72.855032999999935
 30
0.0
 11
0.0
 21
314.0
 31
0.0
  0
LINE
  8
NOTE
  6
CONTINUOUS
 62
     4
 10
-304.42947796560611
 20
-255.09703621408471
 30
0.0
 11
-697.43798496560635
 21
-255.09703621408471
 31
0.0
  0
TEXT
  8
NOTE
  6
CONTINUOUS
 62
     4
 10
-673.77419496560617
 20
-222.13276621408451
 30
0.0
 40
64.0
  1
8-φ5×8
 41
0.9
  0
LINE
  8
SIZE
  6
CONTINUOUS
 62
    30
 10
-235.02739099999999
 20
0.0
 30
0.0
 11
-235.02739099999999
 21
-697.04707916852772
 31
0.0
  0
LINE
  8
SIZE
  6
CONTINUOUS
 62
    30
 10
-235.02739099999999
 20
-677.0470791685276
 30
0.0
 11
-223.02739099999999
 21
-677.0470791685276
 31
0.0
  0
CIRCLE
  8
SIZE
  6
CONTINUOUS
 62
    30
 10
-235.02739099999999
 20
-677.0470791685276
 30
0.0
 40
6.0
  0
LINE
  8
SIZE
  6
CONTINUOUS
 62
    30
 10
-234.09269199999989
 20
-55.0
 30
0.0
 11
-775.315426
 21
-55.0
 31
0.0
  0
LINE
  8
SIZE
  6
CONTINUOUS
 62
    30
 10
-255.02739099999999
 20
0.0
 30
0.0
 11
-775.315426
 21
0.0
 31
0.0
  0
LINE
  8
SIZE
  6
CONTINUOUS
 62
    30
 10
-255.02739099999999
 20
0.0
 30
0.0
 11
-775.315426
 21
0.0
 31
0.0
  0
LINE
  8
SIZE
  6
CONTINUOUS
 62
    30
 10
-755.315426
 20
-22.5
 30
0.0
 11
-755.315426
 21
-241.2404299999998
 31
0.0
  0
TEXT
  8
SIZE
  6
CONTINUOUS
 62
    30
 10
-780.27340099999981
 20
-194.8556714285715
 30
0.0
 40
64.0
  1
55
 50
90.0
 41
0.9
 72
     1
 11
-780.27340099999981
 21
-148.22710000000009
 31
0.0
  0
CIRCLE
  8
SIZE
  6
CONTINUOUS
 62
    30
 10
-755.315426
 20
-55.0
 30
0.0
 40
6.0
  0
LINE
  8
SIZE
  6
CONTINUOUS
 62
    30
 10
-755.315426
 20
-55.0
 30
0.0
 11
-755.315426
 21
-67.0
 31
0.0
  0
LINE
  8
SIZE
  6
CONTINUOUS
 62
    30
 10
-755.315426
 20
0.0
 30
0.0
 11
-755.315426
 21
-55.0
 31
0.0
  0
LINE
  8
SIZE
  6
CONTINUOUS
 62
    30
 10
-755.315426
 20
0.0
 30
0.0
 11
-755.315426
 21
-55.0
 31
0.0
  0
LINE
  8
SIZE
  6
CONTINUOUS
 62
    30
 10
-755.315426
 20
-67.0
 30
0.0
 11
-755.315426
 21
-79.0
 31
0.0
  0
LINE
  8
SIZE
  6
CONTINUOUS
 62
    30
 10
-205.0
 20
-40.0
 30
0.0
 11
-205.0
 21
-570.68555879985433
 31
0.0
  0
LINE
  8
SIZE
  6
CONTINUOUS
 62
    30
 10
-192.9999999999998
 20
267.7604999732232
 30
0.0
 11
-193.0
 21
755.87865197322299
 31
0.0
  0
LINE
  8
SIZE
  6
CONTINUOUS
 62
    30
 10
-150.0
 20
-40.0
 30
0.0
 11
-150.0
 21
-301.74680453876857
 31
0.0
  0
CIRCLE
  8
SIZE
  6
CONTINUOUS
 62
    30
 10
-193.0
 20
735.87865197322299
 30
0.0
 40
6.0
  0
LINE
  8
SIZE
  6
CONTINUOUS
 62
    30
 10
-205.0
 20
-550.68555879985433
 30
0.0
 11
-193.0
 21
-550.68555879985433
 31
0.0
  0
CIRCLE
  8
SIZE
  6
CONTINUOUS
 62
    30
 10
-205.0
 20
-550.68555879985433
 30
0.0
 40
6.0
  0
LINE
  8
SIZE
  6
CONTINUOUS
 62
    30
 10
-193.0
 20
735.87865197322299
 30
0.0
 11
-181.0
 21
735.87865197322299
 31
0.0
  0
LINE
  8
SIZE
  6
CONTINUOUS
 62
    30
 10
-150.0
 20
-281.74680453876857
 30
0.0
 11
-138.0
 21
-281.74680453876857
 31
0.0
  0
CIRCLE
  8
SIZE
  6
CONTINUOUS
 62
    30
 10
-150.0
 20
-281.74680453876857
 30
0.0
 40
6.0
  0
LINE
  8
NOTE
  6
CONTINUOUS
 62
     4
 10
-185.0
 20
0.0
 30
0.0
 11
-225.0
 21
0.0
 31
0.0
  0
LINE
  8
NOTE
  6
CONTINUOUS
 62
     4
 10
-130.0
 20
0.0
 30
0.0
 11
-170.0
 21
0.0
 31
0.0
  0
CIRCLE
  8
FIX
  6
CONTINUOUS
 62
    11
 10
-209.0
 20
237.0
 30
0.0
 40
6.0
  0
LINE
  8
SIZE
  6
CONTINUOUS
 62
    30
 10
-209.0
 20
181.6886203686029
 30
0.0
 11
-209.0
 21
881.02859291991012
 31
0.0
  0
LINE
  8
SIZE
  6
CONTINUOUS
 62
    30
 10
-26.5
 20
266.0
 30
0.0
 11
-775.315426
 21
266.0
 31
0.0
  0
TEXT
  8
SIZE
  6
CONTINUOUS
 62
    30
 10
-788.41357100000005
 20
52.553674725904813
 30
0.0
 40
64.0
  1
266
 50
90.0
 41
0.9
 72
     1
 11
-788.41357100000005
 21
125.2393890116191
 31
0.0
  0
LINE
  8
SIZE
  6
CONTINUOUS
 62
    30
 10
-755.315426
 20
12.0
 30
0.0
 11
-755.315426
 21
266.0
 31
0.0
  0
LINE
  8
SIZE
  6
CONTINUOUS
 62
    30
 10
-755.315426
 20
12.0
 30
0.0
 11
-755.315426
 21
24.0
 31
0.0
  0
CIRCLE
  8
SIZE
  6
CONTINUOUS
 62
    30
 10
-755.315426
 20
266.0
 30
0.0
 40
6.0
  0
LINE
  8
SIZE
  6
CONTINUOUS
 62
    30
 10
-755.315426
 20
266.0
 30
0.0
 11
-755.315426
 21
254.0
 31
0.0
  0
LINE
  8
SIZE
  6
CONTINUOUS
 62
    30
 10
-11.5
 20
280.94001400000002
 30
0.0
 11
-11.5
 21
607.96441469406182
 31
0.0
  0
LINE
  8
DETAIL
  6
CONTINUOUS
 62
     5
 10
-55.476462999999967
 20
167.0474529999999
 30
0.0
 11
-57.122900999999963
 21
164.0474529999999
 31
0.0
  0
LINE
  8
DETAIL
  6
CONTINUOUS
 62
     5
 10
-166.523537
 20
167.0474529999999
 30
0.0
 11
-164.8770989999999
 21
164.0474529999999
 31
0.0
  0
LINE
  8
DETAIL
  6
CONTINUOUS
 62
     5
 10
-204.0
 20
95.036535999999955
 30
0.0
 11
-204.0
 21
234.56245899999999
 31
0.0
  0
LINE
  8
BASIS
  6
DASHDOT
 62
     6
 10
-110.9999999999999
 20
53.692090000000007
 30
0.0
 11
-110.9999999999999
 21
288.98522400000002
 31
0.0
  0
LINE
  8
DETAIL
  6
CONTINUOUS
 62
     5
 10
-18.5
 20
216.9006509999999
 30
0.0
 11
-18.5
 21
106.0993489999998
 31
0.0
  0
LINE
  8
DETAIL
  6
CONTINUOUS
 62
     5
 10
-34.0
 20
111.9999999999999
 30
0.0
 11
-34.0
 21
212.0
 31
0.0
  0
CIRCLE
  8
DETAIL
  6
CONTINUOUS
 62
     5
 10
-110.9999999999999
 20
162.0
 30
0.0
 40
72.0
  0
CIRCLE
  8
DETAIL
  6
CONTINUOUS
 62
     5
 10
-110.9999999999999
 20
162.0
 30
0.0
 40
76.0
  0
LINE
  8
DETAIL
  6
CONTINUOUS
 62
     5
 10
-188.0
 20
111.9999999999999
 30
0.0
 11
-188.0
 21
212.0
 31
0.0
  0
LINE
  8
DETAIL
  6
CONTINUOUS
 62
     5
 10
-202.49999999999989
 20
111.4999999999999
 30
0.0
 11
-202.49999999999989
 21
218.345249
 31
0.0
  0
TEXT
  8
NOTE
  6
CONTINUOUS
 62
     4
 10
-156.08182600000001
 20
117.9838669999999
 30
0.0
 40
64.0
  1
EA
 41
0.9
  0
LINE
  8
BASIS
  6
DASHDOT
 62
     6
 10
-3.982269000000088
 20
162.0
 30
0.0
 11
-219.43466099999981
 21
162.0
 31
0.0
  0
LINE
  8
DETAIL
  6
CONTINUOUS
 62
     5
 10
-57.122900999999963
 20
164.0474529999999
 30
0.0
 11
-164.8770989999999
 21
164.0474529999999
 31
0.0
  0
LINE
  8
DETAIL
  6
CONTINUOUS
 62
     5
 10
-158.0
 20
80.0
 30
0.0
 11
-64.0
 21
80.0
 31
0.0
  0
LINE
  8
DETAIL
  6
CONTINUOUS
 62
     5
 10
-57.199241000000029
 20
69.5
 30
0.0
 11
-163.800759
 21
69.5
 31
0.0
  0
ARC
  8
DETAIL
  6
CONTINUOUS
 62
     5
 10
-189.0
 20
95.036535999999955
 30
0.0
 40
15.0
 50
180.0
 51
270.0
  0
LINE
  8
DETAIL
  6
CONTINUOUS
 62
     5
 10
-170.308673
 20
71.907433999999967
 30
0.0
 11
-199.0079139999998
 21
98.506783000000041
 31
0.0
  0
ARC
  8
DETAIL
  6
CONTINUOUS
 62
     5
 10
-156.23726770281419
 20
111.7150615286116
 30
0.0
 40
31.76401034055942
 50
179.48602236874899
 51
266.81875709927061
  0
LINE
  8
DETAIL
  6
CONTINUOUS
 62
     5
 10
-191.0
 20
80.036535999999955
 30
0.0
 11
-179.07952891123219
 21
80.036535999999955
 31
0.0
  0
LINE
  8
DETAIL
  6
CONTINUOUS
 62
     5
 10
-198.25
 20
83.228170321380389
 30
0.0
 11
-198.25
 21
37.0
 31
0.0
  0
LINE
  8
DETAIL
  6
CONTINUOUS
 62
     5
 10
-198.25
 20
37.0
 30
0.0
 11
-193.0
 21
37.0
 31
0.0
  0
LINE
  8
DETAIL
  6
CONTINUOUS
 62
     5
 10
-194.7499999999998
 20
81.182384997502481
 30
0.0
 11
-194.7499999999998
 21
37.0
 31
0.0
  0
ARC
  8
DETAIL
  6
CONTINUOUS
 62
     5
 10
-163.800759
 20
79.5
 30
0.0
 40
10.0
 50
229.39870500000029
 51
270.0
  0
LINE
  8
DETAIL
  6
CONTINUOUS
 62
     5
 10
-202.49999999999989
 20
111.4999999999999
 30
0.0
 11
-202.49999999999989
 21
106.0993489999998
 31
0.0
  0
ARC
  8
DETAIL
  6
CONTINUOUS
 62
     5
 10
-192.5
 20
106.0993489999998
 30
0.0
 40
10.0
 50
180.0
 51
229.39870500000029
  0
LINE
  8
DETAIL
  6
CONTINUOUS
 62
     5
 10
-50.691327000000001
 20
71.907433999999967
 30
0.0
 11
-21.992085999999968
 21
98.506783000000041
 31
0.0
  0
ARC
  8
DETAIL
  6
CONTINUOUS
 62
     5
 10
-65.762732297185835
 20
111.7150615286116
 30
0.0
 40
31.764010340559441
 50
273.18124290072939
 51
0.5139776312509635
  0
ARC
  8
DETAIL
  6
CONTINUOUS
 62
     5
 10
-57.199241000000029
 20
79.5
 30
0.0
 40
10.0
 50
270.0
 51
310.60129499999971
  0
ARC
  8
DETAIL
  6
CONTINUOUS
 62
     5
 10
-28.5
 20
106.0993489999998
 30
0.0
 40
10.0
 50
310.60129499999971
 51
0.0
  0
LINE
  8
DETAIL
  6
CONTINUOUS
 62
     5
 10
-12.0
 20
256.0
 30
0.0
 11
-186.0
 21
256.0
 31
0.0
  0
LINE
  8
DETAIL
  6
CONTINUOUS
 62
     5
 10
-64.000001999999995
 20
242.0
 30
0.0
 11
-158.00000199999999
 21
242.0
 31
0.0
  0
LINE
  8
DETAIL
  6
CONTINUOUS
 62
     5
 10
-57.199241000000029
 20
253.5
 30
0.0
 11
-164.07552100000001
 21
253.5
 31
0.0
  0
ARC
  8
DETAIL
  6
CONTINUOUS
 62
     5
 10
-182.20935299999999
 20
234.28123000000011
 30
0.0
 40
21.792462
 50
94.713204999995241
 51
180.73941700000131
  0
LINE
  8
DETAIL
  6
CONTINUOUS
 62
     5
 10
-170.58343500000001
 20
251.09256600000001
 30
0.0
 11
-199.2826759999999
 21
224.49321699999999
 31
0.0
  0
ARC
  8
DETAIL
  6
CONTINUOUS
 62
     5
 10
-158.0
 20
212.0
 30
0.0
 40
30.0
 50
90.0
 51
180.0
  0
LINE
  8
NOTE
  6
CONTINUOUS
 62
     4
 10
-209.0
 20
217.0
 30
0.0
 11
-209.0
 21
257.0
 31
0.0
  0
LINE
  8
DETAIL
  6
CONTINUOUS
 62
     5
 10
-182.82285999999999
 20
167.0474529999999
 30
0.0
 11
-166.523537
 21
167.0474529999999
 31
0.0
  0
ARC
  8
DETAIL
  6
CONTINUOUS
 62
     5
 10
-192.58156899999989
 20
217.07060499999989
 30
0.0
 40
10.0
 50
132.07561199999989
 51
172.67690700000389
  0
LINE
  8
NOTE
  6
CONTINUOUS
 62
     4
 10
-189.0
 20
237.0
 30
0.0
 11
-229.0
 21
237.0
 31
0.0
  0
LINE
  8
DETAIL
  6
CONTINUOUS
 62
     5
 10
-225.24999999999989
 20
233.5
 30
0.0
 11
-204.0
 21
233.50000000000011
 31
0.0
  0
LINE
  8
DETAIL
  6
CONTINUOUS
 62
     5
 10
-225.24999999999989
 20
237.0
 30
0.0
 11
-203.6821765150514
 21
237.0
 31
0.0
  0
LINE
  8
DETAIL
  6
CONTINUOUS
 62
     5
 10
-225.24999999999989
 20
237.0
 30
0.0
 11
-225.24999999999989
 21
233.5
 31
0.0
  0
ARC
  8
DETAIL
  6
CONTINUOUS
 62
     5
 10
-164.07552100000001
 20
243.5
 30
0.0
 40
10.0
 50
90.0
 51
130.60129499999971
  0
LINE
  8
DETAIL
  6
CONTINUOUS
 62
     5
 10
-11.5
 20
223.0
 30
0.0
 11
-11.5
 21
261.0
 31
0.0
  0
LINE
  8
DETAIL
  6
CONTINUOUS
 62
     5
 10
-50.691327000000001
 20
251.09256600000001
 30
0.0
 11
-21.992085999999968
 21
224.49321699999999
 31
0.0
  0
ARC
  8
DETAIL
  6
CONTINUOUS
 62
     5
 10
-64.0
 20
212.0
 30
0.0
 40
30.0
 50
0.0
 51
90.0
  0
LINE
  8
DETAIL
  6
CONTINUOUS
 62
     5
 10
-39.177140000000009
 20
167.0474529999999
 30
0.0
 11
-55.476462999999967
 21
167.0474529999999
 31
0.0
  0
ARC
  8
DETAIL
  6
CONTINUOUS
 62
     5
 10
-28.5
 20
216.9006509999999
 30
0.0
 40
10.0
 50
0.0
 51
49.398705000000326
  0
ARC
  8
DETAIL
  6
CONTINUOUS
 62
     5
 10
-6.5
 20
261.0
 30
0.0
 40
5.0
 50
90.0
 51
180.0
  0
ARC
  8
DETAIL
  6
CONTINUOUS
 62
     5
 10
-57.199241000000029
 20
243.5
 30
0.0
 40
10.0
 50
49.398705000000326
 51
90.0
  0
CIRCLE
  8
SIZE
  6
CONTINUOUS
 62
    30
 10
-11.5
 20
587.96441469406182
 30
0.0
 40
6.0
  0
LINE
  8
SIZE
  6
CONTINUOUS
 62
    30
 10
-209.0
 20
861.66990034182618
 30
0.0
 11
-197.0
 21
861.66990034182618
 31
0.0
  0
CIRCLE
  8
SIZE
  6
CONTINUOUS
 62
    30
 10
-209.0
 20
861.66990034182618
 30
0.0
 40
6.0
  0
LINE
  8
OUTLINE
  6
CONTINUOUS
 62
     3
 10
193.0
 20
0.0
 30
0.0
 11
193.0
 21
230.0
 31
0.0
  0
LINE
  8
NOTE
  6
CONTINUOUS
 62
     4
 10
205.0
 20
-20.0
 30
0.0
 11
205.0
 21
20.0
 31
0.0
  0
LINE
  8
NOTE
  6
CONTINUOUS
 62
     4
 10
150.0
 20
-20.0
 30
0.0
 11
150.0
 21
20.0
 31
0.0
  0
CIRCLE
  8
FIX
  6
CONTINUOUS
 62
    11
 10
150.0
 20
0.0
 30
0.0
 40
2.5
  0
CIRCLE
  8
FIX
  6
CONTINUOUS
 62
    11
 10
205.0
 20
0.0
 30
0.0
 40
2.5
  0
LINE
  8
DETAIL
  6
CONTINUOUS
 62
     5
 10
193.0
 20
0.0
 30
0.0
 11
193.0
 21
237.0
 31
0.0
  0
LINE
  8
SIZE
  6
CONTINUOUS
 62
    30
 10
235.0
 20
0.0
 30
0.0
 11
234.97260899999989
 21
-697.04707916852772
 31
0.0
  0
LINE
  8
SIZE
  6
CONTINUOUS
 62
    30
 10
234.97260899999989
 20
-677.0470791685276
 30
0.0
 11
222.97260899999989
 21
-677.0470791685276
 31
0.0
  0
CIRCLE
  8
SIZE
  6
CONTINUOUS
 62
    30
 10
234.97260899999989
 20
-677.0470791685276
 30
0.0
 40
6.0
  0
LINE
  8
SIZE
  6
CONTINUOUS
 62
    30
 10
205.0
 20
-40.0
 30
0.0
 11
205.0
 21
-570.68555879985433
 31
0.0
  0
LINE
  8
SIZE
  6
CONTINUOUS
 62
    30
 10
193.0
 20
257.08315208662589
 30
0.0
 11
193.0
 21
755.87865197322299
 31
0.0
  0
LINE
  8
SIZE
  6
CONTINUOUS
 62
    30
 10
150.0
 20
-40.0
 30
0.0
 11
150.0
 21
-301.74680453876857
 31
0.0
  0
CIRCLE
  8
SIZE
  6
CONTINUOUS
 62
    30
 10
193.0
 20
735.87865197322299
 30
0.0
 40
6.0
  0
LINE
  8
SIZE
  6
CONTINUOUS
 62
    30
 10
205.0
 20
-550.68555879985433
 30
0.0
 11
193.0
 21
-550.68555879985433
 31
0.0
  0
CIRCLE
  8
SIZE
  6
CONTINUOUS
 62
    30
 10
205.0
 20
-550.68555879985433
 30
0.0
 40
6.0
  0
LINE
  8
SIZE
  6
CONTINUOUS
 62
    30
 10
193.0
 20
735.87865197322299
 30
0.0
 11
181.0
 21
735.87865197322299
 31
0.0
  0
LINE
  8
SIZE
  6
CONTINUOUS
 62
    30
 10
150.0
 20
-281.74680453876857
 30
0.0
 11
138.0
 21
-281.74680453876857
 31
0.0
  0
CIRCLE
  8
SIZE
  6
CONTINUOUS
 62
    30
 10
150.0
 20
-281.74680453876857
 30
0.0
 40
6.0
  0
LINE
  8
NOTE
  6
CONTINUOUS
 62
     4
 10
130.0
 20
0.0
 30
0.0
 11
170.0
 21
0.0
 31
0.0
  0
LINE
  8
NOTE
  6
CONTINUOUS
 62
     4
 10
185.0
 20
0.0
 30
0.0
 11
225.0
 21
0.0
 31
0.0
  0
CIRCLE
  8
FIX
  6
CONTINUOUS
 62
    11
 10
209.0
 20
237.0
 30
0.0
 40
6.0
  0
LINE
  8
NOTE
  6
CONTINUOUS
 62
     4
 10
309.05379355721061
 20
276.09793089094683
 30
0.0
 11
542.83216495828856
 21
276.09793089094683
 31
0.0
  0
TEXT
  8
NOTE
  6
CONTINUOUS
 62
     4
 10
339.85312555721072
 20
314.1887658909468
 30
0.0
 40
64.0
  1
AH 4
 41
0.9
  0
LINE
  8
SIZE
  6
CONTINUOUS
 62
    30
 10
209.0
 20
274.5
 30
0.0
 11
209.0
 21
881.66990034182618
 31
0.0
  0
LINE
  8
NOTE
  6
CONTINUOUS
 62
     4
 10
209.0
 20
237.0
 30
0.0
 11
309.05379355721061
 21
276.09793089094683
 31
0.0
  0
TEXT
  8
NOTE
  6
CONTINUOUS
 62
     4
 10
284.32690021259373
 20
523.430123829889
 30
0.0
 40
64.0
  1
EL
 41
0.9
  0
LINE
  8
NOTE
  6
CONTINUOUS
 62
     4
 10
257.64755721259348
 20
496.47643782988871
 30
0.0
 11
388.45716300469297
 21
496.47643782988871
 31
0.0
  0
LINE
  8
SIZE
  6
CONTINUOUS
 62
    30
 10
86.5
 20
280.94001400000002
 30
0.0
 11
86.5
 21
607.96441469406182
 31
0.0
  0
LINE
  8
NOTE
  6
CONTINUOUS
 62
     4
 10
209.0
 20
237.0
 30
0.0
 11
241.8823669999999
 21
260.77608199999992
 31
0.0
  0
LINE
  8
NOTE
  6
CONTINUOUS
 62
     4
 10
248.86500699999991
 20
241.28348099999991
 30
0.0
 11
209.0
 21
237.0
 31
0.0
  0
LINE
  8
NOTE
  6
CONTINUOUS
 62
     4
 10
168.9999999999998
 20
230.00000000000011
 30
0.0
 11
257.64755721259348
 21
496.47643782988871
 31
0.0
  0
LINE
  8
DETAIL
  6
CONTINUOUS
 62
     5
 10
194.7499999999998
 20
237.0
 30
0.0
 11
194.7499999999998
 21
37.0
 31
0.0
  0
LINE
  8
DETAIL
  6
CONTINUOUS
 62
     5
 10
198.25
 20
233.5
 30
0.0
 11
198.25
 21
37.0
 31
0.0
  0
LINE
  8
DETAIL
  6
CONTINUOUS
 62
     5
 10
198.25
 20
37.0
 30
0.0
 11
193.0
 21
37.0
 31
0.0
  0
LINE
  8
DETAIL
  6
CONTINUOUS
 62
     5
 10
86.5
 20
230.0
 30
0.0
 11
86.5
 21
261.0
 31
0.0
  0
ARC
  8
DETAIL
  6
CONTINUOUS
 62
     5
 10
81.5
 20
261.0
 30
0.0
 40
5.0
 50
0.0
 51
90.0
  0
LINE
  8
NOTE
  6
CONTINUOUS
 62
     4
 10
169.0
 20
210.0
 30
0.0
 11
169.0
 21
250.0
 31
0.0
  0
LINE
  8
NOTE
  6
CONTINUOUS
 62
     4
 10
209.0
 20
218.0
 30
0.0
 11
209.0
 21
258.0
 31
0.0
  0
LINE
  8
NOTE
  6
CONTINUOUS
 62
     4
 10
171.27974570058339
 20
269.93498201953821
 30
0.0
 11
168.9999999999998
 21
230.00000000000011
 31
0.0
  0
LINE
  8
NOTE
  6
CONTINUOUS
 62
     4
 10
149.0
 20
230.0
 30
0.0
 11
188.9999999999998
 21
230.0
 31
0.0
  0
LINE
  8
NOTE
  6
CONTINUOUS
 62
     4
 10
168.9999999999998
 20
230.00000000000011
 30
0.0
 11
190.94180959583809
 21
263.44483534927878
 31
0.0
  0
LINE
  8
NOTE
  6
CONTINUOUS
 62
     4
 10
189.0
 20
237.0
 30
0.0
 11
229.0
 21
237.0
 31
0.0
  0
LINE
  8
DETAIL
  6
CONTINUOUS
 62
     5
 10
225.25
 20
237.0
 30
0.0
 11
225.25
 21
233.5
 31
0.0
  0
LINE
  8
DETAIL
  6
CONTINUOUS
 62
     5
 10
225.25
 20
237.0
 30
0.0
 11
193.0
 21
237.0
 31
0.0
  0
LINE
  8
DETAIL
  6
CONTINUOUS
 62
     5
 10
225.25
 20
233.5
 30
0.0
 11
198.25
 21
233.5
 31
0.0
  0
TEXT
  8
SIZE
  6
CONTINUOUS
 62
    30
 10
-54.45783965047157
 20
612.96441469406182
 30
0.0
 40
64.0
  1
φ98
 41
0.9
 72
     1
 11
32.490731778099871
 21
612.96441469406182
 31
0.0
  0
LINE
  8
SIZE
  6
CONTINUOUS
 62
    30
 10
74.5
 20
587.96441469406182
 30
0.0
 11
0.5
 21
587.96441469406182
 31
0.0
  0
LINE
  8
SIZE
  6
CONTINUOUS
 62
    30
 10
86.5
 20
587.96441469406182
 30
0.0
 11
74.5
 21
587.96441469406182
 31
0.0
  0
CIRCLE
  8
SIZE
  6
CONTINUOUS
 62
    30
 10
86.5
 20
587.96441469406182
 30
0.0
 40
6.0
  0
LINE
  8
SIZE
  6
CONTINUOUS
 62
    30
 10
209.0
 20
861.66990034182618
 30
0.0
 11
197.0
 21
861.66990034182618
 31
0.0
  0
CIRCLE
  8
SIZE
  6
CONTINUOUS
 62
    30
 10
209.0
 20
861.66990034182618
 30
0.0
 40
6.0
  0
TEXT
  8
ETC
  6
CONTINUOUS
 62
    61
 10
364.94151033459462
 20
871.99615964688951
 30
0.0
 40
64.0
  1
VD-23ZVX6-FP_2
 41
0.9
  0
TEXT
  8
ETC
  6
CONTINUOUS
 62
    61
 10
360.75551633459418
 20
754.04084963205833
 30
0.0
 40
64.0
  1
換気扇
 41
0.9
  0
TEXT
  8
ETC
  6
CONTINUOUS
 62
    61
 10
411.36301898685088
 20
646.20506959251088
 30
0.0
 40
40.0
  1
VD-23ZVX6-FP
 41
0.9
  0
LINE
  8
SIZE
  6
CONTINUOUS
 62
    30
 10
-110.9999999999999
 20
308.48522400000002
 30
0.0
 11
-110.9999999999999
 21
521.63911935000669
 31
0.0
  0
LINE
  8
SIZE
  6
CONTINUOUS
 62
    30
 10
0.0
 20
334.0
 30
0.0
 11
0.0
 21
521.63911935000669
 31
0.0
  0
LINE
  8
SIZE
  6
CONTINUOUS
 62
    30
 10
-12.0
 20
501.63911935000669
 30
0.0
 11
-98.999999999999886
 21
501.63911935000669
 31
0.0
  0
LINE
  8
SIZE
  6
CONTINUOUS
 62
    30
 10
-110.9999999999999
 20
501.63911935000669
 30
0.0
 11
-382.23638328752082
 21
501.63911935000669
 31
0.0
  0
CIRCLE
  8
SIZE
  6
CONTINUOUS
 62
    30
 10
0.0
 20
501.63911935000669
 30
0.0
 40
6.0
  0
LINE
  8
SIZE
  6
CONTINUOUS
 62
    30
 10
0.0
 20
501.63911935000669
 30
0.0
 11
-12.0
 21
501.63911935000669
 31
0.0
  0
CIRCLE
  8
SIZE
  6
CONTINUOUS
 62
    30
 10
-110.9999999999999
 20
501.63911935000669
 30
0.0
 40
6.0
  0
LINE
  8
SIZE
  6
CONTINUOUS
 62
    30
 10
-110.9999999999999
 20
501.63911935000669
 30
0.0
 11
-98.999999999999886
 21
501.63911935000669
 31
0.0
  0
TEXT
  8
SIZE
  6
CONTINUOUS
 62
    30
 10
-357.23638328752071
 20
526.63911935000669
 30
0.0
 40
64.0
  1
111
 41
0.9
 72
     1
 11
-306.49352614466352
 21
526.63911935000669
 31
0.0
  0
POINT
  8
DEFPOINTS
  6
CONTINUOUS
 62
    30
 10
-110.9999999999999
 20
288.48522400000002
 30
0.0
  0
POINT
  8
DEFPOINTS
  6
CONTINUOUS
 62
    30
 10
0.0
 20
314.0
 30
0.0
  0
POINT
  8
DEFPOINTS
  6
CONTINUOUS
 62
    30
 10
0.0
 20
501.63911935000669
 30
0.0
  0
LINE
  8
SIZE
  6
CONTINUOUS
 62
    30
 10
-499.13281158729683
 20
443.42307930327212
 30
0.0
 11
-182.24338203721089
 21
213.6563695578773
 31
0.0
  0
LINE
  8
SIZE
  6
CONTINUOUS
 62
    30
 10
-39.756617962788823
 20
110.3436304421227
 30
0.0
 11
-30.04161132135096
 21
103.2995800478667
 31
0.0
  0
TEXT
  8
SIZE
  6
CONTINUOUS
 62
    30
 10
-475.7650887519959
 20
457.35992852493132
 30
0.0
 40
64.0
  1
φ152
 50
324.05529593417458
 41
0.9
 72
     1
 11
-387.60834277140538
 21
393.44020266162528
 31
0.0
  0
LINE
  8
SIZE
  6
CONTINUOUS
 62
    30
 10
-49.47162460422669
 20
117.38768083637881
 30
0.0
 11
-172.52837539577311
 21
206.61231916362141
 31
0.0
  0
CIRCLE
  8
SIZE
  6
CONTINUOUS
 62
    30
 10
-49.47162460422669
 20
117.38768083637881
 30
0.0
 40
6.0
  0
LINE
  8
SIZE
  6
CONTINUOUS
 62
    30
 10
-49.47162460422669
 20
117.38768083637881
 30
0.0
 11
-39.756617962788823
 21
110.3436304421227
 31
0.0
  0
CIRCLE
  8
SIZE
  6
CONTINUOUS
 62
    30
 10
-172.52837539577311
 20
206.61231916362141
 30
0.0
 40
6.0
  0
LINE
  8
SIZE
  6
CONTINUOUS
 62
    30
 10
-172.52837539577311
 20
206.61231916362141
 30
0.0
 11
-182.24338203721089
 21
213.6563695578773
 31
0.0
  0
POINT
  8
DEFPOINTS
  6
CONTINUOUS
 62
    30
 10
-172.52837539577311
 20
206.61231916362141
 30
0.0
  0
POINT
  8
DEFPOINTS
  6
CONTINUOUS
 62
    30
 10
-49.47162460422669
 20
117.38768083637881
 30
0.0
  0
LINE
  8
SIZE
  6
CONTINUOUS
 62
    30
 10
-710.0675776644847
 20
358.05429572354751
 30
0.0
 11
-190.83352367188181
 21
188.12677741572909
 31
0.0
  0
LINE
  8
SIZE
  6
CONTINUOUS
 62
    30
 10
-31.16647632811782
 20
135.87322258427091
 30
0.0
 11
-19.761687232134591
 21
132.1408258105954
 31
0.0
  0
TEXT
  8
SIZE
  6
CONTINUOUS
 62
    30
 10
-692.08718023773099
 20
378.47466656030502
 30
0.0
 40
64.0
  1
φ144
 50
341.8785012239361
 41
0.9
 72
     1
 11
-587.29346100149735
 21
344.17927220561711
 31
0.0
  0
LINE
  8
SIZE
  6
CONTINUOUS
 62
    30
 10
-42.571265424100943
 20
139.60561935794649
 30
0.0
 11
-179.4287345758988
 21
184.39438064205351
 31
0.0
  0
CIRCLE
  8
SIZE
  6
CONTINUOUS
 62
    30
 10
-42.571265424100943
 20
139.60561935794649
 30
0.0
 40
6.0
  0
LINE
  8
SIZE
  6
CONTINUOUS
 62
    30
 10
-42.571265424100943
 20
139.60561935794649
 30
0.0
 11
-31.16647632811782
 21
135.87322258427091
 31
0.0
  0
CIRCLE
  8
SIZE
  6
CONTINUOUS
 62
    30
 10
-179.4287345758988
 20
184.39438064205351
 30
0.0
 40
6.0
  0
LINE
  8
SIZE
  6
CONTINUOUS
 62
    30
 10
-179.4287345758988
 20
184.39438064205351
 30
0.0
 11
-190.83352367188181
 21
188.12677741572909
 31
0.0
  0
POINT
  8
DEFPOINTS
  6
CONTINUOUS
 62
    30
 10
-179.4287345758988
 20
184.39438064205351
 30
0.0
  0
POINT
  8
DEFPOINTS
  6
CONTINUOUS
 62
    30
 10
-42.571265424100943
 20
139.60561935794649
 30
0.0
  0
LINE
  8
SIZE
  6
CONTINUOUS
 62
    30
 10
255.0
 20
0.0
 30
0.0
 11
532.9107414397422
 21
-0.0000000000001137
 31
0.0
  0
LINE
  8
SIZE
  6
CONTINUOUS
 62
    30
 10
16.017730999999909
 20
162.0
 30
0.0
 11
532.9107414397422
 21
161.99999999999989
 31
0.0
  0
LINE
  8
SIZE
  6
CONTINUOUS
 62
    30
 10
512.9107414397422
 20
11.99999999999989
 30
0.0
 11
512.9107414397422
 21
149.99999999999989
 31
0.0
  0
CIRCLE
  8
SIZE
  6
CONTINUOUS
 62
    30
 10
512.9107414397422
 20
-0.0000000000001137
 30
0.0
 40
6.0
  0
LINE
  8
SIZE
  6
CONTINUOUS
 62
    30
 10
512.9107414397422
 20
-0.0000000000001137
 30
0.0
 11
512.9107414397422
 21
11.99999999999989
 31
0.0
  0
CIRCLE
  8
SIZE
  6
CONTINUOUS
 62
    30
 10
512.9107414397422
 20
161.99999999999989
 30
0.0
 40
6.0
  0
LINE
  8
SIZE
  6
CONTINUOUS
 62
    30
 10
512.9107414397422
 20
161.99999999999989
 30
0.0
 11
512.9107414397422
 21
149.99999999999989
 31
0.0
  0
TEXT
  8
SIZE
  6
CONTINUOUS
 62
    30
 10
487.9107414397422
 20
12.428571428571431
 30
0.0
 40
64.0
  1
162
 50
90.0
 41
0.9
 72
     1
 11
487.9107414397422
 21
81.0
 31
0.0
  0
POINT
  8
DEFPOINTS
  6
CONTINUOUS
 62
    30
 10
235.0
 20
0.0
 30
0.0
  0
POINT
  8
DEFPOINTS
  6
CONTINUOUS
 62
    30
 10
-3.982269000000088
 20
162.0
 30
0.0
  0
POINT
  8
DEFPOINTS
  6
CONTINUOUS
 62
    30
 10
512.9107414397422
 20
161.99999999999989
 30
0.0
  0
LINE
  8
SIZE
  6
CONTINUOUS
 62
    30
 10
-254.9999999999998
 20
0.0
 30
0.0
 11
-621.48175843240926
 21
0.0
 31
0.0
  0
LINE
  8
SIZE
  6
CONTINUOUS
 62
    30
 10
-211.0
 20
80.036535999999955
 30
0.0
 11
-621.48175843240926
 21
80.036536000000069
 31
0.0
  0
LINE
  8
SIZE
  6
CONTINUOUS
 62
    30
 10
-601.48175843240926
 20
12.0
 30
0.0
 11
-601.48175843240926
 21
68.036536000000069
 31
0.0
  0
LINE
  8
SIZE
  6
CONTINUOUS
 62
    30
 10
-601.48175843240926
 20
80.036536000000069
 30
0.0
 11
-601.48175843240926
 21
235.29367885714279
 31
0.0
  0
CIRCLE
  8
SIZE
  6
CONTINUOUS
 62
    30
 10
-601.48175843240926
 20
0.0
 30
0.0
 40
6.0
  0
LINE
  8
SIZE
  6
CONTINUOUS
 62
    30
 10
-601.48175843240926
 20
0.0
 30
0.0
 11
-601.48175843240926
 21
12.0
 31
0.0
  0
CIRCLE
  8
SIZE
  6
CONTINUOUS
 62
    30
 10
-601.48175843240926
 20
80.036536000000069
 30
0.0
 40
6.0
  0
LINE
  8
SIZE
  6
CONTINUOUS
 62
    30
 10
-601.48175843240926
 20
80.036536000000069
 30
0.0
 11
-601.48175843240926
 21
68.036536000000069
 31
0.0
  0
TEXT
  8
SIZE
  6
CONTINUOUS
 62
    30
 10
-626.48175843240926
 20
117.036536
 30
0.0
 40
64.0
  1
80
 50
90.0
 41
0.9
 72
     1
 11
-626.48175843240926
 21
163.66510742857139
 31
0.0
  0
POINT
  8
DEFPOINTS
  6
CONTINUOUS
 62
    30
 10
-234.9999999999998
 20
0.0
 30
0.0
  0
POINT
  8
DEFPOINTS
  6
CONTINUOUS
 62
    30
 10
-191.0
 20
80.036535999999955
 30
0.0
  0
POINT
  8
DEFPOINTS
  6
CONTINUOUS
 62
    30
 10
-601.48175843240926
 20
80.036536000000069
 30
0.0
  0
LINE
  8
DETAIL
  6
CONTINUOUS
 62
     5
 10
196.0
 20
8.0
 30
0.0
 11
196.0
 21
28.0
 31
0.0
  0
LINE
  8
DETAIL
  6
CONTINUOUS
 62
     5
 10
193.0
 20
8.0
 30
0.0
 11
196.0
 21
8.0
 31
0.0
  0
LINE
  8
DETAIL
  6
CONTINUOUS
 62
     5
 10
193.0
 20
28.0
 30
0.0
 11
196.0
 21
28.0
 31
0.0
  0
LINE
  8
DETAIL
  6
CONTINUOUS
 62
     5
 10
-196.0
 20
8.0
 30
0.0
 11
-196.0
 21
28.0
 31
0.0
  0
LINE
  8
DETAIL
  6
CONTINUOUS
 62
     5
 10
-193.0
 20
8.0
 30
0.0
 11
-196.0
 21
8.0
 31
0.0
  0
LINE
  8
DETAIL
  6
CONTINUOUS
 62
     5
 10
-193.0
 20
28.0
 30
0.0
 11
-196.0
 21
28.0
 31
0.0
  0
LINE
  8
SIZE
  6
CONTINUOUS
 62
    30
 10
-196.0
 20
-12.0
 30
0.0
 11
-196.00000000000011
 21
-447.85506122513351
 31
0.0
  0
LINE
  8
SIZE
  6
CONTINUOUS
 62
    30
 10
196.0
 20
-12.0
 30
0.0
 11
196.0
 21
-447.85506122513351
 31
0.0
  0
LINE
  8
SIZE
  6
CONTINUOUS
 62
    30
 10
-184.00000000000011
 20
-427.85506122513351
 30
0.0
 11
184.0
 21
-427.85506122513351
 31
0.0
  0
CIRCLE
  8
SIZE
  6
CONTINUOUS
 62
    30
 10
-196.00000000000011
 20
-427.85506122513351
 30
0.0
 40
6.0
  0
LINE
  8
SIZE
  6
CONTINUOUS
 62
    30
 10
-196.00000000000011
 20
-427.85506122513351
 30
0.0
 11
-184.00000000000011
 21
-427.85506122513351
 31
0.0
  0
CIRCLE
  8
SIZE
  6
CONTINUOUS
 62
    30
 10
196.0
 20
-427.85506122513351
 30
0.0
 40
6.0
  0
LINE
  8
SIZE
  6
CONTINUOUS
 62
    30
 10
196.0
 20
-427.85506122513351
 30
0.0
 11
184.0
 21
-427.85506122513351
 31
0.0
  0
TEXT
  8
SIZE
  6
CONTINUOUS
 62
    30
 10
-74.05714285714285
 20
-402.85506122513351
 30
0.0
 40
64.0
  1
392
 41
0.9
 72
     1
 11
0.0
 21
-402.85506122513351
 31
0.0
  0
POINT
  8
DEFPOINTS
  6
CONTINUOUS
 62
    30
 10
-196.0
 20
8.0
 30
0.0
  0
POINT
  8
DEFPOINTS
  6
CONTINUOUS
 62
    30
 10
196.0
 20
8.0
 30
0.0
  0
POINT
  8
DEFPOINTS
  6
CONTINUOUS
 62
    30
 10
196.0
 20
-427.85506122513351
 30
0.0
  0
LINE
  8
SIZE
  6
CONTINUOUS
 62
    30
 10
-192.9999999999998
 20
287.7604999732232
 30
0.0
 11
-192.99999999999969
 21
755.87865197322299
 31
0.0
  0
LINE
  8
SIZE
  6
CONTINUOUS
 62
    30
 10
-204.0
 20
254.56245899999999
 30
0.0
 11
-204.0
 21
755.87865197322299
 31
0.0
  0
LINE
  8
SIZE
  6
CONTINUOUS
 62
    30
 10
-180.99999999999969
 20
735.87865197322299
 30
0.0
 11
-168.99999999999969
 21
735.87865197322299
 31
0.0
  0
LINE
  8
SIZE
  6
CONTINUOUS
 62
    30
 10
-216.0
 20
735.87865197322299
 30
0.0
 11
-341.57809778240238
 21
735.87865197322299
 31
0.0
  0
LINE
  8
SIZE
  6
CONTINUOUS
 62
    30
 10
-192.99999999999969
 20
735.87865197322299
 30
0.0
 11
-204.0
 21
735.87865197322299
 31
0.0
  0
CIRCLE
  8
SIZE
  6
CONTINUOUS
 62
    30
 10
-192.99999999999969
 20
735.87865197322299
 30
0.0
 40
6.0
  0
LINE
  8
SIZE
  6
CONTINUOUS
 62
    30
 10
-192.99999999999969
 20
735.87865197322299
 30
0.0
 11
-180.99999999999969
 21
735.87865197322299
 31
0.0
  0
CIRCLE
  8
SIZE
  6
CONTINUOUS
 62
    30
 10
-204.0
 20
735.87865197322299
 30
0.0
 40
6.0
  0
LINE
  8
SIZE
  6
CONTINUOUS
 62
    30
 10
-204.0
 20
735.87865197322299
 30
0.0
 11
-216.0
 21
735.87865197322299
 31
0.0
  0
TEXT
  8
SIZE
  6
CONTINUOUS
 62
    30
 10
-316.57809778240249
 20
760.87865197322299
 30
0.0
 40
64.0
  1
11
 41
0.9
 72
     1
 11
-287.77809778240248
 21
760.87865197322299
 31
0.0
  0
POINT
  8
DEFPOINTS
  6
CONTINUOUS
 62
    30
 10
-192.9999999999998
 20
267.7604999732232
 30
0.0
  0
POINT
  8
DEFPOINTS
  6
CONTINUOUS
 62
    30
 10
-204.0
 20
234.56245899999999
 30
0.0
  0
POINT
  8
DEFPOINTS
  6
CONTINUOUS
 62
    30
 10
-204.0
 20
735.87865197322299
 30
0.0
  0
LINE
  8
SIZE
  6
CONTINUOUS
 62
    30
 10
245.25
 20
237.0
 30
0.0
 11
663.13547707034286
 21
236.99999999999989
 31
0.0
  0
LINE
  8
SIZE
  6
CONTINUOUS
 62
    30
 10
255.0
 20
0.0
 30
0.0
 11
663.13547707034286
 21
0.0
 31
0.0
  0
LINE
  8
SIZE
  6
CONTINUOUS
 62
    30
 10
643.13547707034286
 20
224.99999999999989
 30
0.0
 11
643.13547707034286
 21
12.0
 31
0.0
  0
CIRCLE
  8
SIZE
  6
CONTINUOUS
 62
    30
 10
643.13547707034286
 20
236.99999999999989
 30
0.0
 40
6.0
  0
LINE
  8
SIZE
  6
CONTINUOUS
 62
    30
 10
643.13547707034286
 20
236.99999999999989
 30
0.0
 11
643.13547707034286
 21
224.99999999999989
 31
0.0
  0
CIRCLE
  8
SIZE
  6
CONTINUOUS
 62
    30
 10
643.13547707034286
 20
0.0
 30
0.0
 40
6.0
  0
LINE
  8
SIZE
  6
CONTINUOUS
 62
    30
 10
643.13547707034286
 20
0.0
 30
0.0
 11
643.13547707034286
 21
12.0
 31
0.0
  0
TEXT
  8
SIZE
  6
CONTINUOUS
 62
    30
 10
618.13547707034286
 20
44.442857142857022
 30
0.0
 40
64.0
  1
237
 50
90.0
 41
0.9
 72
     1
 11
618.13547707034286
 21
118.4999999999999
 31
0.0
  0
POINT
  8
DEFPOINTS
  6
CONTINUOUS
 62
    30
 10
225.25
 20
237.0
 30
0.0
  0
POINT
  8
DEFPOINTS
  6
CONTINUOUS
 62
    30
 10
235.0
 20
0.0
 30
0.0
  0
POINT
  8
DEFPOINTS
  6
CONTINUOUS
 62
    30
 10
643.13547707034286
 20
0.0
 30
0.0
  0
LINE
  8
DETAIL
  6
CONTINUOUS
 62
     5
 10
-233.7309178144933
 20
-54.038822294131933
 30
0.0
 11
233.73108475602751
 21
-54.038822294131933
 31
0.0
  0
ARC
  8
DETAIL
  6
CONTINUOUS
 62
     5
 10
-233.7309178144933
 20
-53.038622294131983
 30
0.0
 40
1.00019999999991
 50
182.99999999753999
 51
270.0
  0
LINE
  8
DETAIL
  6
CONTINUOUS
 62
     5
 10
-181.97233042058181
 20
-31.82531976496557
 30
0.0
 11
-181.60448190411259
 21
-31.82531976496557
 31
0.0
  0
LINE
  8
DETAIL
  6
CONTINUOUS
 62
     5
 10
-181.9461289715864
 20
-34.827708422039002
 30
0.0
 11
-181.60448190411259
 21
-34.827708422039002
 31
0.0
  0
LINE
  8
DETAIL
  6
CONTINUOUS
 62
     5
 10
-180.80384492889431
 20
-46.236785318913462
 30
0.0
 11
-180.80384492889431
 21
-27.121577535551751
 31
0.0
  0
LINE
  8
DETAIL
  6
CONTINUOUS
 62
     5
 10
-180.80384492889431
 20
-27.121577535551751
 30
0.0
 11
-181.60448190411259
 21
-27.121577535551751
 31
0.0
  0
LINE
  8
DETAIL
  6
CONTINUOUS
 62
     5
 10
-181.60448190411259
 20
-46.236785318913462
 30
0.0
 11
-181.60448190411259
 21
-27.121577535551751
 31
0.0
  0
ARC
  8
DETAIL
  6
CONTINUOUS
 62
     5
 10
-180.00320795367409
 20
-46.236785318913462
 30
0.0
 40
0.8006369752194481
 50
180.0
 51
269.39604809250977
  0
ARC
  8
DETAIL
  6
CONTINUOUS
 62
     5
 10
-180.00320795367409
 20
-46.236785318913462
 30
0.0
 40
1.6012739504384279
 50
180.0
 51
210.01911603939189
  0
LINE
  8
DETAIL
  6
CONTINUOUS
 62
     5
 10
-179.60288946606309
 20
-34.827708422039002
 30
0.0
 11
-177.4011377842107
 21
-34.827708422039002
 31
0.0
  0
LINE
  8
DETAIL
  6
CONTINUOUS
 62
     5
 10
-179.60288946606309
 20
-31.82531976496557
 30
0.0
 11
-177.4011377842107
 21
-31.82531976496557
 31
0.0
  0
ARC
  8
DETAIL
  6
CONTINUOUS
 62
     5
 10
-180.00320795367409
 20
-30.123966192625179
 30
0.0
 40
0.8006369752194481
 50
180.0
 51
270.0
  0
LINE
  8
DETAIL
  6
CONTINUOUS
 62
     5
 10
-179.60288946606309
 20
-30.924603167843539
 30
0.0
 11
-180.00320795367409
 21
-30.924603167843539
 31
0.0
  0
LINE
  8
DETAIL
  6
CONTINUOUS
 62
     5
 10
-179.60288946606309
 20
-35.728359550072128
 30
0.0
 11
-179.60288946606309
 21
-30.924668636429029
 31
0.0
  0
LINE
  8
DETAIL
  6
CONTINUOUS
 62
     5
 10
-179.60288946606309
 20
-35.728425019158749
 30
0.0
 11
-180.00320795367409
 21
-35.728425019158749
 31
0.0
  0
ARC
  8
DETAIL
  6
CONTINUOUS
 62
     5
 10
-180.00320795367409
 20
-36.52906199437848
 30
0.0
 40
0.8006369752196582
 50
90.0
 51
180.0
  0
LINE
  8
DETAIL
  6
CONTINUOUS
 62
     5
 10
-177.4011377842107
 20
-31.82531976496557
 30
0.0
 11
-177.4011377842107
 21
-34.827708422039002
 31
0.0
  0
ARC
  8
DETAIL
  6
CONTINUOUS
 62
     5
 10
-183.26335769774599
 20
-10.308201055947389
 30
0.0
 40
0.30023886570672
 50
90.0
 51
179.00000000001131
  0
LINE
  8
DETAIL
  6
CONTINUOUS
 62
     5
 10
-183.16597824605921
 20
-10.00796219024096
 30
0.0
 11
-183.56442473750761
 21
-10.353026973490159
 31
0.0
  0
LINE
  8
DETAIL
  6
CONTINUOUS
 62
     5
 10
-182.58816827929149
 20
-10.00796219024096
 30
0.0
 11
-183.57329328059129
 21
-10.8611054666535
 31
0.0
  0
ARC
  8
DETAIL
  6
CONTINUOUS
 62
     5
 10
-185.0460512935351
 20
-13.510748956823591
 30
0.0
 40
2.00159243804847
 50
358.89829388474681
 51
43.505196684256063
  0
LINE
  8
DETAIL
  6
CONTINUOUS
 62
     5
 10
-183.29428782781179
 20
-26.52109980413843
 30
0.0
 11
-183.0448288698652
 21
-13.5492340029723
 31
0.0
  0
LINE
  8
DETAIL
  6
CONTINUOUS
 62
     5
 10
-202.22088401600919
 20
-47.00881574867708
 30
0.0
 11
-202.22088401600919
 21
-47.037422294131829
 31
0.0
  0
LINE
  8
DETAIL
  6
CONTINUOUS
 62
     5
 10
-234.44531221738541
 20
-53.126539511886683
 30
0.0
 11
-234.44309667273049
 21
-53.124343389182741
 31
0.0
  0
ARC
  8
DETAIL
  6
CONTINUOUS
 62
     5
 10
-234.51969041760819
 20
-0.5003981095105701
 30
0.0
 40
0.500398109511198
 50
90.0
 51
177.00000000003351
  0
LINE
  8
DETAIL
  6
CONTINUOUS
 62
     5
 10
-235.01940274852399
 20
-0.4742092955693806
 30
0.0
 11
-235.04699999999869
 21
-1.0007962190229589
 31
0.0
  0
ARC
  8
DETAIL
  6
CONTINUOUS
 62
     5
 10
-233.90629962775071
 20
-9.007165971215727
 30
0.0
 40
1.0007962190236199
 50
180.9999999999757
 51
270.0
  0
LINE
  8
DETAIL
  6
CONTINUOUS
 62
     5
 10
-235.04699999999869
 20
-1.0007962190229589
 30
0.0
 11
-234.90694342050639
 21
-9.0246322731532018
 31
0.0
  0
ARC
  8
DETAIL
  6
CONTINUOUS
 62
     5
 10
-202.76375990422821
 20
-10.308201055947389
 30
0.0
 40
0.300238865707122
 50
0.9999999999822233
 51
90.0
  0
LINE
  8
DETAIL
  6
CONTINUOUS
 62
     5
 10
0.0
 20
-10.00796219024096
 30
0.0
 11
-233.90629962775071
 21
-10.00796219024096
 31
0.0
  0
LINE
  8
DETAIL
  6
CONTINUOUS
 62
     5
 10
-202.46356676640059
 20
-10.302961165165931
 30
0.0
 11
-201.82236436252609
 21
-47.037422294131829
 31
0.0
  0
ARC
  8
DETAIL
  6
CONTINUOUS
 62
     5
 10
-201.22008779698541
 20
-47.00881574867708
 30
0.0
 40
1.0007962190241539
 50
160.5462185838862
 51
180.0
  0
LINE
  8
DETAIL
  6
CONTINUOUS
 62
     5
 10
-201.84446034827221
 20
-45.771544095211539
 30
0.0
 11
-202.16374901522701
 21
-46.675504217334947
 31
0.0
  0
LINE
  8
DETAIL
  6
CONTINUOUS
 62
     5
 10
-235.01940274852399
 20
-47.564009217086102
 30
0.0
 11
-234.7297470751582
 21
-53.090968717523538
 31
0.0
  0
ARC
  8
DETAIL
  6
CONTINUOUS
 62
     5
 10
-234.51969041760819
 20
-47.537820403644218
 30
0.0
 40
0.50039810951205
 50
90.0
 51
183.00000000007731
  0
LINE
  8
DETAIL
  6
CONTINUOUS
 62
     5
 10
-234.51969041760819
 20
-47.037422294131829
 30
0.0
 11
0.0
 21
-47.037422294131829
 31
0.0
  0
LINE
  8
DETAIL
  6
CONTINUOUS
 62
     5
 10
-183.5635508355717
 20
-10.302961165165931
 30
0.0
 11
-184.20475323944811
 21
-47.037422294131829
 31
0.0
  0
LINE
  8
DETAIL
  6
CONTINUOUS
 62
     5
 10
-183.29428782781179
 20
-26.52109980413843
 30
0.0
 11
-183.0448288698652
 21
-13.5492340029723
 31
0.0
  0
LINE
  8
DETAIL
  6
CONTINUOUS
 62
     5
 10
-183.5635508355717
 20
-10.302961165165931
 30
0.0
 11
-184.20475323944811
 21
-47.037422294131829
 31
0.0
  0
ARC
  8
DETAIL
  6
CONTINUOUS
 62
     5
 10
-185.0460512935351
 20
-13.510748956823591
 30
0.0
 40
2.00159243804847
 50
358.89829388474681
 51
43.505196684256063
  0
LINE
  8
DETAIL
  6
CONTINUOUS
 62
     5
 10
-183.84663949832611
 20
-26.52109980413843
 30
0.0
 11
-182.3162498003758
 21
-26.52109980413843
 31
0.0
  0
LINE
  8
DETAIL
  6
CONTINUOUS
 62
     5
 10
-182.01602236676351
 20
-26.818718624375379
 30
0.0
 11
-181.8395764129109
 21
-47.037422294131829
 31
0.0
  0
ARC
  8
DETAIL
  6
CONTINUOUS
 62
     5
 10
-182.3162498003758
 20
-26.821338669844859
 30
0.0
 40
0.300238865707128
 50
0.4999999999264114
 51
90.0
  0
LINE
  8
DETAIL
  6
CONTINUOUS
 62
     5
 10
0.0
 20
0.0
 30
0.0
 11
-234.51969041760819
 21
0.0
 31
0.0
  0
ARC
  8
DETAIL
  6
CONTINUOUS
 62
     5
 10
233.7309178144933
 20
-53.038622294131983
 30
0.0
 40
1.00019999999991
 50
270.0
 51
357.00000000246001
  0
LINE
  8
DETAIL
  6
CONTINUOUS
 62
     5
 10
181.97233042058181
 20
-31.82531976496557
 30
0.0
 11
181.60448190411259
 21
-31.82531976496557
 31
0.0
  0
LINE
  8
DETAIL
  6
CONTINUOUS
 62
     5
 10
181.94612897158549
 20
-34.827708422039002
 30
0.0
 11
181.60448190411259
 21
-34.827708422039002
 31
0.0
  0
LINE
  8
DETAIL
  6
CONTINUOUS
 62
     5
 10
180.80384492889431
 20
-46.236785318913462
 30
0.0
 11
180.80384492889431
 21
-27.121577535551751
 31
0.0
  0
LINE
  8
DETAIL
  6
CONTINUOUS
 62
     5
 10
180.80384492889431
 20
-27.121577535551751
 30
0.0
 11
181.60448190411259
 21
-27.121577535551751
 31
0.0
  0
LINE
  8
DETAIL
  6
CONTINUOUS
 62
     5
 10
181.60448190411259
 20
-46.236785318913462
 30
0.0
 11
181.60448190411259
 21
-27.121577535551751
 31
0.0
  0
ARC
  8
DETAIL
  6
CONTINUOUS
 62
     5
 10
180.00320795367409
 20
-46.236785318913462
 30
0.0
 40
0.8006369752194481
 50
270.60395190749011
 51
0.0
  0
ARC
  8
DETAIL
  6
CONTINUOUS
 62
     5
 10
180.00320795367409
 20
-46.236785318913462
 30
0.0
 40
1.6012739504384279
 50
329.98088396060803
 51
0.0
  0
LINE
  8
DETAIL
  6
CONTINUOUS
 62
     5
 10
179.60288946606309
 20
-34.827708422039002
 30
0.0
 11
177.4011377842107
 21
-34.827708422039002
 31
0.0
  0
LINE
  8
DETAIL
  6
CONTINUOUS
 62
     5
 10
179.60288946606309
 20
-31.82531976496557
 30
0.0
 11
177.4011377842107
 21
-31.82531976496557
 31
0.0
  0
ARC
  8
DETAIL
  6
CONTINUOUS
 62
     5
 10
180.00320795367409
 20
-30.123966192625179
 30
0.0
 40
0.8006369752194481
 50
270.0
 51
0.0
  0
LINE
  8
DETAIL
  6
CONTINUOUS
 62
     5
 10
179.60288946606309
 20
-30.924603167843539
 30
0.0
 11
180.00320795367409
 21
-30.924603167843539
 31
0.0
  0
LINE
  8
DETAIL
  6
CONTINUOUS
 62
     5
 10
179.60288946606309
 20
-35.728359550072128
 30
0.0
 11
179.60288946606309
 21
-30.924668636429029
 31
0.0
  0
LINE
  8
DETAIL
  6
CONTINUOUS
 62
     5
 10
179.60288946606309
 20
-35.728425019158749
 30
0.0
 11
180.00320795367409
 21
-35.728425019158749
 31
0.0
  0
ARC
  8
DETAIL
  6
CONTINUOUS
 62
     5
 10
180.00320795367409
 20
-36.52906199437848
 30
0.0
 40
0.8006369752196582
 50
0.0
 51
90.0
  0
LINE
  8
DETAIL
  6
CONTINUOUS
 62
     5
 10
177.4011377842107
 20
-31.82531976496557
 30
0.0
 11
177.4011377842107
 21
-34.827708422039002
 31
0.0
  0
ARC
  8
DETAIL
  6
CONTINUOUS
 62
     5
 10
183.26335769774599
 20
-10.308201055947389
 30
0.0
 40
0.30023886570672
 50
0.9999999999822233
 51
90.0
  0
LINE
  8
DETAIL
  6
CONTINUOUS
 62
     5
 10
183.16597824605921
 20
-10.00796219024096
 30
0.0
 11
183.56442473750761
 21
-10.353026973490159
 31
0.0
  0
LINE
  8
DETAIL
  6
CONTINUOUS
 62
     5
 10
182.58816827929149
 20
-10.00796219024096
 30
0.0
 11
183.57329328059129
 21
-10.8611054666535
 31
0.0
  0
ARC
  8
DETAIL
  6
CONTINUOUS
 62
     5
 10
185.0460512935351
 20
-13.510748956823591
 30
0.0
 40
2.00159243804847
 50
136.49480331574401
 51
181.10170611524021
  0
LINE
  8
DETAIL
  6
CONTINUOUS
 62
     5
 10
183.29428782781179
 20
-26.52109980413843
 30
0.0
 11
183.04482886986631
 21
-13.5492340029723
 31
0.0
  0
LINE
  8
DETAIL
  6
CONTINUOUS
 62
     5
 10
202.22088401600919
 20
-47.00881574867708
 30
0.0
 11
202.22088401600919
 21
-47.037422294131829
 31
0.0
  0
LINE
  8
DETAIL
  6
CONTINUOUS
 62
     5
 10
234.44531221738541
 20
-53.126539511886683
 30
0.0
 11
234.44309667273049
 21
-53.124343389182741
 31
0.0
  0
ARC
  8
DETAIL
  6
CONTINUOUS
 62
     5
 10
234.51969041760819
 20
-0.5003981095105701
 30
0.0
 40
0.500398109511198
 50
2.9999999999729852
 51
90.0
  0
LINE
  8
DETAIL
  6
CONTINUOUS
 62
     5
 10
235.01940274852501
 20
-0.4742092955693806
 30
0.0
 11
235.04699999999869
 21
-1.0007962190229589
 31
0.0
  0
ARC
  8
DETAIL
  6
CONTINUOUS
 62
     5
 10
233.90629962775171
 20
-9.007165971215727
 30
0.0
 40
1.0007962190236199
 50
270.0
 51
359.00000000001779
  0
LINE
  8
DETAIL
  6
CONTINUOUS
 62
     5
 10
235.04699999999869
 20
-1.0007962190229589
 30
0.0
 11
234.90694342050659
 21
-9.0246322731532018
 31
0.0
  0
ARC
  8
DETAIL
  6
CONTINUOUS
 62
     5
 10
202.76375990422821
 20
-10.308201055947389
 30
0.0
 40
0.300238865707122
 50
90.0
 51
179.00000000001131
  0
LINE
  8
DETAIL
  6
CONTINUOUS
 62
     5
 10
0.0
 20
-10.00796219024096
 30
0.0
 11
233.90629962775171
 21
-10.00796219024096
 31
0.0
  0
LINE
  8
DETAIL
  6
CONTINUOUS
 62
     5
 10
202.46356676640059
 20
-10.302961165165931
 30
0.0
 11
201.82236436252609
 21
-47.037422294131829
 31
0.0
  0
ARC
  8
DETAIL
  6
CONTINUOUS
 62
     5
 10
201.22008779698629
 20
-47.00881574867708
 30
0.0
 40
1.0007962190241539
 50
0.0
 51
19.453781416113831
  0
LINE
  8
DETAIL
  6
CONTINUOUS
 62
     5
 10
201.84446034827309
 20
-45.771544095211539
 30
0.0
 11
202.1637490152261
 21
-46.675504217334947
 31
0.0
  0
LINE
  8
DETAIL
  6
CONTINUOUS
 62
     5
 10
235.01940274852501
 20
-47.564009217086102
 30
0.0
 11
234.7297470751582
 21
-53.090968717523538
 31
0.0
  0
ARC
  8
DETAIL
  6
CONTINUOUS
 62
     5
 10
234.51969041760819
 20
-47.537820403644218
 30
0.0
 40
0.50039810951205
 50
356.99999999992269
 51
90.0
  0
LINE
  8
DETAIL
  6
CONTINUOUS
 62
     5
 10
234.51969041760819
 20
-47.037422294131829
 30
0.0
 11
0.0
 21
-47.037422294131829
 31
0.0
  0
LINE
  8
DETAIL
  6
CONTINUOUS
 62
     5
 10
183.5635508355717
 20
-10.302961165165931
 30
0.0
 11
184.20475323944811
 21
-47.037422294131829
 31
0.0
  0
LINE
  8
DETAIL
  6
CONTINUOUS
 62
     5
 10
183.29428782781179
 20
-26.52109980413843
 30
0.0
 11
183.04482886986631
 21
-13.5492340029723
 31
0.0
  0
LINE
  8
DETAIL
  6
CONTINUOUS
 62
     5
 10
183.5635508355717
 20
-10.302961165165931
 30
0.0
 11
184.20475323944811
 21
-47.037422294131829
 31
0.0
  0
ARC
  8
DETAIL
  6
CONTINUOUS
 62
     5
 10
185.0460512935351
 20
-13.510748956823591
 30
0.0
 40
2.00159243804847
 50
136.49480331574401
 51
181.10170611524021
  0
LINE
  8
DETAIL
  6
CONTINUOUS
 62
     5
 10
183.84663949832611
 20
-26.52109980413843
 30
0.0
 11
182.31624980037489
 21
-26.52109980413843
 31
0.0
  0
LINE
  8
DETAIL
  6
CONTINUOUS
 62
     5
 10
182.01602236676439
 20
-26.818718624375379
 30
0.0
 11
181.8395764129109
 21
-47.037422294131829
 31
0.0
  0
ARC
  8
DETAIL
  6
CONTINUOUS
 62
     5
 10
182.31624980037489
 20
-26.821338669844859
 30
0.0
 40
0.300238865707128
 50
90.0
 51
179.50000000007361
  0
LINE
  8
DETAIL
  6
CONTINUOUS
 62
     5
 10
0.0
 20
0.0
 30
0.0
 11
234.51969041760819
 21
0.0
 31
0.0
  0
LINE
  8
SIZE
  6
CONTINUOUS
 62
    30
 10
-44.0
 20
79.999999999999886
 30
0.0
 11
399.39476641106558
 21
79.999999999999773
 31
0.0
  0
LINE
  8
SIZE
  6
CONTINUOUS
 62
    30
 10
254.51969041760819
 20
0.0
 30
0.0
 11
399.39476641106558
 21
0.0
 31
0.0
  0
LINE
  8
SIZE
  6
CONTINUOUS
 62
    30
 10
379.39476641106558
 20
67.999999999999773
 30
0.0
 11
379.39476641106558
 21
12.0
 31
0.0
  0
LINE
  8
SIZE
  6
CONTINUOUS
 62
    30
 10
379.39476641106558
 20
0.0
 30
0.0
 11
379.39476641106558
 21
-155.2571428571429
 31
0.0
  0
CIRCLE
  8
SIZE
  6
CONTINUOUS
 62
    30
 10
379.39476641106558
 20
79.999999999999773
 30
0.0
 40
6.0
  0
LINE
  8
SIZE
  6
CONTINUOUS
 62
    30
 10
379.39476641106558
 20
79.999999999999773
 30
0.0
 11
379.39476641106558
 21
67.999999999999773
 31
0.0
  0
CIRCLE
  8
SIZE
  6
CONTINUOUS
 62
    30
 10
379.39476641106558
 20
0.0
 30
0.0
 40
6.0
  0
LINE
  8
SIZE
  6
CONTINUOUS
 62
    30
 10
379.39476641106558
 20
0.0
 30
0.0
 11
379.39476641106558
 21
12.0
 31
0.0
  0
TEXT
  8
SIZE
  6
CONTINUOUS
 62
    30
 10
354.39476641106558
 20
-130.25714285714281
 30
0.0
 40
64.0
  1
80
 50
90.0
 41
0.9
 72
     1
 11
354.39476641106558
 21
-83.628571428571377
 31
0.0
  0
POINT
  8
DEFPOINTS
  6
CONTINUOUS
 62
    30
 10
-64.0
 20
79.999999999999886
 30
0.0
  0
POINT
  8
DEFPOINTS
  6
CONTINUOUS
 62
    30
 10
234.51969041760819
 20
0.0
 30
0.0
  0
POINT
  8
DEFPOINTS
  6
CONTINUOUS
 62
    30
 10
379.39476641106558
 20
0.0
 30
0.0
  0
LINE
  8
OUTLINE
  6
CONTINUOUS
 62
     3
 10
-12.0
 20
230.0
 30
0.0
 11
-12.0
 21
256.0
 31
0.0
  0
LINE
  8
OUTLINE
  6
CONTINUOUS
 62
     3
 10
-204.0
 20
95.036535999999955
 30
0.0
 11
-204.0
 21
234.56245899999999
 31
0.0
  0
ARC
  8
OUTLINE
  6
CONTINUOUS
 62
     3
 10
-189.0
 20
95.036535999999955
 30
0.0
 40
15.0
 50
180.0
 51
270.0
  0
LINE
  8
OUTLINE
  6
CONTINUOUS
 62
     3
 10
-12.0
 20
256.0
 30
0.0
 11
-186.0
 21
256.0
 31
0.0
  0
ARC
  8
OUTLINE
  6
CONTINUOUS
 62
     3
 10
-182.20935299999999
 20
234.28123000000011
 30
0.0
 40
21.792462
 50
94.713204999995241
 51
180.73941700000131
  0
ENDSEC
  0
EOF
