  0
SECTION
  2
HEADER
  9
$ACADVER
  1
AC1009
  9
$DWGCODEPAGE
  3
dos932
  9
$INSBASE
 10
0.0
 20
0.0
 30
0.0
  9
$EXTMIN
 10
-886.88505454557708
 20
-806.2133676211979
 30
-0.0015258207003583
  9
$EXTMAX
 10
1362.7304196738751
 20
1030.19715208816
 30
0.0000000349246037
  9
$LIMMIN
 10
-2970.0
 20
-2100.0
  9
$LIMMAX
 10
2970.0
 20
2100.0
  9
$ORTHOMODE
 70
     1
  9
$REGENMODE
 70
     1
  9
$FILLMODE
 70
     1
  9
$QTEXTMODE
 70
     0
  9
$MIRRTEXT
 70
     0
  9
$LTSCALE
 40
20.0
  9
$ATTMODE
 70
     1
  9
$TEXTSIZE
 40
64.0
  9
$TRACEWID
 40
0.05
  9
$TEXTSTYLE
  7
STANDARD
  9
$CLAYER
  8
SIZE
  9
$CELTYPE
  6
CONTINUOUS
  9
$CECOLOR
 62
     7
  9
$DIMSCALE
 40
1.0
  9
$DIMASZ
 40
12.0
  9
$DIMEXO
 40
20.0
  9
$DIMDLI
 40
200.0
  9
$DIMRND
 40
0.0
  9
$DIMDLE
 40
0.0
  9
$DIMEXE
 40
20.0
  9
$DIMTP
 40
0.0
  9
$DIMTM
 40
0.0
  9
$DIMTXT
 40
64.0
  9
$DIMCEN
 40
0.09
  9
$DIMTSZ
 40
0.0
  9
$DIMTOL
 70
     0
  9
$DIMLIM
 70
     0
  9
$DIMTIH
 70
     0
  9
$DIMTOH
 70
     0
  9
$DIMSE1
 70
     0
  9
$DIMSE2
 70
     0
  9
$DIMTAD
 70
     1
  9
$DIMZIN
 70
     8
  9
$DIMBLK
  1

  9
$DIMASO
 70
     1
  9
$DIMSHO
 70
     0
  9
$DIMPOST
  1

  9
$DIMAPOST
  1

  9
$DIMALT
 70
     0
  9
$DIMALTD
 70
     2
  9
$DIMALTF
 40
25.399999999999999
  9
$DIMLFAC
 40
1.0
  9
$DIMTOFL
 70
     1
  9
$DIMTVP
 40
0.0
  9
$DIMTIX
 70
     1
  9
$DIMSOXD
 70
     0
  9
$DIMSAH
 70
     0
  9
$DIMBLK1
  1

  9
$DIMBLK2
  1

  9
$DIMSTYLE
  2
STANDARD
  9
$DIMCLRD
 70
     7
  9
$DIMCLRE
 70
     7
  9
$DIMCLRT
 70
     7
  9
$DIMTFAC
 40
1.0
  9
$DIMGAP
 40
25.0
  9
$LUNITS
 70
     2
  9
$LUPREC
 70
     4
  9
$SKETCHINC
 40
0.1
  9
$FILLETRAD
 40
3.0
  9
$AUNITS
 70
     1
  9
$AUPREC
 70
     3
  9
$MENU
  1
ACAD
  9
$ELEVATION
 40
0.0
  9
$PELEVATION
 40
0.0
  9
$THICKNESS
 40
0.0
  9
$LIMCHECK
 70
     0
  9
$CHAMFERA
 40
0.0
  9
$CHAMFERB
 40
0.0
  9
$SKPOLY
 70
     0
  9
$TDCREATE
 40
2453019.62301037
  9
$TDUPDATE
 40
2459025.521731852
  9
$TDINDWG
 40
1.7145298727
  9
$TDUSRTIMER
 40
1.7145298727
  9
$USRTIMER
 70
     1
  9
$ANGBASE
 50
0.0
  9
$ANGDIR
 70
     0
  9
$PDMODE
 70
     3
  9
$PDSIZE
 40
-2.0
  9
$PLINEWID
 40
0.0
  9
$SPLFRAME
 70
     0
  9
$SPLINETYPE
 70
     6
  9
$SPLINESEGS
 70
     8
  9
$SURFTAB1
 70
     6
  9
$SURFTAB2
 70
     6
  9
$SURFTYPE
 70
     6
  9
$SURFU
 70
     6
  9
$SURFV
 70
     6
  9
$UCSNAME
  2

  9
$UCSORG
 10
0.0
 20
0.0
 30
0.0
  9
$UCSXDIR
 10
1.0
 20
0.0
 30
0.0
  9
$UCSYDIR
 10
0.0
 20
1.0
 30
0.0
  9
$PUCSNAME
  2

  9
$PUCSORG
 10
0.0
 20
0.0
 30
0.0
  9
$PUCSXDIR
 10
1.0
 20
0.0
 30
0.0
  9
$PUCSYDIR
 10
0.0
 20
1.0
 30
0.0
  9
$USERI1
 70
     0
  9
$USERI2
 70
     0
  9
$USERI3
 70
     0
  9
$USERI4
 70
     0
  9
$USERI5
 70
     0
  9
$USERR1
 40
20.0
  9
$USERR2
 40
0.0
  9
$USERR3
 40
0.0
  9
$USERR4
 40
0.0
  9
$USERR5
 40
0.0
  9
$WORLDVIEW
 70
     1
  9
$SHADEDGE
 70
     3
  9
$SHADEDIF
 70
    70
  9
$TILEMODE
 70
     1
  9
$MAXACTVP
 70
    48
  9
$PINSBASE
 10
0.0
 20
0.0
 30
0.0
  9
$PLIMCHECK
 70
     0
  9
$PEXTMIN
 10
-100000000000000000000.0
 20
-100000000000000000000.0
 30
-100000000000000000000.0
  9
$PEXTMAX
 10
100000000000000000000.0
 20
100000000000000000000.0
 30
100000000000000000000.0
  9
$PLIMMIN
 10
0.0
 20
0.0
  9
$PLIMMAX
 10
12.0
 20
9.0
  9
$UNITMODE
 70
     0
  9
$VISRETAIN
 70
     0
  9
$PLINEGEN
 70
     0
  9
$PSLTSCALE
 70
     0
  9
$TREEDEPTH
 70
  3020
  9
$ATTDIA
 70
     0
  9
$ATTREQ
 70
     1
  9
$BLIPMODE
 70
     1
  9
$COORDS
 70
     1
  9
$DRAGMODE
 70
     2
  9
$OSMODE
 70
     0
  9
$HANDLING
 70
     0
  9
$HANDSEED
  5
FBB0
  0
ENDSEC
  0
SECTION
  2
TABLES
  0
TABLE
  2
LTYPE
 70
     2
  0
LTYPE
  2
CONTINUOUS
 70
     0
  3
実線
 72
    65
 73
     0
 40
0.0
  0
LTYPE
  2
DASHDOT
 70
     0
  3
____ _ ____ _ ____ _ ____ _ ____ _ ____ _ ____
 72
    65
 73
     4
 40
5.5
 49
4.0
 49
-0.6
 49
0.3
 49
-0.6
  0
ENDTAB
  0
TABLE
  2
LAYER
 70
    12
  0
LAYER
  2
0
 70
     0
 62
     7
  6
CONTINUOUS
  0
LAYER
  2
BASIS
 70
     0
 62
     6
  6
DASHDOT
  0
LAYER
  2
OUTLINE
 70
     0
 62
     3
  6
CONTINUOUS
  0
LAYER
  2
DETAIL
 70
     0
 62
     5
  6
CONTINUOUS
  0
LAYER
  2
SIZE
 70
     0
 62
    30
  6
CONTINUOUS
  0
LAYER
  2
ARRANGE
 70
     0
 62
     1
  6
CONTINUOUS
  0
LAYER
  2
DEFPOINTS
 70
     0
 62
     7
  6
CONTINUOUS
  0
LAYER
  2
ETC
 70
     0
 62
    61
  6
CONTINUOUS
  0
LAYER
  2
FIX
 70
     0
 62
    11
  6
CONTINUOUS
  0
LAYER
  2
NOTE
 70
     0
 62
     4
  6
CONTINUOUS
  0
LAYER
  2
SERVICESPACE
 70
    64
 62
     2
  6
DASHDOT
  0
LAYER
  2
SYMBOLLINE
 70
    64
 62
    15
  6
CONTINUOUS
  0
ENDTAB
  0
TABLE
  2
STYLE
 70
     1
  0
STYLE
  2
STANDARD
 70
     0
 40
64.0
 41
0.9
 50
0.0
 71
     0
 42
64.0
  3
SIMPLEX.shx
  4
BIGFONT.shx
  0
ENDTAB
  0
TABLE
  2
APPID
 70
    19
  0
APPID
  2
ACAD
 70
     0
  0
APPID
  2
AUTOCAD_POSTSCRIPT_FIGURE
 70
     0
  0
APPID
  2
ACAD_EXEMPT_FROM_CAD_STANDARDS
 70
     0
  0
APPID
  2
ACAD_PSEXT
 70
     0
  0
APPID
  2
ACAUTHENVIRON
 70
     0
  0
APPID
  2
GENIUS_GENOENT_13
 70
     0
  0
APPID
  2
GENIUS_GENCFG_13
 70
     0
  0
APPID
  2
GENIUS_GENCFG0_13
 70
     0
  0
APPID
  2
GENIUS_GENCFG1_13
 70
     0
  0
APPID
  2
GENIUS_GENCFG2_13
 70
     0
  0
APPID
  2
GENIUS_GENCFG3_13
 70
     0
  0
APPID
  2
GENIUS_GENCFG4_13
 70
     0
  0
APPID
  2
GENIUS_GEVCFG0_13
 70
     0
  0
APPID
  2
CONTENTBLOCKICON
 70
     0
  0
APPID
  2
CONTENTBLOCKDESCRIPTION
 70
     0
  0
APPID
  2
ACAD_NAV_VCDISPLAY
 70
     0
  0
APPID
  2
ACAD_MLEADERVER
 70
     0
  0
APPID
  2
ACDBDYNAMICBLOCKTRUENAME
 70
     0
  0
APPID
  2
ACDBDYNAMICBLOCKGUID
 70
     0
  0
ENDTAB
  0
TABLE
  2
DIMSTYLE
 70
     1
  0
DIMSTYLE
  2
STANDARD
 70
     0
  3

  4

  5
_ORIGIN
  6

  7

 40
1.0
 41
12.0
 42
20.0
 43
200.0
 44
20.0
 45
0.0
 46
0.0
 47
0.0
 48
0.0
140
64.0
141
0.09
142
0.0
143
25.399999999999999
144
1.0
145
0.0
146
1.0
147
25.0
 71
     0
 72
     0
 73
     0
 74
     0
 75
     0
 76
     0
 77
     1
 78
     8
170
     0
171
     2
172
     1
173
     0
174
     1
175
     0
176
     7
177
     7
178
     7
  0
ENDTAB
  0
TABLE
  2
VIEW
 70
     1
  0
VIEW
  2
ALL
 70
     0
 40
4282.6198079999986
 10
0.0
 20
41.309904000000003
 41
5940.0
 11
0.0
 21
0.0
 31
1.0
 12
0.0
 22
0.0
 32
0.0
 42
50.0
 43
0.0
 44
0.0
 50
0.0
 71
     0
  0
ENDTAB
  0
TABLE
  2
UCS
 70
     0
  0
ENDTAB
  0
TABLE
  2
VPORT
 70
     1
  0
VPORT
  2
*ACTIVE
 70
     0
 10
0.0
 20
0.0
 11
1.0
 21
1.0
 12
237.92268256414911
 22
111.9918922334809
 13
0.0
 23
0.0
 14
1.0
 24
1.0
 15
0.0
 25
0.0
 16
0.0
 26
0.0
 36
1.0
 17
0.0
 27
0.0
 37
0.0
 40
1848.585617077596
 41
1.747787610619469
 42
50.0
 43
0.0
 44
0.0
 50
0.0
 51
0.0
 71
     0
 72
  1000
 73
     1
 74
     3
 75
     0
 76
     0
 77
     0
 78
     0
  0
ENDTAB
  0
ENDSEC
  0
SECTION
  2
BLOCKS
  0
BLOCK
  8
0
  2
_ORIGIN
 70
     0
 10
0.0
 20
0.0
 30
0.0
  3
_ORIGIN
  1
_ORIGIN
  0
CIRCLE
  8
0
  6
CONTINUOUS
 62
     7
 10
0.0
 20
0.0
 30
0.0
 40
0.5
  0
LINE
  8
0
  6
CONTINUOUS
 62
     7
 10
0.0
 20
0.0
 30
0.0
 11
-1.0
 21
0.0
 31
0.0
  0
ENDBLK
  8
0
  0
ENDSEC
  0
SECTION
  2
ENTITIES
  0
POINT
  8
ARRANGE
  6
CONTINUOUS
 62
     1
 10
0.0
 20
0.0
 30
0.0
 50
180.0
  0
LINE
  8
OUTLINE
  6
CONTINUOUS
 62
     3
 10
234.99999999999949
 20
0.0
 30
0.0
 11
-235.0
 21
0.0
 31
0.0
  0
LINE
  8
OUTLINE
  6
CONTINUOUS
 62
     3
 10
-193.0
 20
230.0
 30
0.0
 11
192.9999999999998
 21
230.0
 31
0.0
  0
CIRCLE
  8
ARRANGE
  6
CONTINUOUS
 62
     1
 10
0.0
 20
0.0
 30
0.0
 40
40.0
  0
TEXT
  8
SIZE
  6
CONTINUOUS
 62
    30
 10
-110.5097518571428
 20
-761.0124483314778
 30
0.0
 40
64.0
  1
□470
 41
0.9
 72
     1
 11
0.0273910000000797
 21
-761.0124483314778
 31
0.0
  0
LINE
  8
SIZE
  6
CONTINUOUS
 62
    30
 10
-222.97260899999969
 20
-786.0124483314778
 30
0.0
 11
223.02739100000011
 21
-786.0124483314778
 31
0.0
  0
TEXT
  8
SIZE
  6
CONTINUOUS
 62
    30
 10
-109.1657142857143
 20
966.18818976879265
 30
0.0
 40
64.0
  1
□386
 41
0.9
 72
     1
 11
0.0
 21
966.18818976879265
 31
0.0
  0
LINE
  8
SIZE
  6
CONTINUOUS
 62
    30
 10
181.0
 20
941.18818976879265
 30
0.0
 11
-181.0
 21
941.18818976879265
 31
0.0
  0
LINE
  8
SIZE
  6
CONTINUOUS
 62
    30
 10
33.0
 20
700.66091576879262
 30
0.0
 11
-41.000001999999988
 21
700.66091576879262
 31
0.0
  0
LINE
  8
DETAIL
  6
CONTINUOUS
 62
     5
 10
-105.0
 20
230.0
 30
0.0
 11
105.0
 21
230.0
 31
0.0
  0
LINE
  8
DETAIL
  6
CONTINUOUS
 62
     5
 10
-105.0
 20
223.0
 30
0.0
 11
45.0
 21
223.0
 31
0.0
  0
TEXT
  8
SIZE
  6
CONTINUOUS
 62
    30
 10
-68.571428571428555
 20
-633.70475378199558
 30
0.0
 40
64.0
  1
410
 41
0.9
 72
     1
 11
0.0
 21
-633.70475378199558
 31
0.0
  0
LINE
  8
SIZE
  6
CONTINUOUS
 62
    30
 10
-193.0
 20
-658.70475378199558
 30
0.0
 11
193.0
 21
-658.70475378199558
 31
0.0
  0
TEXT
  8
SIZE
  6
CONTINUOUS
 62
    30
 10
-74.05714285714285
 20
-514.42579135076312
 30
0.0
 40
64.0
  1
300
 41
0.9
 72
     1
 11
0.0
 21
-514.42579135076312
 31
0.0
  0
LINE
  8
SIZE
  6
CONTINUOUS
 62
    30
 10
-138.0
 20
-539.42579135076312
 30
0.0
 11
138.0
 21
-539.42579135076312
 31
0.0
  0
LINE
  8
DETAIL
  6
CONTINUOUS
 62
     5
 10
39.952641999999969
 20
266.0
 30
0.0
 11
-4.0
 21
266.0
 31
0.0
  0
LINE
  8
OUTLINE
  6
CONTINUOUS
 62
     3
 10
192.9999999999998
 20
0.0
 30
0.0
 11
192.9999999999998
 21
230.0
 31
0.0
  0
LINE
  8
DETAIL
  6
CONTINUOUS
 62
     5
 10
198.25
 20
80.0
 30
0.0
 11
198.25
 21
0.0
 31
0.0
  0
LINE
  8
DETAIL
  6
CONTINUOUS
 62
     5
 10
194.7499999999998
 20
256.0
 30
0.0
 11
194.7499999999998
 21
0.0
 31
0.0
  0
LINE
  8
DETAIL
  6
CONTINUOUS
 62
     5
 10
193.0
 20
0.0
 30
0.0
 11
193.0
 21
256.0
 31
0.0
  0
LINE
  8
NOTE
  6
CONTINUOUS
 62
     4
 10
150.08624491012691
 20
-20.961177705868071
 30
0.0
 11
150.0
 21
20.0
 31
0.0
  0
CIRCLE
  8
FIX
  6
CONTINUOUS
 62
    11
 10
150.0
 20
0.0
 30
0.0
 40
2.5
  0
CIRCLE
  8
FIX
  6
CONTINUOUS
 62
    11
 10
205.0
 20
0.0
 30
0.0
 40
2.5
  0
LINE
  8
NOTE
  6
CONTINUOUS
 62
     4
 10
205.08624491012691
 20
-20.961177705868071
 30
0.0
 11
205.0
 21
20.0
 31
0.0
  0
LINE
  8
DETAIL
  6
CONTINUOUS
 62
     5
 10
193.0
 20
0.0
 30
0.0
 11
193.0
 21
200.0
 31
0.0
  0
LINE
  8
BASIS
  6
DASHDOT
 62
     6
 10
0.0
 20
-102.65254999999991
 30
0.0
 11
0.0
 21
328.47680999999989
 31
0.0
  0
LINE
  8
SIZE
  6
CONTINUOUS
 62
    30
 10
234.99999999999949
 20
0.0
 30
0.0
 11
235.02739100000011
 21
-806.0124483314778
 31
0.0
  0
CIRCLE
  8
SIZE
  6
CONTINUOUS
 62
    30
 10
205.0
 20
-658.70475378199558
 30
0.0
 40
6.0
  0
LINE
  8
SIZE
  6
CONTINUOUS
 62
    30
 10
205.08624491012691
 20
-40.961177705868067
 30
0.0
 11
205.0
 21
-678.70475378199558
 31
0.0
  0
LINE
  8
SIZE
  6
CONTINUOUS
 62
    30
 10
235.02739100000011
 20
-786.0124483314778
 30
0.0
 11
223.02739100000011
 21
-786.0124483314778
 31
0.0
  0
CIRCLE
  8
SIZE
  6
CONTINUOUS
 62
    30
 10
235.02739100000011
 20
-786.0124483314778
 30
0.0
 40
6.0
  0
LINE
  8
SIZE
  6
CONTINUOUS
 62
    30
 10
205.0
 20
-658.70475378199558
 30
0.0
 11
193.0
 21
-658.70475378199558
 31
0.0
  0
LINE
  8
SIZE
  6
CONTINUOUS
 62
    30
 10
150.08624491012691
 20
-40.961177705868067
 30
0.0
 11
150.0
 21
-559.42579135076312
 31
0.0
  0
LINE
  8
SIZE
  6
CONTINUOUS
 62
    30
 10
150.0
 20
-539.42579135076312
 30
0.0
 11
138.0
 21
-539.42579135076312
 31
0.0
  0
CIRCLE
  8
SIZE
  6
CONTINUOUS
 62
    30
 10
150.0
 20
-539.42579135076312
 30
0.0
 40
6.0
  0
LINE
  8
NOTE
  6
CONTINUOUS
 62
     4
 10
185.0
 20
0.0
 30
0.0
 11
225.0
 21
0.0
 31
0.0
  0
LINE
  8
NOTE
  6
CONTINUOUS
 62
     4
 10
130.0
 20
0.0
 30
0.0
 11
170.0
 21
0.0
 31
0.0
  0
LINE
  8
NOTE
  6
CONTINUOUS
 62
     3
 10
-70.0
 20
255.9283708674202
 30
0.0
 11
-70.0
 21
218.94834783297031
 31
0.0
  0
TEXT
  8
SIZE
  6
CONTINUOUS
 62
    30
 10
993.9690209152252
 20
-153.51583221802909
 30
0.0
 40
64.0
  1
φ152
 50
90.0
 41
0.9
 72
     1
 11
993.9690209152252
 21
-44.624403646600513
 31
0.0
  0
LINE
  8
SIZE
  6
CONTINUOUS
 62
    30
 10
308.0
 20
257.5
 30
0.0
 11
308.0
 21
717.17923176879276
 31
0.0
  0
LINE
  8
SIZE
  6
CONTINUOUS
 62
    30
 10
335.0
 20
253.5
 30
0.0
 11
335.0
 21
717.17923176879276
 31
0.0
  0
LINE
  8
SIZE
  6
CONTINUOUS
 62
    30
 10
278.0
 20
261.5
 30
0.0
 11
278.0
 21
838.72989276879207
 31
0.0
  0
LINE
  8
SIZE
  6
CONTINUOUS
 62
    30
 10
335.0
 20
253.5
 30
0.0
 11
335.0
 21
838.72989276879207
 31
0.0
  0
LINE
  8
SIZE
  6
CONTINUOUS
 62
    30
 10
335.0
 20
253.5
 30
0.0
 11
335.0
 21
961.18818976879265
 31
0.0
  0
LINE
  8
SIZE
  6
CONTINUOUS
 62
    30
 10
193.0
 20
276.0
 30
0.0
 11
193.0
 21
961.18818976879265
 31
0.0
  0
LINE
  8
SIZE
  6
CONTINUOUS
 62
    30
 10
193.0
 20
276.0
 30
0.0
 11
193.0
 21
961.18818976879265
 31
0.0
  0
LINE
  8
SIZE
  6
CONTINUOUS
 62
    30
 10
45.0
 20
280.94001400000002
 30
0.0
 11
45.0
 21
720.66091576879262
 31
0.0
  0
TEXT
  8
NOTE
  6
CONTINUOUS
 62
     4
 10
413.06865800000008
 20
105.29216
 30
0.0
 40
64.0
  1
EA
 41
0.9
  0
LINE
  8
SIZE
  6
CONTINUOUS
 62
    30
 10
355.0
 20
234.0
 30
0.0
 11
917.4680124625138
 21
234.0
 31
0.0
  0
LINE
  8
SIZE
  6
CONTINUOUS
 62
    30
 10
355.0
 20
90.0
 30
0.0
 11
917.4680124625138
 21
90.0
 31
0.0
  0
LINE
  8
SIZE
  6
CONTINUOUS
 62
    30
 10
328.0
 20
86.0
 30
0.0
 11
1044.734666462514
 21
86.0
 31
0.0
  0
LINE
  8
SIZE
  6
CONTINUOUS
 62
    30
 10
328.0
 20
238.0
 30
0.0
 11
1044.734666462514
 21
238.0
 31
0.0
  0
TEXT
  8
SIZE
  6
CONTINUOUS
 62
    30
 10
850.58240675789239
 20
-151.88513891757461
 30
0.0
 40
64.0
  1
φ144
 50
90.0
 41
0.9
 72
     1
 11
850.58240675789239
 21
-41.622281774717521
 31
0.0
  0
LINE
  8
SIZE
  6
CONTINUOUS
 62
    30
 10
897.4680124625138
 20
-173.6165609999999
 30
0.0
 11
897.4680124625138
 21
90.0
 31
0.0
  0
LINE
  8
SIZE
  6
CONTINUOUS
 62
    30
 10
897.4680124625138
 20
102.0
 30
0.0
 11
897.4680124625138
 21
221.9999999999998
 31
0.0
  0
LINE
  8
SIZE
  6
CONTINUOUS
 62
    30
 10
1024.734666462514
 20
-179.71991643435561
 30
0.0
 11
1024.734666462514
 21
226.0
 31
0.0
  0
CIRCLE
  8
SIZE
  6
CONTINUOUS
 62
    30
 10
1024.734666462514
 20
86.0
 30
0.0
 40
6.0
  0
LINE
  8
SIZE
  6
CONTINUOUS
 62
    30
 10
1024.734666462514
 20
86.0
 30
0.0
 11
1024.734666462514
 21
98.0
 31
0.0
  0
LINE
  8
SIZE
  6
CONTINUOUS
 62
    30
 10
897.4680124625138
 20
90.0
 30
0.0
 11
897.4680124625138
 21
102.0
 31
0.0
  0
CIRCLE
  8
SIZE
  6
CONTINUOUS
 62
    30
 10
897.4680124625138
 20
90.0
 30
0.0
 40
6.0
  0
LINE
  8
SIZE
  6
CONTINUOUS
 62
    30
 10
1024.734666462514
 20
238.0
 30
0.0
 11
1024.734666462514
 21
226.0
 31
0.0
  0
CIRCLE
  8
SIZE
  6
CONTINUOUS
 62
    30
 10
1024.734666462514
 20
238.0
 30
0.0
 40
6.0
  0
LINE
  8
SIZE
  6
CONTINUOUS
 62
    30
 10
897.4680124625138
 20
234.0
 30
0.0
 11
897.4680124625138
 21
221.9999999999998
 31
0.0
  0
CIRCLE
  8
SIZE
  6
CONTINUOUS
 62
    30
 10
897.4680124625138
 20
234.0
 30
0.0
 40
6.0
  0
LINE
  8
DETAIL
  6
CONTINUOUS
 62
     5
 10
278.0
 20
80.0
 30
0.0
 11
194.7499999999998
 21
80.0
 31
0.0
  0
LINE
  8
DETAIL
  6
CONTINUOUS
 62
     5
 10
278.0
 20
244.0
 30
0.0
 11
194.7499999999998
 21
244.0
 31
0.0
  0
LINE
  8
BASIS
  6
DASHDOT
 62
     6
 10
386.95414399999981
 20
162.0
 30
0.0
 11
169.09359599999991
 21
162.0
 31
0.0
  0
LINE
  8
DETAIL
  6
CONTINUOUS
 62
     5
 10
335.0
 20
90.0
 30
0.0
 11
335.0
 21
234.0
 31
0.0
  0
LINE
  8
DETAIL
  6
CONTINUOUS
 62
     5
 10
308.0
 20
86.0
 30
0.0
 11
308.0
 21
238.0
 31
0.0
  0
LINE
  8
DETAIL
  6
CONTINUOUS
 62
     5
 10
278.0
 20
80.0
 30
0.0
 11
278.0
 21
244.0
 31
0.0
  0
LINE
  8
DETAIL
  6
CONTINUOUS
 62
     5
 10
308.0
 20
86.0
 30
0.0
 11
278.0
 21
86.0
 31
0.0
  0
LINE
  8
DETAIL
  6
CONTINUOUS
 62
     5
 10
335.0
 20
90.0
 30
0.0
 11
308.0
 21
90.0
 31
0.0
  0
LINE
  8
DETAIL
  6
CONTINUOUS
 62
     5
 10
308.0
 20
238.0
 30
0.0
 11
278.0
 21
238.0
 31
0.0
  0
LINE
  8
DETAIL
  6
CONTINUOUS
 62
     5
 10
335.0
 20
234.0
 30
0.0
 11
308.0
 21
234.0
 31
0.0
  0
LINE
  8
DETAIL
  6
CONTINUOUS
 62
     5
 10
45.0
 20
37.0
 30
0.0
 11
45.0
 21
237.0
 31
0.0
  0
LINE
  8
DETAIL
  6
CONTINUOUS
 62
     5
 10
95.0
 20
37.0
 30
0.0
 11
95.0
 21
237.0
 31
0.0
  0
LINE
  8
DETAIL
  6
CONTINUOUS
 62
     5
 10
95.0
 20
37.0
 30
0.0
 11
45.0
 21
37.0
 31
0.0
  0
LINE
  8
BASIS
  6
DASHDOT
 62
     6
 10
84.5
 20
4.2375409999999647
 30
0.0
 11
84.5
 21
31.965836999999961
 31
0.0
  0
ARC
  8
DETAIL
  6
CONTINUOUS
 62
     5
 10
74.0
 20
18.0
 30
0.0
 40
7.0
 50
90.0
 51
270.0
  0
ARC
  8
DETAIL
  6
CONTINUOUS
 62
     5
 10
74.0
 20
18.0
 30
0.0
 40
10.0
 50
90.0
 51
270.0
  0
ARC
  8
DETAIL
  6
CONTINUOUS
 62
     5
 10
95.0
 20
18.0
 30
0.0
 40
10.0
 50
270.0
 51
90.0
  0
ARC
  8
DETAIL
  6
CONTINUOUS
 62
     5
 10
95.0
 20
18.0
 30
0.0
 40
7.0
 50
270.0
 51
90.0
  0
LINE
  8
DETAIL
  6
CONTINUOUS
 62
     5
 10
95.0
 20
25.0
 30
0.0
 11
74.0
 21
25.0
 31
0.0
  0
LINE
  8
DETAIL
  6
CONTINUOUS
 62
     5
 10
95.0
 20
28.0
 30
0.0
 11
74.0
 21
28.0
 31
0.0
  0
LINE
  8
DETAIL
  6
CONTINUOUS
 62
     5
 10
95.0
 20
8.0
 30
0.0
 11
74.0
 21
8.0
 31
0.0
  0
LINE
  8
DETAIL
  6
CONTINUOUS
 62
     5
 10
74.0
 20
11.0
 30
0.0
 11
95.0
 21
11.0
 31
0.0
  0
LINE
  8
BASIS
  6
DASHDOT
 62
     6
 10
110.8142765716902
 20
18.0
 30
0.0
 11
59.161530295698867
 21
18.0
 31
0.0
  0
LINE
  8
DETAIL
  6
CONTINUOUS
 62
     5
 10
95.0
 20
223.0
 30
0.0
 11
192.9999999999998
 21
223.0
 31
0.0
  0
LINE
  8
DETAIL
  6
CONTINUOUS
 62
     5
 10
155.0
 20
233.5
 30
0.0
 11
105.0
 21
233.5
 31
0.0
  0
LINE
  8
DETAIL
  6
CONTINUOUS
 62
     5
 10
155.0
 20
237.0
 30
0.0
 11
105.0
 21
237.0
 31
0.0
  0
LINE
  8
DETAIL
  6
CONTINUOUS
 62
     5
 10
155.0
 20
237.0
 30
0.0
 11
105.0
 21
237.0
 31
0.0
  0
LINE
  8
DETAIL
  6
CONTINUOUS
 62
     5
 10
198.25
 20
256.0
 30
0.0
 11
198.25
 21
244.0
 31
0.0
  0
LINE
  8
NOTE
  6
CONTINUOUS
 62
     4
 10
130.0
 20
218.0
 30
0.0
 11
130.0
 21
258.0
 31
0.0
  0
LINE
  8
DETAIL
  6
CONTINUOUS
 62
     5
 10
155.0
 20
230.0
 30
0.0
 11
193.0
 21
230.0
 31
0.0
  0
CIRCLE
  8
FIX
  6
CONTINUOUS
 62
    11
 10
130.0
 20
237.0
 30
0.0
 40
6.0
  0
LINE
  8
NOTE
  6
CONTINUOUS
 62
     4
 10
110.0
 20
237.0
 30
0.0
 11
150.0
 21
237.0
 31
0.0
  0
LINE
  8
DETAIL
  6
CONTINUOUS
 62
     5
 10
155.0
 20
230.0
 30
0.0
 11
155.0
 21
237.0
 31
0.0
  0
LINE
  8
DETAIL
  6
CONTINUOUS
 62
     5
 10
198.25
 20
256.0
 30
0.0
 11
193.0
 21
256.0
 31
0.0
  0
LINE
  8
DETAIL
  6
CONTINUOUS
 62
     5
 10
45.0
 20
230.0
 30
0.0
 11
45.0
 21
260.94001400000002
 31
0.0
  0
LINE
  8
DETAIL
  6
CONTINUOUS
 62
     5
 10
95.0
 20
237.0
 30
0.0
 11
45.0
 21
237.0
 31
0.0
  0
LINE
  8
DETAIL
  6
CONTINUOUS
 62
     5
 10
95.0
 20
237.0
 30
0.0
 11
45.0
 21
237.0
 31
0.0
  0
LINE
  8
DETAIL
  6
CONTINUOUS
 62
     5
 10
95.0
 20
233.5
 30
0.0
 11
45.0
 21
233.5
 31
0.0
  0
LINE
  8
NOTE
  6
CONTINUOUS
 62
     4
 10
50.0
 20
237.0
 30
0.0
 11
90.0
 21
237.0
 31
0.0
  0
CIRCLE
  8
FIX
  6
CONTINUOUS
 62
    11
 10
70.0
 20
237.0
 30
0.0
 40
6.0
  0
LINE
  8
DETAIL
  6
CONTINUOUS
 62
     5
 10
105.0
 20
230.0
 30
0.0
 11
105.0
 21
237.0
 31
0.0
  0
ARC
  8
DETAIL
  6
CONTINUOUS
 62
     5
 10
39.940000000000047
 20
260.94001400000002
 30
0.0
 40
5.060001999999999
 50
0.6792529999972869
 51
90.0
  0
TEXT
  8
SIZE
  6
CONTINUOUS
 62
    30
 10
386.99999957142848
 20
722.17923176879253
 30
0.0
 40
64.0
  1
27
 41
0.9
 72
     1
 11
433.62857100000002
 21
722.17923176879253
 31
0.0
  0
LINE
  8
SIZE
  6
CONTINUOUS
 62
    30
 10
347.0
 20
697.17923176879276
 30
0.0
 11
505.25714299999981
 21
697.17923176879276
 31
0.0
  0
TEXT
  8
SIZE
  6
CONTINUOUS
 62
    30
 10
386.99999957142848
 20
843.7298927687923
 30
0.0
 40
64.0
  1
57
 41
0.9
 72
     1
 11
433.62857100000002
 21
843.7298927687923
 31
0.0
  0
LINE
  8
SIZE
  6
CONTINUOUS
 62
    30
 10
347.0
 20
818.7298927687923
 30
0.0
 11
505.25714299999981
 21
818.7298927687923
 31
0.0
  0
TEXT
  8
SIZE
  6
CONTINUOUS
 62
    30
 10
195.42857142857139
 20
966.18818976879265
 30
0.0
 40
64.0
  1
142
 41
0.9
 72
     1
 11
264.0
 21
966.18818976879265
 31
0.0
  0
LINE
  8
SIZE
  6
CONTINUOUS
 62
    30
 10
193.0
 20
941.18818976879265
 30
0.0
 11
335.0
 21
941.18818976879265
 31
0.0
  0
LINE
  8
SIZE
  6
CONTINUOUS
 62
    30
 10
296.0
 20
697.17923176879276
 30
0.0
 11
284.0
 21
697.17923176879276
 31
0.0
  0
LINE
  8
SIZE
  6
CONTINUOUS
 62
    30
 10
335.0
 20
697.17923176879276
 30
0.0
 11
347.0
 21
697.17923176879276
 31
0.0
  0
CIRCLE
  8
SIZE
  6
CONTINUOUS
 62
    30
 10
335.0
 20
697.17923176879276
 30
0.0
 40
6.0
  0
LINE
  8
SIZE
  6
CONTINUOUS
 62
    30
 10
308.0
 20
697.17923176879276
 30
0.0
 11
296.0
 21
697.17923176879276
 31
0.0
  0
CIRCLE
  8
SIZE
  6
CONTINUOUS
 62
    30
 10
308.0
 20
697.17923176879276
 30
0.0
 40
6.0
  0
LINE
  8
SIZE
  6
CONTINUOUS
 62
    30
 10
308.0
 20
697.17923176879276
 30
0.0
 11
335.0
 21
697.17923176879276
 31
0.0
  0
LINE
  8
SIZE
  6
CONTINUOUS
 62
    30
 10
278.0
 20
818.7298927687923
 30
0.0
 11
335.0
 21
818.7298927687923
 31
0.0
  0
LINE
  8
SIZE
  6
CONTINUOUS
 62
    30
 10
335.0
 20
818.7298927687923
 30
0.0
 11
347.0
 21
818.7298927687923
 31
0.0
  0
CIRCLE
  8
SIZE
  6
CONTINUOUS
 62
    30
 10
335.0
 20
818.7298927687923
 30
0.0
 40
6.0
  0
CIRCLE
  8
SIZE
  6
CONTINUOUS
 62
    30
 10
278.0
 20
818.7298927687923
 30
0.0
 40
6.0
  0
CIRCLE
  8
SIZE
  6
CONTINUOUS
 62
    30
 10
335.0
 20
941.18818976879265
 30
0.0
 40
6.0
  0
LINE
  8
SIZE
  6
CONTINUOUS
 62
    30
 10
45.0
 20
700.66091576879262
 30
0.0
 11
33.0
 21
700.66091576879262
 31
0.0
  0
CIRCLE
  8
SIZE
  6
CONTINUOUS
 62
    30
 10
45.0
 20
700.66091576879262
 30
0.0
 40
6.0
  0
LINE
  8
SIZE
  6
CONTINUOUS
 62
    30
 10
181.0
 20
941.18818976879265
 30
0.0
 11
169.0
 21
941.18818976879265
 31
0.0
  0
LINE
  8
SIZE
  6
CONTINUOUS
 62
    30
 10
193.0
 20
941.18818976879265
 30
0.0
 11
181.0
 21
941.18818976879265
 31
0.0
  0
CIRCLE
  8
SIZE
  6
CONTINUOUS
 62
    30
 10
193.0
 20
941.18818976879265
 30
0.0
 40
6.0
  0
LINE
  8
SIZE
  6
CONTINUOUS
 62
    30
 10
193.0
 20
941.18818976879265
 30
0.0
 11
181.0
 21
941.18818976879265
 31
0.0
  0
CIRCLE
  8
SIZE
  6
CONTINUOUS
 62
    30
 10
193.0
 20
941.18818976879265
 30
0.0
 40
6.0
  0
LINE
  8
OUTLINE
  6
CONTINUOUS
 62
     3
 10
-193.0
 20
0.0
 30
0.0
 11
-193.0
 21
230.0
 31
0.0
  0
LINE
  8
SIZE
  6
CONTINUOUS
 62
    30
 10
-797.63894600000003
 20
0.0
 30
0.0
 11
-797.63894600000003
 21
12.0
 31
0.0
  0
CIRCLE
  8
SIZE
  6
CONTINUOUS
 62
    30
 10
-797.63894600000003
 20
0.0
 30
0.0
 40
6.0
  0
LINE
  8
SIZE
  6
CONTINUOUS
 62
    30
 10
-797.63894600000003
 20
0.0
 30
0.0
 11
-797.63894600000003
 21
12.0
 31
0.0
  0
CIRCLE
  8
SIZE
  6
CONTINUOUS
 62
    30
 10
-797.63894600000003
 20
0.0
 30
0.0
 40
6.0
  0
LINE
  8
NOTE
  6
CONTINUOUS
 62
     4
 10
-204.98601300000001
 20
0.0799839999999676
 30
0.0
 11
-230.56793708987311
 21
-31.559281705868099
 31
0.0
  0
LINE
  8
NOTE
  6
CONTINUOUS
 62
     4
 10
-211.79001008987299
 20
-40.283281705868028
 30
0.0
 11
-204.98601300000001
 21
0.0799839999999676
 31
0.0
  0
LINE
  8
NOTE
  6
CONTINUOUS
 62
     4
 10
-204.98852500000001
 20
0.0256140000000187
 30
0.0
 11
-287.05333599999989
 21
-183.15480600000001
 31
0.0
  0
LINE
  8
NOTE
  6
CONTINUOUS
 62
     4
 10
-204.91375508987309
 20
-20.961177705868071
 30
0.0
 11
-205.0
 21
20.0
 31
0.0
  0
LINE
  8
NOTE
  6
CONTINUOUS
 62
     4
 10
-149.91375508987309
 20
-20.961177705868071
 30
0.0
 11
-150.0
 21
20.0
 31
0.0
  0
CIRCLE
  8
FIX
  6
CONTINUOUS
 62
    11
 10
-150.0
 20
0.0
 30
0.0
 40
2.5
  0
CIRCLE
  8
FIX
  6
CONTINUOUS
 62
    11
 10
-205.0
 20
0.0
 30
0.0
 40
2.5
  0
LINE
  8
DETAIL
  6
CONTINUOUS
 62
     5
 10
-193.0
 20
0.0
 30
0.0
 11
-193.0
 21
230.0
 31
0.0
  0
LINE
  8
SIZE
  6
CONTINUOUS
 62
    30
 10
-249.06271753006149
 20
-55.0
 30
0.0
 11
-817.63894600000003
 21
-55.0
 31
0.0
  0
LINE
  8
SIZE
  6
CONTINUOUS
 62
    30
 10
-254.97260899999989
 20
0.0
 30
0.0
 11
-817.63894600000003
 21
0.0
 31
0.0
  0
LINE
  8
SIZE
  6
CONTINUOUS
 62
    30
 10
-255.0
 20
0.0
 30
0.0
 11
-817.63894600000003
 21
0.0
 31
0.0
  0
LINE
  8
NOTE
  6
CONTINUOUS
 62
     4
 10
-287.05333599999989
 20
-183.15480600000001
 30
0.0
 11
-676.03285499999981
 21
-183.15480600000001
 31
0.0
  0
TEXT
  8
NOTE
  6
CONTINUOUS
 62
     4
 10
-645.82738757142852
 20
-150.19053500000001
 30
0.0
 40
64.0
  1
8-φ5×8
 41
0.9
  0
LINE
  8
SIZE
  6
CONTINUOUS
 62
    30
 10
-235.0
 20
0.0
 30
0.0
 11
-234.97260899999989
 21
-806.0124483314778
 31
0.0
  0
CIRCLE
  8
SIZE
  6
CONTINUOUS
 62
    30
 10
-205.0
 20
-658.70475378199558
 30
0.0
 40
6.0
  0
LINE
  8
SIZE
  6
CONTINUOUS
 62
    30
 10
-204.91375508987309
 20
-40.961177705868067
 30
0.0
 11
-205.0
 21
-678.70475378199558
 31
0.0
  0
LINE
  8
SIZE
  6
CONTINUOUS
 62
    30
 10
-234.97260899999989
 20
-786.0124483314778
 30
0.0
 11
-222.97260899999969
 21
-786.0124483314778
 31
0.0
  0
CIRCLE
  8
SIZE
  6
CONTINUOUS
 62
    30
 10
-234.97260899999989
 20
-786.0124483314778
 30
0.0
 40
6.0
  0
LINE
  8
SIZE
  6
CONTINUOUS
 62
    30
 10
-205.0
 20
-658.70475378199558
 30
0.0
 11
-193.0
 21
-658.70475378199558
 31
0.0
  0
LINE
  8
SIZE
  6
CONTINUOUS
 62
    30
 10
-149.91375508987309
 20
-40.961177705868067
 30
0.0
 11
-150.0
 21
-559.42579135076312
 31
0.0
  0
LINE
  8
SIZE
  6
CONTINUOUS
 62
    30
 10
-150.0
 20
-539.42579135076312
 30
0.0
 11
-138.0
 21
-539.42579135076312
 31
0.0
  0
CIRCLE
  8
SIZE
  6
CONTINUOUS
 62
    30
 10
-150.0
 20
-539.42579135076312
 30
0.0
 40
6.0
  0
LINE
  8
NOTE
  6
CONTINUOUS
 62
     4
 10
-130.0
 20
0.0
 30
0.0
 11
-170.0
 21
0.0
 31
0.0
  0
LINE
  8
NOTE
  6
CONTINUOUS
 62
     4
 10
-185.0
 20
0.0
 30
0.0
 11
-225.0
 21
0.0
 31
0.0
  0
TEXT
  8
SIZE
  6
CONTINUOUS
 62
    30
 10
-822.73870137321319
 20
-199.8957566848064
 30
0.0
 40
64.0
  1
55
 50
90.0
 41
0.9
 72
     1
 11
-822.73870137321319
 21
-153.26718525623491
 31
0.0
  0
LINE
  8
SIZE
  6
CONTINUOUS
 62
    30
 10
-797.63894600000003
 20
-67.0
 30
0.0
 11
-797.63894600000003
 21
-230.90000000000001
 31
0.0
  0
LINE
  8
SIZE
  6
CONTINUOUS
 62
    30
 10
-797.63894600000003
 20
-55.0
 30
0.0
 11
-797.63894600000003
 21
-67.0
 31
0.0
  0
CIRCLE
  8
SIZE
  6
CONTINUOUS
 62
    30
 10
-797.63894600000003
 20
-55.0
 30
0.0
 40
6.0
  0
LINE
  8
SIZE
  6
CONTINUOUS
 62
    30
 10
-797.63894600000003
 20
0.0
 30
0.0
 11
-797.63894600000003
 21
-55.0
 31
0.0
  0
LINE
  8
NOTE
  6
CONTINUOUS
 62
     4
 10
-359.27716600000008
 20
432.69894364980468
 30
0.0
 11
-583.01242195305531
 21
432.69894364980468
 31
0.0
  0
TEXT
  8
NOTE
  6
CONTINUOUS
 62
     4
 10
-567.94536442857145
 20
475.95636464980498
 30
0.0
 40
64.0
  1
AH 4
 41
0.9
  0
LINE
  8
SIZE
  6
CONTINUOUS
 62
    30
 10
-193.0
 20
250.0
 30
0.0
 11
-193.0
 21
961.18818976879265
 31
0.0
  0
LINE
  8
SIZE
  6
CONTINUOUS
 62
    30
 10
-53.000001999999988
 20
280.94001400000002
 30
0.0
 11
-53.000001999999988
 21
720.66091576879262
 31
0.0
  0
LINE
  8
SIZE
  6
CONTINUOUS
 62
    30
 10
-67.940000000000055
 20
266.00001600000002
 30
0.0
 11
-817.63894600000003
 21
266.00001600000002
 31
0.0
  0
LINE
  8
NOTE
  6
CONTINUOUS
 62
     4
 10
-130.0
 20
236.56164064980479
 30
0.0
 11
-359.27716600000008
 21
432.69894364980468
 31
0.0
  0
LINE
  8
DETAIL
  6
CONTINUOUS
 62
     5
 10
-105.0
 20
37.0
 30
0.0
 11
-105.0
 21
237.0
 31
0.0
  0
LINE
  8
DETAIL
  6
CONTINUOUS
 62
     5
 10
-155.0
 20
37.0
 30
0.0
 11
-155.0
 21
237.0
 31
0.0
  0
LINE
  8
DETAIL
  6
CONTINUOUS
 62
     5
 10
-126.0
 20
11.0
 30
0.0
 11
-105.0
 21
11.0
 31
0.0
  0
LINE
  8
DETAIL
  6
CONTINUOUS
 62
     5
 10
-105.0
 20
25.0
 30
0.0
 11
-126.0
 21
25.0
 31
0.0
  0
LINE
  8
DETAIL
  6
CONTINUOUS
 62
     5
 10
-105.0
 20
28.0
 30
0.0
 11
-126.0
 21
28.0
 31
0.0
  0
LINE
  8
DETAIL
  6
CONTINUOUS
 62
     5
 10
-105.0
 20
8.0
 30
0.0
 11
-126.0
 21
8.0
 31
0.0
  0
LINE
  8
BASIS
  6
DASHDOT
 62
     6
 10
-88.816613492655961
 20
18.0
 30
0.0
 11
-139.77134878252039
 21
18.0
 31
0.0
  0
LINE
  8
DETAIL
  6
CONTINUOUS
 62
     5
 10
-155.0
 20
37.0
 30
0.0
 11
-105.0
 21
37.0
 31
0.0
  0
LINE
  8
BASIS
  6
DASHDOT
 62
     6
 10
-115.5
 20
4.2375409999999647
 30
0.0
 11
-115.5
 21
31.965836999999961
 31
0.0
  0
ARC
  8
DETAIL
  6
CONTINUOUS
 62
     5
 10
-105.0
 20
18.0
 30
0.0
 40
10.0
 50
270.0
 51
90.0
  0
ARC
  8
DETAIL
  6
CONTINUOUS
 62
     5
 10
-105.0
 20
18.0
 30
0.0
 40
7.0
 50
270.0
 51
90.0
  0
ARC
  8
DETAIL
  6
CONTINUOUS
 62
     5
 10
-126.0
 20
18.0
 30
0.0
 40
7.0
 50
90.0
 51
270.0
  0
ARC
  8
DETAIL
  6
CONTINUOUS
 62
     5
 10
-126.0
 20
18.0
 30
0.0
 40
10.0
 50
90.0
 51
270.0
  0
LINE
  8
DETAIL
  6
CONTINUOUS
 62
     5
 10
-155.0
 20
233.5
 30
0.0
 11
-105.0
 21
233.5
 31
0.0
  0
LINE
  8
DETAIL
  6
CONTINUOUS
 62
     5
 10
-155.0
 20
237.0
 30
0.0
 11
-105.0
 21
237.0
 31
0.0
  0
LINE
  8
DETAIL
  6
CONTINUOUS
 62
     5
 10
-155.0
 20
237.0
 30
0.0
 11
-105.0
 21
237.0
 31
0.0
  0
LINE
  8
DETAIL
  6
CONTINUOUS
 62
     5
 10
-53.0
 20
237.0
 30
0.0
 11
-53.0
 21
260.94001400000002
 31
0.0
  0
ARC
  8
DETAIL
  6
CONTINUOUS
 62
     5
 10
-47.940000000000047
 20
260.94001400000002
 30
0.0
 40
5.060001999999999
 50
90.0
 51
179.99999899999861
  0
LINE
  8
DETAIL
  6
CONTINUOUS
 62
     5
 10
-47.952641999999969
 20
266.0
 30
0.0
 11
-4.0
 21
266.0
 31
0.0
  0
LINE
  8
NOTE
  6
CONTINUOUS
 62
     4
 10
-130.0
 20
218.0
 30
0.0
 11
-130.0
 21
258.0
 31
0.0
  0
LINE
  8
NOTE
  6
CONTINUOUS
 62
     4
 10
-130.0
 20
236.56164064980479
 30
0.0
 11
-149.6646396546721
 21
272.5845544766089
 31
0.0
  0
LINE
  8
NOTE
  6
CONTINUOUS
 62
     4
 10
-169.2089176229338
 20
254.44340945877391
 30
0.0
 11
-130.0
 21
236.56164064980479
 31
0.0
  0
LINE
  8
DETAIL
  6
CONTINUOUS
 62
     5
 10
-193.0
 20
223.0
 30
0.0
 11
-155.0
 21
223.0
 31
0.0
  0
LINE
  8
DETAIL
  6
CONTINUOUS
 62
     5
 10
-193.0
 20
230.0
 30
0.0
 11
-155.0
 21
230.0
 31
0.0
  0
CIRCLE
  8
FIX
  6
CONTINUOUS
 62
    11
 10
-130.0
 20
237.0
 30
0.0
 40
6.0
  0
LINE
  8
NOTE
  6
CONTINUOUS
 62
     4
 10
-110.0
 20
237.0
 30
0.0
 11
-150.0
 21
237.0
 31
0.0
  0
TEXT
  8
SIZE
  6
CONTINUOUS
 62
    30
 10
-822.73870137321319
 20
72.318537458050884
 30
0.0
 40
64.0
  1
266
 50
90.0
 41
0.9
 72
     1
 11
-822.73870137321319
 21
145.0042517437652
 31
0.0
  0
LINE
  8
SIZE
  6
CONTINUOUS
 62
    30
 10
-797.63894600000003
 20
12.0
 30
0.0
 11
-797.63894600000003
 21
266.00001600000002
 31
0.0
  0
LINE
  8
SIZE
  6
CONTINUOUS
 62
    30
 10
-797.63894600000003
 20
12.0
 30
0.0
 11
-797.63894600000003
 21
24.0
 31
0.0
  0
LINE
  8
SIZE
  6
CONTINUOUS
 62
    30
 10
-797.63894600000003
 20
266.00001600000002
 30
0.0
 11
-797.63894600000003
 21
254.00001599999999
 31
0.0
  0
CIRCLE
  8
SIZE
  6
CONTINUOUS
 62
    30
 10
-797.63894600000003
 20
266.00001600000002
 30
0.0
 40
6.0
  0
LINE
  8
SIZE
  6
CONTINUOUS
 62
    30
 10
-53.000001999999988
 20
700.66091576879262
 30
0.0
 11
-410.37436400000001
 21
700.66091576879262
 31
0.0
  0
CIRCLE
  8
SIZE
  6
CONTINUOUS
 62
    30
 10
-53.000001999999988
 20
700.66091576879262
 30
0.0
 40
6.0
  0
LINE
  8
SIZE
  6
CONTINUOUS
 62
    30
 10
-53.000001999999988
 20
700.66091576879262
 30
0.0
 11
-41.000001999999988
 21
700.66091576879262
 31
0.0
  0
LINE
  8
SIZE
  6
CONTINUOUS
 62
    30
 10
-193.0
 20
941.18818976879265
 30
0.0
 11
-181.0
 21
941.18818976879265
 31
0.0
  0
CIRCLE
  8
SIZE
  6
CONTINUOUS
 62
    30
 10
-193.0
 20
941.18818976879265
 30
0.0
 40
6.0
  0
TEXT
  8
SIZE
  6
CONTINUOUS
 62
    30
 10
-396.89436342857141
 20
725.66091576879262
 30
0.0
 40
64.0
  1
φ98
 41
0.9
 72
     1
 11
-309.94579199999998
 21
725.66091576879262
 31
0.0
  0
TEXT
  8
ETC
  6
CONTINUOUS
 62
    61
 10
567.1797258242359
 20
958.71047718004638
 30
0.0
 40
64.0
  1
VD-23ZVX6-FP_5
 41
0.9
  0
TEXT
  8
ETC
  6
CONTINUOUS
 62
    61
 10
562.99373182423551
 20
840.75516716521543
 30
0.0
 40
64.0
  1
換気扇
 41
0.9
  0
TEXT
  8
ETC
  6
CONTINUOUS
 62
    61
 10
613.60123447649221
 20
732.91938712566798
 30
0.0
 40
40.0
  1
VD-23ZVX6-FP
 41
0.9
  0
LINE
  8
SIZE
  6
CONTINUOUS
 62
    30
 10
406.95414399999981
 20
162.0
 30
0.0
 11
742.13741991423922
 21
161.99999999999989
 31
0.0
  0
LINE
  8
SIZE
  6
CONTINUOUS
 62
    30
 10
254.99999999999949
 20
0.0
 30
0.0
 11
742.13741991423922
 21
-0.0000000000001137
 31
0.0
  0
LINE
  8
SIZE
  6
CONTINUOUS
 62
    30
 10
722.13741991423922
 20
149.99999999999989
 30
0.0
 11
722.13741991423922
 21
11.99999999999989
 31
0.0
  0
LINE
  8
SIZE
  6
CONTINUOUS
 62
    30
 10
722.13741991423922
 20
-0.0000000000001137
 30
0.0
 11
722.13741991423922
 21
-199.14285714285731
 31
0.0
  0
CIRCLE
  8
SIZE
  6
CONTINUOUS
 62
    30
 10
722.13741991423922
 20
161.99999999999989
 30
0.0
 40
6.0
  0
LINE
  8
SIZE
  6
CONTINUOUS
 62
    30
 10
722.13741991423922
 20
161.99999999999989
 30
0.0
 11
722.13741991423922
 21
149.99999999999989
 31
0.0
  0
CIRCLE
  8
SIZE
  6
CONTINUOUS
 62
    30
 10
722.13741991423922
 20
-0.0000000000001137
 30
0.0
 40
6.0
  0
LINE
  8
SIZE
  6
CONTINUOUS
 62
    30
 10
722.13741991423922
 20
-0.0000000000001137
 30
0.0
 11
722.13741991423922
 21
11.99999999999989
 31
0.0
  0
TEXT
  8
SIZE
  6
CONTINUOUS
 62
    30
 10
697.13741991423922
 20
-174.14285714285711
 30
0.0
 40
64.0
  1
162
 50
90.0
 41
0.9
 72
     1
 11
697.13741991423922
 21
-105.5714285714286
 31
0.0
  0
POINT
  8
DEFPOINTS
  6
CONTINUOUS
 62
    30
 10
386.95414399999981
 20
162.0
 30
0.0
  0
POINT
  8
DEFPOINTS
  6
CONTINUOUS
 62
    30
 10
234.99999999999949
 20
0.0
 30
0.0
  0
POINT
  8
DEFPOINTS
  6
CONTINUOUS
 62
    30
 10
722.13741991423922
 20
-0.0000000000001137
 30
0.0
  0
LINE
  8
SIZE
  6
CONTINUOUS
 62
    30
 10
0.0
 20
-122.65254999999991
 30
0.0
 11
0.0
 21
-426.22762079632781
 31
0.0
  0
LINE
  8
SIZE
  6
CONTINUOUS
 62
    30
 10
84.5
 20
-15.762459000000041
 30
0.0
 11
84.5
 21
-426.22762079632781
 31
0.0
  0
LINE
  8
SIZE
  6
CONTINUOUS
 62
    30
 10
12.0
 20
-406.22762079632781
 30
0.0
 11
72.5
 21
-406.22762079632781
 31
0.0
  0
LINE
  8
SIZE
  6
CONTINUOUS
 62
    30
 10
84.5
 20
-406.22762079632781
 30
0.0
 11
472.52879984389477
 21
-406.22762079632781
 31
0.0
  0
CIRCLE
  8
SIZE
  6
CONTINUOUS
 62
    30
 10
0.0
 20
-406.22762079632781
 30
0.0
 40
6.0
  0
LINE
  8
SIZE
  6
CONTINUOUS
 62
    30
 10
0.0
 20
-406.22762079632781
 30
0.0
 11
12.0
 21
-406.22762079632781
 31
0.0
  0
CIRCLE
  8
SIZE
  6
CONTINUOUS
 62
    30
 10
84.5
 20
-406.22762079632781
 30
0.0
 40
6.0
  0
LINE
  8
SIZE
  6
CONTINUOUS
 62
    30
 10
84.5
 20
-406.22762079632781
 30
0.0
 11
72.5
 21
-406.22762079632781
 31
0.0
  0
TEXT
  8
SIZE
  6
CONTINUOUS
 62
    30
 10
271.98594270103752
 20
-381.22762079632781
 30
0.0
 40
64.0
  1
84.5
 41
0.9
 72
     1
 11
359.75737127246612
 21
-381.22762079632781
 31
0.0
  0
POINT
  8
DEFPOINTS
  6
CONTINUOUS
 62
    30
 10
0.0
 20
-102.65254999999991
 30
0.0
  0
POINT
  8
DEFPOINTS
  6
CONTINUOUS
 62
    30
 10
84.5
 20
4.2375409999999647
 30
0.0
  0
POINT
  8
DEFPOINTS
  6
CONTINUOUS
 62
    30
 10
84.5
 20
-406.22762079632781
 30
0.0
  0
LINE
  8
SIZE
  6
CONTINUOUS
 62
    30
 10
0.0
 20
-122.65254999999991
 30
0.0
 11
0.0
 21
-426.22762079632781
 31
0.0
  0
LINE
  8
SIZE
  6
CONTINUOUS
 62
    30
 10
-115.5
 20
-15.762459000000041
 30
0.0
 11
-115.5
 21
-426.22762079632781
 31
0.0
  0
LINE
  8
SIZE
  6
CONTINUOUS
 62
    30
 10
-12.0
 20
-406.22762079632781
 30
0.0
 11
-103.5
 21
-406.22762079632781
 31
0.0
  0
LINE
  8
SIZE
  6
CONTINUOUS
 62
    30
 10
-115.5
 20
-406.22762079632781
 30
0.0
 11
-488.98594270103757
 21
-406.22762079632781
 31
0.0
  0
CIRCLE
  8
SIZE
  6
CONTINUOUS
 62
    30
 10
0.0
 20
-406.22762079632781
 30
0.0
 40
6.0
  0
LINE
  8
SIZE
  6
CONTINUOUS
 62
    30
 10
0.0
 20
-406.22762079632781
 30
0.0
 11
-12.0
 21
-406.22762079632781
 31
0.0
  0
CIRCLE
  8
SIZE
  6
CONTINUOUS
 62
    30
 10
-115.5
 20
-406.22762079632781
 30
0.0
 40
6.0
  0
LINE
  8
SIZE
  6
CONTINUOUS
 62
    30
 10
-115.5
 20
-406.22762079632781
 30
0.0
 11
-103.5
 21
-406.22762079632781
 31
0.0
  0
TEXT
  8
SIZE
  6
CONTINUOUS
 62
    30
 10
-463.98594270103757
 20
-381.22762079632781
 30
0.0
 40
64.0
  1
115.5
 41
0.9
 72
     1
 11
-359.75737127246617
 21
-381.22762079632781
 31
0.0
  0
POINT
  8
DEFPOINTS
  6
CONTINUOUS
 62
    30
 10
0.0
 20
-102.65254999999991
 30
0.0
  0
POINT
  8
DEFPOINTS
  6
CONTINUOUS
 62
    30
 10
-115.5
 20
4.2375409999999647
 30
0.0
  0
POINT
  8
DEFPOINTS
  6
CONTINUOUS
 62
    30
 10
-115.5
 20
-406.22762079632781
 30
0.0
  0
LINE
  8
SIZE
  6
CONTINUOUS
 62
    30
 10
105.0
 20
-2.0
 30
0.0
 11
105.0
 21
-304.95161150654519
 31
0.0
  0
LINE
  8
SIZE
  6
CONTINUOUS
 62
    30
 10
64.0
 20
-2.0
 30
0.0
 11
64.0
 21
-304.95161150654519
 31
0.0
  0
LINE
  8
SIZE
  6
CONTINUOUS
 62
    30
 10
52.0
 20
-284.95161150654531
 30
0.0
 11
40.0
 21
-284.95161150654531
 31
0.0
  0
LINE
  8
SIZE
  6
CONTINUOUS
 62
    30
 10
117.0
 20
-284.95161150654531
 30
0.0
 11
369.40456487611527
 21
-284.95161150654531
 31
0.0
  0
LINE
  8
SIZE
  6
CONTINUOUS
 62
    30
 10
64.0
 20
-284.95161150654531
 30
0.0
 11
105.0
 21
-284.95161150654531
 31
0.0
  0
CIRCLE
  8
SIZE
  6
CONTINUOUS
 62
    30
 10
64.0
 20
-284.95161150654531
 30
0.0
 40
6.0
  0
LINE
  8
SIZE
  6
CONTINUOUS
 62
    30
 10
64.0
 20
-284.95161150654531
 30
0.0
 11
52.0
 21
-284.95161150654531
 31
0.0
  0
CIRCLE
  8
SIZE
  6
CONTINUOUS
 62
    30
 10
105.0
 20
-284.95161150654531
 30
0.0
 40
6.0
  0
LINE
  8
SIZE
  6
CONTINUOUS
 62
    30
 10
105.0
 20
-284.95161150654531
 30
0.0
 11
117.0
 21
-284.95161150654531
 31
0.0
  0
TEXT
  8
SIZE
  6
CONTINUOUS
 62
    30
 10
275.83313630468678
 20
-259.95161150654531
 30
0.0
 40
64.0
  1
41
 41
0.9
 72
     1
 11
310.11885059040111
 21
-259.95161150654531
 31
0.0
  0
POINT
  8
DEFPOINTS
  6
CONTINUOUS
 62
    30
 10
105.0
 20
18.0
 30
0.0
  0
POINT
  8
DEFPOINTS
  6
CONTINUOUS
 62
    30
 10
64.0
 20
18.0
 30
0.0
  0
POINT
  8
DEFPOINTS
  6
CONTINUOUS
 62
    30
 10
64.0
 20
-284.95161150654531
 30
0.0
  0
LINE
  8
SIZE
  6
CONTINUOUS
 62
    30
 10
255.02739100000011
 20
0.0
 30
0.0
 11
399.71844486904769
 21
0.0
 31
0.0
  0
LINE
  8
SIZE
  6
CONTINUOUS
 62
    30
 10
130.81427657169019
 20
18.0
 30
0.0
 11
399.71844486904769
 21
17.99999999999989
 31
0.0
  0
LINE
  8
SIZE
  6
CONTINUOUS
 62
    30
 10
379.71844486904769
 20
29.99999999999989
 30
0.0
 11
379.71844486904769
 21
41.999999999999893
 31
0.0
  0
LINE
  8
SIZE
  6
CONTINUOUS
 62
    30
 10
379.71844486904769
 20
-12.0
 30
0.0
 11
379.71844486904769
 21
-156.28571428571431
 31
0.0
  0
LINE
  8
SIZE
  6
CONTINUOUS
 62
    30
 10
379.71844486904769
 20
17.99999999999989
 30
0.0
 11
379.71844486904769
 21
0.0
 31
0.0
  0
CIRCLE
  8
SIZE
  6
CONTINUOUS
 62
    30
 10
379.71844486904769
 20
17.99999999999989
 30
0.0
 40
6.0
  0
LINE
  8
SIZE
  6
CONTINUOUS
 62
    30
 10
379.71844486904769
 20
17.99999999999989
 30
0.0
 11
379.71844486904769
 21
29.99999999999989
 31
0.0
  0
CIRCLE
  8
SIZE
  6
CONTINUOUS
 62
    30
 10
379.71844486904769
 20
0.0
 30
0.0
 40
6.0
  0
LINE
  8
SIZE
  6
CONTINUOUS
 62
    30
 10
379.71844486904769
 20
0.0
 30
0.0
 11
379.71844486904769
 21
-12.0
 31
0.0
  0
TEXT
  8
SIZE
  6
CONTINUOUS
 62
    30
 10
354.71844486904769
 20
-131.28571428571419
 30
0.0
 40
64.0
  1
18
 50
90.0
 41
0.9
 72
     1
 11
354.71844486904769
 21
-90.14285714285711
 31
0.0
  0
POINT
  8
DEFPOINTS
  6
CONTINUOUS
 62
    30
 10
235.02739100000011
 20
0.0
 30
0.0
  0
POINT
  8
DEFPOINTS
  6
CONTINUOUS
 62
    30
 10
110.8142765716902
 20
18.0
 30
0.0
  0
POINT
  8
DEFPOINTS
  6
CONTINUOUS
 62
    30
 10
379.71844486904769
 20
17.99999999999989
 30
0.0
  0
LINE
  8
SIZE
  6
CONTINUOUS
 62
    30
 10
104.5
 20
8.0
 30
0.0
 11
517.64215094487372
 21
7.9999999999998863
 31
0.0
  0
LINE
  8
SIZE
  6
CONTINUOUS
 62
    30
 10
104.5
 20
28.0
 30
0.0
 11
517.64215094487372
 21
27.99999999999989
 31
0.0
  0
LINE
  8
SIZE
  6
CONTINUOUS
 62
    30
 10
497.64215094487372
 20
39.999999999999893
 30
0.0
 11
497.64215094487372
 21
51.999999999999893
 31
0.0
  0
LINE
  8
SIZE
  6
CONTINUOUS
 62
    30
 10
497.64215094487372
 20
-4.0000000000001137
 30
0.0
 11
497.64215094487372
 21
-159.25714285714301
 31
0.0
  0
LINE
  8
SIZE
  6
CONTINUOUS
 62
    30
 10
497.64215094487372
 20
27.99999999999989
 30
0.0
 11
497.64215094487372
 21
7.9999999999998863
 31
0.0
  0
CIRCLE
  8
SIZE
  6
CONTINUOUS
 62
    30
 10
497.64215094487372
 20
27.99999999999989
 30
0.0
 40
6.0
  0
LINE
  8
SIZE
  6
CONTINUOUS
 62
    30
 10
497.64215094487372
 20
27.99999999999989
 30
0.0
 11
497.64215094487372
 21
39.999999999999893
 31
0.0
  0
CIRCLE
  8
SIZE
  6
CONTINUOUS
 62
    30
 10
497.64215094487372
 20
7.9999999999998863
 30
0.0
 40
6.0
  0
LINE
  8
SIZE
  6
CONTINUOUS
 62
    30
 10
497.64215094487372
 20
7.9999999999998863
 30
0.0
 11
497.64215094487372
 21
-4.0000000000001137
 31
0.0
  0
TEXT
  8
SIZE
  6
CONTINUOUS
 62
    30
 10
472.64215094487372
 20
-134.2571428571429
 30
0.0
 40
64.0
  1
20
 50
90.0
 41
0.9
 72
     1
 11
472.64215094487372
 21
-87.62857142857149
 31
0.0
  0
POINT
  8
DEFPOINTS
  6
CONTINUOUS
 62
    30
 10
84.5
 20
8.0
 30
0.0
  0
POINT
  8
DEFPOINTS
  6
CONTINUOUS
 62
    30
 10
84.5
 20
28.0
 30
0.0
  0
POINT
  8
DEFPOINTS
  6
CONTINUOUS
 62
    30
 10
497.64215094487372
 20
27.99999999999989
 30
0.0
  0
LINE
  8
SIZE
  6
CONTINUOUS
 62
    30
 10
-170.0
 20
237.0
 30
0.0
 11
-671.5060544644856
 21
237.0
 31
0.0
  0
LINE
  8
SIZE
  6
CONTINUOUS
 62
    30
 10
-255.0
 20
0.0
 30
0.0
 11
-671.5060544644856
 21
0.0000000000001137
 31
0.0
  0
LINE
  8
SIZE
  6
CONTINUOUS
 62
    30
 10
-651.5060544644856
 20
225.0
 30
0.0
 11
-651.5060544644856
 21
12.00000000000011
 31
0.0
  0
CIRCLE
  8
SIZE
  6
CONTINUOUS
 62
    30
 10
-651.5060544644856
 20
237.0
 30
0.0
 40
6.0
  0
LINE
  8
SIZE
  6
CONTINUOUS
 62
    30
 10
-651.5060544644856
 20
237.0
 30
0.0
 11
-651.5060544644856
 21
225.0
 31
0.0
  0
CIRCLE
  8
SIZE
  6
CONTINUOUS
 62
    30
 10
-651.5060544644856
 20
0.0000000000001137
 30
0.0
 40
6.0
  0
LINE
  8
SIZE
  6
CONTINUOUS
 62
    30
 10
-651.5060544644856
 20
0.0000000000001137
 30
0.0
 11
-651.5060544644856
 21
12.00000000000011
 31
0.0
  0
TEXT
  8
SIZE
  6
CONTINUOUS
 62
    30
 10
-676.5060544644856
 20
44.442857142857143
 30
0.0
 40
64.0
  1
237
 50
90.0
 41
0.9
 72
     1
 11
-676.5060544644856
 21
118.5
 31
0.0
  0
POINT
  8
DEFPOINTS
  6
CONTINUOUS
 62
    30
 10
-150.0
 20
237.0
 30
0.0
  0
POINT
  8
DEFPOINTS
  6
CONTINUOUS
 62
    30
 10
-235.0
 20
0.0
 30
0.0
  0
POINT
  8
DEFPOINTS
  6
CONTINUOUS
 62
    30
 10
-651.5060544644856
 20
0.0000000000001137
 30
0.0
  0
LINE
  8
SIZE
  6
CONTINUOUS
 62
    30
 10
255.02739100000011
 20
0.0
 30
0.0
 11
632.24594240254919
 21
-0.0000000000001137
 31
0.0
  0
LINE
  8
SIZE
  6
CONTINUOUS
 62
    30
 10
298.0
 20
80.0
 30
0.0
 11
632.24594240254919
 21
79.999999999999886
 31
0.0
  0
LINE
  8
SIZE
  6
CONTINUOUS
 62
    30
 10
612.24594240254919
 20
67.999999999999886
 30
0.0
 11
612.24594240254919
 21
11.99999999999989
 31
0.0
  0
LINE
  8
SIZE
  6
CONTINUOUS
 62
    30
 10
612.24594240254919
 20
-0.0000000000001137
 30
0.0
 11
612.24594240254919
 21
-155.25714285714301
 31
0.0
  0
CIRCLE
  8
SIZE
  6
CONTINUOUS
 62
    30
 10
612.24594240254919
 20
79.999999999999886
 30
0.0
 40
6.0
  0
LINE
  8
SIZE
  6
CONTINUOUS
 62
    30
 10
612.24594240254919
 20
79.999999999999886
 30
0.0
 11
612.24594240254919
 21
67.999999999999886
 31
0.0
  0
CIRCLE
  8
SIZE
  6
CONTINUOUS
 62
    30
 10
612.24594240254919
 20
-0.0000000000001137
 30
0.0
 40
6.0
  0
LINE
  8
SIZE
  6
CONTINUOUS
 62
    30
 10
612.24594240254919
 20
-0.0000000000001137
 30
0.0
 11
612.24594240254919
 21
11.99999999999989
 31
0.0
  0
TEXT
  8
SIZE
  6
CONTINUOUS
 62
    30
 10
587.24594240254919
 20
-130.25714285714281
 30
0.0
 40
64.0
  1
80
 50
90.0
 41
0.9
 72
     1
 11
587.24594240254919
 21
-83.628571428571377
 31
0.0
  0
POINT
  8
DEFPOINTS
  6
CONTINUOUS
 62
    30
 10
235.02739100000011
 20
0.0
 30
0.0
  0
POINT
  8
DEFPOINTS
  6
CONTINUOUS
 62
    30
 10
278.0
 20
80.0
 30
0.0
  0
POINT
  8
DEFPOINTS
  6
CONTINUOUS
 62
    30
 10
612.24594240254919
 20
79.999999999999886
 30
0.0
  0
LINE
  8
DETAIL
  6
CONTINUOUS
 62
     5
 10
233.8171627246202
 20
-55.0
 30
0.0
 11
-233.64483984590061
 21
-55.0
 31
0.0
  0
ARC
  8
DETAIL
  6
CONTINUOUS
 62
     5
 10
233.8171627246202
 20
-53.99980000000005
 30
0.0
 40
1.00019999999991
 50
270.0
 51
357.00000000246001
  0
LINE
  8
DETAIL
  6
CONTINUOUS
 62
     5
 10
182.05857533070869
 20
-32.786497470833638
 30
0.0
 11
181.6907268142395
 21
-32.786497470833638
 31
0.0
  0
LINE
  8
DETAIL
  6
CONTINUOUS
 62
     5
 10
182.03237388171331
 20
-35.788886127907062
 30
0.0
 11
181.6907268142395
 21
-35.788886127907062
 31
0.0
  0
LINE
  8
DETAIL
  6
CONTINUOUS
 62
     5
 10
180.8900898390211
 20
-47.197963024781529
 30
0.0
 11
180.8900898390211
 21
-28.082755241419822
 31
0.0
  0
LINE
  8
DETAIL
  6
CONTINUOUS
 62
     5
 10
180.8900898390211
 20
-28.082755241419822
 30
0.0
 11
181.6907268142395
 21
-28.082755241419822
 31
0.0
  0
LINE
  8
DETAIL
  6
CONTINUOUS
 62
     5
 10
181.6907268142395
 20
-47.197963024781529
 30
0.0
 11
181.6907268142395
 21
-28.082755241419822
 31
0.0
  0
ARC
  8
DETAIL
  6
CONTINUOUS
 62
     5
 10
180.08945286380089
 20
-47.197963024781529
 30
0.0
 40
0.8006369752194481
 50
270.60395190749011
 51
0.0
  0
ARC
  8
DETAIL
  6
CONTINUOUS
 62
     5
 10
180.08945286380089
 20
-47.197963024781529
 30
0.0
 40
1.6012739504384279
 50
329.98088396060803
 51
0.0
  0
LINE
  8
DETAIL
  6
CONTINUOUS
 62
     5
 10
179.68913437618991
 20
-35.788886127907062
 30
0.0
 11
177.48738269433761
 21
-35.788886127907062
 31
0.0
  0
LINE
  8
DETAIL
  6
CONTINUOUS
 62
     5
 10
179.68913437618991
 20
-32.786497470833638
 30
0.0
 11
177.48738269433761
 21
-32.786497470833638
 31
0.0
  0
ARC
  8
DETAIL
  6
CONTINUOUS
 62
     5
 10
180.08945286380089
 20
-31.085143898493239
 30
0.0
 40
0.8006369752194481
 50
270.0
 51
0.0
  0
LINE
  8
DETAIL
  6
CONTINUOUS
 62
     5
 10
179.68913437618991
 20
-31.88578087371161
 30
0.0
 11
180.08945286380089
 21
-31.88578087371161
 31
0.0
  0
LINE
  8
DETAIL
  6
CONTINUOUS
 62
     5
 10
179.68913437618991
 20
-36.689537255940188
 30
0.0
 11
179.68913437618991
 21
-31.8858463422971
 31
0.0
  0
LINE
  8
DETAIL
  6
CONTINUOUS
 62
     5
 10
179.68913437618991
 20
-36.689602725026823
 30
0.0
 11
180.08945286380089
 21
-36.689602725026823
 31
0.0
  0
ARC
  8
DETAIL
  6
CONTINUOUS
 62
     5
 10
180.08945286380089
 20
-37.490239700246548
 30
0.0
 40
0.8006369752196582
 50
0.0
 51
90.0
  0
LINE
  8
DETAIL
  6
CONTINUOUS
 62
     5
 10
177.48738269433761
 20
-32.786497470833638
 30
0.0
 11
177.48738269433761
 21
-35.788886127907062
 31
0.0
  0
ARC
  8
DETAIL
  6
CONTINUOUS
 62
     5
 10
183.26335769774599
 20
-10.308201055947389
 30
0.0
 40
0.30023886570672
 50
0.9999999999887361
 51
90.0
  0
LINE
  8
DETAIL
  6
CONTINUOUS
 62
     5
 10
183.16597824605921
 20
-10.00796219024096
 30
0.0
 11
183.56442473750761
 21
-10.353026973490159
 31
0.0
  0
LINE
  8
DETAIL
  6
CONTINUOUS
 62
     5
 10
182.58816827929149
 20
-10.00796219024096
 30
0.0
 11
183.57329328059129
 21
-10.8611054666535
 31
0.0
  0
ARC
  8
DETAIL
  6
CONTINUOUS
 62
     5
 10
185.0460512935351
 20
-13.510748956823591
 30
0.0
 40
2.00159243804847
 50
136.49480331574401
 51
181.10170611525319
  0
LINE
  8
DETAIL
  6
CONTINUOUS
 62
     5
 10
183.38053273793869
 20
-27.482277510006501
 30
0.0
 11
183.04482886986531
 21
-13.5492340029723
 31
0.0
  0
LINE
  8
DETAIL
  6
CONTINUOUS
 62
     5
 10
202.3071289261361
 20
-47.969993454545147
 30
0.0
 11
202.3071289261361
 21
-47.998599999999897
 31
0.0
  0
LINE
  8
DETAIL
  6
CONTINUOUS
 62
     5
 10
234.53155712751229
 20
-54.087717217754737
 30
0.0
 11
234.52934158285731
 21
-54.085521095050808
 31
0.0
  0
ARC
  8
DETAIL
  6
CONTINUOUS
 62
     5
 10
234.51969041760819
 20
-0.5003981095105701
 30
0.0
 40
0.500398109511198
 50
2.999999999966481
 51
90.0
  0
LINE
  8
DETAIL
  6
CONTINUOUS
 62
     5
 10
235.01940274852399
 20
-0.4742092955693806
 30
0.0
 11
235.04699999999869
 21
-1.0007962190229589
 31
0.0
  0
ARC
  8
DETAIL
  6
CONTINUOUS
 62
     5
 10
233.90629962775071
 20
-9.007165971215727
 30
0.0
 40
1.0007962190236199
 50
270.0
 51
359.00000000001779
  0
LINE
  8
DETAIL
  6
CONTINUOUS
 62
     5
 10
235.04699999999869
 20
-1.0007962190229589
 30
0.0
 11
234.90694342050659
 21
-9.0246322731532018
 31
0.0
  0
ARC
  8
DETAIL
  6
CONTINUOUS
 62
     5
 10
202.76375990422821
 20
-10.308201055947389
 30
0.0
 40
0.300238865707122
 50
90.0
 51
179.00000000001131
  0
LINE
  8
DETAIL
  6
CONTINUOUS
 62
     5
 10
0.0
 20
-10.00796219024096
 30
0.0
 11
233.90629962775071
 21
-10.00796219024096
 31
0.0
  0
LINE
  8
DETAIL
  6
CONTINUOUS
 62
     5
 10
202.46356676640059
 20
-10.302961165165931
 30
0.0
 11
201.90860927265291
 21
-47.998599999999897
 31
0.0
  0
ARC
  8
DETAIL
  6
CONTINUOUS
 62
     5
 10
201.3063327071122
 20
-47.969993454545147
 30
0.0
 40
1.0007962190241539
 50
0.0
 51
19.453781416113831
  0
LINE
  8
DETAIL
  6
CONTINUOUS
 62
     5
 10
201.930705258399
 20
-46.732721801079613
 30
0.0
 11
202.24999392535389
 21
-47.636681923203007
 31
0.0
  0
LINE
  8
DETAIL
  6
CONTINUOUS
 62
     5
 10
235.10564765865089
 20
-48.525186922954163
 30
0.0
 11
234.81599198528511
 21
-54.052146423391598
 31
0.0
  0
ARC
  8
DETAIL
  6
CONTINUOUS
 62
     5
 10
234.6059353277351
 20
-48.498998109512293
 30
0.0
 40
0.50039810951205
 50
356.99999999992269
 51
90.0
  0
LINE
  8
DETAIL
  6
CONTINUOUS
 62
     5
 10
234.6059353277351
 20
-47.998599999999897
 30
0.0
 11
0.0862449101268794
 21
-47.998599999999897
 31
0.0
  0
LINE
  8
DETAIL
  6
CONTINUOUS
 62
     5
 10
183.5635508355717
 20
-10.302961165165931
 30
0.0
 11
184.29099814957499
 21
-47.998599999999897
 31
0.0
  0
LINE
  8
DETAIL
  6
CONTINUOUS
 62
     5
 10
183.38053273793869
 20
-27.482277510006501
 30
0.0
 11
183.04482886986531
 21
-13.5492340029723
 31
0.0
  0
LINE
  8
DETAIL
  6
CONTINUOUS
 62
     5
 10
183.5635508355717
 20
-10.302961165165931
 30
0.0
 11
184.29099814957499
 21
-47.998599999999897
 31
0.0
  0
ARC
  8
DETAIL
  6
CONTINUOUS
 62
     5
 10
185.0460512935351
 20
-13.510748956823591
 30
0.0
 40
2.00159243804847
 50
136.49480331574401
 51
181.10170611525319
  0
LINE
  8
DETAIL
  6
CONTINUOUS
 62
     5
 10
183.93288440845299
 20
-27.482277510006501
 30
0.0
 11
182.40249471050271
 21
-27.482277510006501
 31
0.0
  0
LINE
  8
DETAIL
  6
CONTINUOUS
 62
     5
 10
182.10226727689039
 20
-27.779896330243449
 30
0.0
 11
181.92582132303781
 21
-47.998599999999897
 31
0.0
  0
ARC
  8
DETAIL
  6
CONTINUOUS
 62
     5
 10
182.40249471050271
 20
-27.78251637571293
 30
0.0
 40
0.300238865707128
 50
90.0
 51
179.50000000007361
  0
LINE
  8
DETAIL
  6
CONTINUOUS
 62
     5
 10
0.0
 20
0.0
 30
0.0
 11
234.51969041760819
 21
0.0
 31
0.0
  0
ARC
  8
DETAIL
  6
CONTINUOUS
 62
     5
 10
-233.64467290436639
 20
-53.99980000000005
 30
0.0
 40
1.00019999999991
 50
182.99999999753999
 51
270.0
  0
LINE
  8
DETAIL
  6
CONTINUOUS
 62
     5
 10
-181.8860855104549
 20
-32.786497470833638
 30
0.0
 11
-181.51823699398571
 21
-32.786497470833638
 31
0.0
  0
LINE
  8
DETAIL
  6
CONTINUOUS
 62
     5
 10
-181.85988406145859
 20
-35.788886127907062
 30
0.0
 11
-181.51823699398571
 21
-35.788886127907062
 31
0.0
  0
LINE
  8
DETAIL
  6
CONTINUOUS
 62
     5
 10
-180.7176000187674
 20
-47.197963024781529
 30
0.0
 11
-180.7176000187674
 21
-28.082755241419822
 31
0.0
  0
LINE
  8
DETAIL
  6
CONTINUOUS
 62
     5
 10
-180.7176000187674
 20
-28.082755241419822
 30
0.0
 11
-181.51823699398571
 21
-28.082755241419822
 31
0.0
  0
LINE
  8
DETAIL
  6
CONTINUOUS
 62
     5
 10
-181.51823699398571
 20
-47.197963024781529
 30
0.0
 11
-181.51823699398571
 21
-28.082755241419822
 31
0.0
  0
ARC
  8
DETAIL
  6
CONTINUOUS
 62
     5
 10
-179.91696304354721
 20
-47.197963024781529
 30
0.0
 40
0.8006369752194481
 50
180.0
 51
269.39604809250977
  0
ARC
  8
DETAIL
  6
CONTINUOUS
 62
     5
 10
-179.91696304354721
 20
-47.197963024781529
 30
0.0
 40
1.6012739504384279
 50
180.0
 51
210.01911603939189
  0
LINE
  8
DETAIL
  6
CONTINUOUS
 62
     5
 10
-179.51664455593621
 20
-35.788886127907062
 30
0.0
 11
-177.31489287408391
 21
-35.788886127907062
 31
0.0
  0
LINE
  8
DETAIL
  6
CONTINUOUS
 62
     5
 10
-179.51664455593621
 20
-32.786497470833638
 30
0.0
 11
-177.31489287408391
 21
-32.786497470833638
 31
0.0
  0
ARC
  8
DETAIL
  6
CONTINUOUS
 62
     5
 10
-179.91696304354721
 20
-31.085143898493239
 30
0.0
 40
0.8006369752194481
 50
180.0
 51
270.0
  0
LINE
  8
DETAIL
  6
CONTINUOUS
 62
     5
 10
-179.51664455593621
 20
-31.88578087371161
 30
0.0
 11
-179.91696304354721
 21
-31.88578087371161
 31
0.0
  0
LINE
  8
DETAIL
  6
CONTINUOUS
 62
     5
 10
-179.51664455593621
 20
-36.689537255940188
 30
0.0
 11
-179.51664455593621
 21
-31.8858463422971
 31
0.0
  0
LINE
  8
DETAIL
  6
CONTINUOUS
 62
     5
 10
-179.51664455593621
 20
-36.689602725026823
 30
0.0
 11
-179.91696304354721
 21
-36.689602725026823
 31
0.0
  0
ARC
  8
DETAIL
  6
CONTINUOUS
 62
     5
 10
-179.91696304354721
 20
-37.490239700246548
 30
0.0
 40
0.8006369752196582
 50
90.0
 51
180.0
  0
LINE
  8
DETAIL
  6
CONTINUOUS
 62
     5
 10
-177.31489287408391
 20
-32.786497470833638
 30
0.0
 11
-177.31489287408391
 21
-35.788886127907062
 31
0.0
  0
ARC
  8
DETAIL
  6
CONTINUOUS
 62
     5
 10
-183.26335769774599
 20
-10.308201055947389
 30
0.0
 40
0.30023886570672
 50
90.0
 51
179.00000000001131
  0
LINE
  8
DETAIL
  6
CONTINUOUS
 62
     5
 10
-183.16597824605921
 20
-10.00796219024096
 30
0.0
 11
-183.56442473750761
 21
-10.353026973490159
 31
0.0
  0
LINE
  8
DETAIL
  6
CONTINUOUS
 62
     5
 10
-182.58816827929149
 20
-10.00796219024096
 30
0.0
 11
-183.57329328059129
 21
-10.8611054666535
 31
0.0
  0
ARC
  8
DETAIL
  6
CONTINUOUS
 62
     5
 10
-185.0460512935351
 20
-13.510748956823591
 30
0.0
 40
2.00159243804847
 50
358.89829388475329
 51
43.505196684256063
  0
LINE
  8
DETAIL
  6
CONTINUOUS
 62
     5
 10
-183.20804291768491
 20
-27.482277510006501
 30
0.0
 11
-183.04482886986631
 21
-13.5492340029723
 31
0.0
  0
LINE
  8
DETAIL
  6
CONTINUOUS
 62
     5
 10
-202.1346391058822
 20
-47.969993454545147
 30
0.0
 11
-202.1346391058822
 21
-47.998599999999897
 31
0.0
  0
LINE
  8
DETAIL
  6
CONTINUOUS
 62
     5
 10
-234.35906730725861
 20
-54.087717217754737
 30
0.0
 11
-234.35685176260361
 21
-54.085521095050808
 31
0.0
  0
ARC
  8
DETAIL
  6
CONTINUOUS
 62
     5
 10
-234.51969041760819
 20
-0.5003981095105701
 30
0.0
 40
0.500398109511198
 50
90.0
 51
177.000000000027
  0
LINE
  8
DETAIL
  6
CONTINUOUS
 62
     5
 10
-235.01940274852501
 20
-0.4742092955693806
 30
0.0
 11
-235.04699999999869
 21
-1.0007962190229589
 31
0.0
  0
ARC
  8
DETAIL
  6
CONTINUOUS
 62
     5
 10
-233.90629962775171
 20
-9.007165971215727
 30
0.0
 40
1.0007962190236199
 50
180.9999999999757
 51
270.0
  0
LINE
  8
DETAIL
  6
CONTINUOUS
 62
     5
 10
-235.04699999999869
 20
-1.0007962190229589
 30
0.0
 11
-234.90694342050639
 21
-9.0246322731532018
 31
0.0
  0
ARC
  8
DETAIL
  6
CONTINUOUS
 62
     5
 10
-202.76375990422821
 20
-10.308201055947389
 30
0.0
 40
0.300238865707122
 50
0.9999999999887361
 51
90.0
  0
LINE
  8
DETAIL
  6
CONTINUOUS
 62
     5
 10
0.0
 20
-10.00796219024096
 30
0.0
 11
-233.90629962775171
 21
-10.00796219024096
 31
0.0
  0
LINE
  8
DETAIL
  6
CONTINUOUS
 62
     5
 10
-202.46356676640059
 20
-10.302961165165931
 30
0.0
 11
-201.73611945239921
 21
-47.998599999999897
 31
0.0
  0
ARC
  8
DETAIL
  6
CONTINUOUS
 62
     5
 10
-201.13384288685941
 20
-47.969993454545147
 30
0.0
 40
1.0007962190241539
 50
160.5462185838862
 51
180.0
  0
LINE
  8
DETAIL
  6
CONTINUOUS
 62
     5
 10
-201.75821543814621
 20
-46.732721801079613
 30
0.0
 11
-202.07750410509931
 21
-47.636681923203007
 31
0.0
  0
LINE
  8
DETAIL
  6
CONTINUOUS
 62
     5
 10
-234.9331578383981
 20
-48.525186922954163
 30
0.0
 11
-234.64350216503141
 21
-54.052146423391598
 31
0.0
  0
ARC
  8
DETAIL
  6
CONTINUOUS
 62
     5
 10
-234.43344550748131
 20
-48.498998109512293
 30
0.0
 40
0.50039810951205
 50
90.0
 51
183.00000000007731
  0
LINE
  8
DETAIL
  6
CONTINUOUS
 62
     5
 10
-234.43344550748131
 20
-47.998599999999897
 30
0.0
 11
0.0862449101268794
 21
-47.998599999999897
 31
0.0
  0
LINE
  8
DETAIL
  6
CONTINUOUS
 62
     5
 10
-183.5635508355717
 20
-10.302961165165931
 30
0.0
 11
-184.1185083293212
 21
-47.998599999999897
 31
0.0
  0
LINE
  8
DETAIL
  6
CONTINUOUS
 62
     5
 10
-183.20804291768491
 20
-27.482277510006501
 30
0.0
 11
-183.04482886986631
 21
-13.5492340029723
 31
0.0
  0
LINE
  8
DETAIL
  6
CONTINUOUS
 62
     5
 10
-183.5635508355717
 20
-10.302961165165931
 30
0.0
 11
-184.1185083293212
 21
-47.998599999999897
 31
0.0
  0
ARC
  8
DETAIL
  6
CONTINUOUS
 62
     5
 10
-185.0460512935351
 20
-13.510748956823591
 30
0.0
 40
2.00159243804847
 50
358.89829388475329
 51
43.505196684256063
  0
LINE
  8
DETAIL
  6
CONTINUOUS
 62
     5
 10
-183.7603945881992
 20
-27.482277510006501
 30
0.0
 11
-182.23000489024801
 21
-27.482277510006501
 31
0.0
  0
LINE
  8
DETAIL
  6
CONTINUOUS
 62
     5
 10
-181.92977745663759
 20
-27.779896330243449
 30
0.0
 11
-181.75333150278399
 21
-47.998599999999897
 31
0.0
  0
ARC
  8
DETAIL
  6
CONTINUOUS
 62
     5
 10
-182.23000489024801
 20
-27.78251637571293
 30
0.0
 40
0.300238865707128
 50
0.4999999999264114
 51
90.0
  0
LINE
  8
DETAIL
  6
CONTINUOUS
 62
     5
 10
0.0
 20
0.0
 30
0.0
 11
-234.51969041760819
 21
0.0
 31
0.0
  0
LINE
  8
SIZE
  6
CONTINUOUS
 62
    30
 10
-130.0
 20
278.0
 30
0.0
 11
-130.0
 21
837.5203642607612
 31
0.0
  0
LINE
  8
SIZE
  6
CONTINUOUS
 62
    30
 10
0.0
 20
348.47680999999989
 30
0.0
 11
0.0
 21
837.5203642607612
 31
0.0
  0
LINE
  8
SIZE
  6
CONTINUOUS
 62
    30
 10
-12.0
 20
817.5203642607612
 30
0.0
 11
-118.0
 21
817.5203642607612
 31
0.0
  0
LINE
  8
SIZE
  6
CONTINUOUS
 62
    30
 10
-130.0
 20
817.5203642607612
 30
0.0
 11
-379.49764628369689
 21
817.5203642607612
 31
0.0
  0
CIRCLE
  8
SIZE
  6
CONTINUOUS
 62
    30
 10
0.0
 20
817.5203642607612
 30
0.0
 40
6.0
  0
LINE
  8
SIZE
  6
CONTINUOUS
 62
    30
 10
0.0
 20
817.5203642607612
 30
0.0
 11
-12.0
 21
817.5203642607612
 31
0.0
  0
CIRCLE
  8
SIZE
  6
CONTINUOUS
 62
    30
 10
-130.0
 20
817.5203642607612
 30
0.0
 40
6.0
  0
LINE
  8
SIZE
  6
CONTINUOUS
 62
    30
 10
-130.0
 20
817.5203642607612
 30
0.0
 11
-118.0
 21
817.5203642607612
 31
0.0
  0
TEXT
  8
SIZE
  6
CONTINUOUS
 62
    30
 10
-354.49764628369678
 20
842.5203642607612
 30
0.0
 40
64.0
  1
130
 41
0.9
 72
     1
 11
-285.92621771226823
 21
842.5203642607612
 31
0.0
  0
POINT
  8
DEFPOINTS
  6
CONTINUOUS
 62
    30
 10
-130.0
 20
258.0
 30
0.0
  0
POINT
  8
DEFPOINTS
  6
CONTINUOUS
 62
    30
 10
0.0
 20
328.47680999999989
 30
0.0
  0
POINT
  8
DEFPOINTS
  6
CONTINUOUS
 62
    30
 10
0.0
 20
817.5203642607612
 30
0.0
  0
LINE
  8
SIZE
  6
CONTINUOUS
 62
    30
 10
0.0
 20
348.47680999999989
 30
0.0
 11
0.0
 21
837.5203642607612
 31
0.0
  0
LINE
  8
SIZE
  6
CONTINUOUS
 62
    30
 10
70.0
 20
275.9283708674202
 30
0.0
 11
70.0
 21
837.5203642607612
 31
0.0
  0
LINE
  8
SIZE
  6
CONTINUOUS
 62
    30
 10
-12.0
 20
817.5203642607612
 30
0.0
 11
-24.0
 21
817.5203642607612
 31
0.0
  0
LINE
  8
SIZE
  6
CONTINUOUS
 62
    30
 10
82.0
 20
817.5203642607612
 30
0.0
 11
94.0
 21
817.5203642607612
 31
0.0
  0
LINE
  8
SIZE
  6
CONTINUOUS
 62
    30
 10
0.0
 20
817.5203642607612
 30
0.0
 11
70.0
 21
817.5203642607612
 31
0.0
  0
CIRCLE
  8
SIZE
  6
CONTINUOUS
 62
    30
 10
0.0
 20
817.5203642607612
 30
0.0
 40
6.0
  0
LINE
  8
SIZE
  6
CONTINUOUS
 62
    30
 10
0.0
 20
817.5203642607612
 30
0.0
 11
-12.0
 21
817.5203642607612
 31
0.0
  0
CIRCLE
  8
SIZE
  6
CONTINUOUS
 62
    30
 10
70.0
 20
817.5203642607612
 30
0.0
 40
6.0
  0
LINE
  8
SIZE
  6
CONTINUOUS
 62
    30
 10
70.0
 20
817.5203642607612
 30
0.0
 11
82.0
 21
817.5203642607612
 31
0.0
  0
TEXT
  8
SIZE
  6
CONTINUOUS
 62
    30
 10
-11.62857142857143
 20
842.5203642607612
 30
0.0
 40
64.0
  1
70
 41
0.9
 72
     1
 11
35.0
 21
842.5203642607612
 31
0.0
  0
POINT
  8
DEFPOINTS
  6
CONTINUOUS
 62
    30
 10
0.0
 20
328.47680999999989
 30
0.0
  0
POINT
  8
DEFPOINTS
  6
CONTINUOUS
 62
    30
 10
70.0
 20
255.9283708674202
 30
0.0
  0
POINT
  8
DEFPOINTS
  6
CONTINUOUS
 62
    30
 10
70.0
 20
817.5203642607612
 30
0.0
  0
LINE
  8
DETAIL
  6
CONTINUOUS
 62
     5
 10
-45.0
 20
233.5
 30
0.0
 11
-95.0
 21
233.5
 31
0.0
  0
LINE
  8
DETAIL
  6
CONTINUOUS
 62
     5
 10
-45.0
 20
237.0
 30
0.0
 11
-95.0
 21
237.0
 31
0.0
  0
LINE
  8
DETAIL
  6
CONTINUOUS
 62
     5
 10
-45.0
 20
237.0
 30
0.0
 11
-95.0
 21
237.0
 31
0.0
  0
LINE
  8
NOTE
  6
CONTINUOUS
 62
     4
 10
-70.0
 20
218.0
 30
0.0
 11
-70.0
 21
258.0
 31
0.0
  0
CIRCLE
  8
FIX
  6
CONTINUOUS
 62
    11
 10
-70.0
 20
237.0
 30
0.0
 40
6.0
  0
LINE
  8
NOTE
  6
CONTINUOUS
 62
     4
 10
-90.0
 20
237.0
 30
0.0
 11
-50.0
 21
237.0
 31
0.0
  0
LINE
  8
DETAIL
  6
CONTINUOUS
 62
     5
 10
-45.0
 20
230.0
 30
0.0
 11
-45.0
 21
237.0
 31
0.0
  0
LINE
  8
DETAIL
  6
CONTINUOUS
 62
     5
 10
-95.0
 20
230.0
 30
0.0
 11
-95.0
 21
237.0
 31
0.0
  0
LINE
  8
NOTE
  6
CONTINUOUS
 62
     4
 10
70.0
 20
217.0
 30
0.0
 11
70.0
 21
257.0
 31
0.0
  0
LINE
  8
NOTE
  6
CONTINUOUS
 62
     4
 10
157.93092821238039
 20
210.94999654908989
 30
0.0
 11
157.93092821238039
 21
250.94999654909
 31
0.0
  0
LINE
  8
NOTE
  6
CONTINUOUS
 62
     4
 10
164.04059218242111
 20
231.47102530126151
 30
0.0
 11
157.9309282123813
 21
230.34999654908941
 31
0.0
  0
LINE
  8
NOTE
  6
CONTINUOUS
 62
     4
 10
157.9309282123813
 20
230.34999654908941
 30
0.0
 11
162.66153197647051
 21
234.37567504062139
 31
0.0
  0
LINE
  8
NOTE
  6
CONTINUOUS
 62
     4
 10
157.9309282123813
 20
230.34999654908941
 30
0.0
 11
168.77119594651049
 21
235.4967037927936
 31
0.0
  0
LINE
  8
NOTE
  6
CONTINUOUS
 62
     4
 10
168.77119594651049
 20
235.4967037927936
 30
0.0
 11
448.50305884236508
 21
368.99890738385011
 31
0.0
  0
LINE
  8
NOTE
  6
CONTINUOUS
 62
     4
 10
448.50305884236508
 20
368.99890738385011
 30
0.0
 11
570.53163027093706
 21
368.99890738385011
 31
0.0
  0
TEXT
  8
NOTE
  6
CONTINUOUS
 62
     4
 10
474.17252037612582
 20
399.1128332960061
 30
0.0
 40
64.0
  1
EL
 41
0.9
 72
     2
 11
559.20109180469717
 21
399.1128332960061
 31
0.0
  0
LINE
  8
SIZE
  6
CONTINUOUS
 62
    30
 10
70.0
 20
278.0
 30
0.0
 11
70.0
 21
594.81922455079257
 31
0.0
  0
LINE
  8
SIZE
  6
CONTINUOUS
 62
    30
 10
0.0
 20
348.47680999999989
 30
0.0
 11
0.0
 21
594.81922455079257
 31
0.0
  0
LINE
  8
SIZE
  6
CONTINUOUS
 62
    30
 10
-12.0
 20
574.81922455079257
 30
0.0
 11
-24.0
 21
574.81922455079257
 31
0.0
  0
LINE
  8
SIZE
  6
CONTINUOUS
 62
    30
 10
82.0
 20
574.81922455079257
 30
0.0
 11
478.23041363792339
 21
574.81922455079257
 31
0.0
  0
LINE
  8
SIZE
  6
CONTINUOUS
 62
    30
 10
0.0
 20
574.81922455079257
 30
0.0
 11
70.0
 21
574.81922455079257
 31
0.0
  0
CIRCLE
  8
SIZE
  6
CONTINUOUS
 62
    30
 10
0.0
 20
574.81922455079257
 30
0.0
 40
6.0
  0
LINE
  8
SIZE
  6
CONTINUOUS
 62
    30
 10
0.0
 20
574.81922455079257
 30
0.0
 11
-12.0
 21
574.81922455079257
 31
0.0
  0
CIRCLE
  8
SIZE
  6
CONTINUOUS
 62
    30
 10
70.0
 20
574.81922455079257
 30
0.0
 40
6.0
  0
LINE
  8
SIZE
  6
CONTINUOUS
 62
    30
 10
70.0
 20
574.81922455079257
 30
0.0
 11
82.0
 21
574.81922455079257
 31
0.0
  0
TEXT
  8
SIZE
  6
CONTINUOUS
 62
    30
 10
359.97327078078058
 20
599.81922455079257
 30
0.0
 40
64.0
  1
70
 41
0.9
 72
     1
 11
406.60184220935213
 21
599.81922455079257
 31
0.0
  0
POINT
  8
DEFPOINTS
  6
CONTINUOUS
 62
    30
 10
70.0
 20
258.0
 30
0.0
  0
POINT
  8
DEFPOINTS
  6
CONTINUOUS
 62
    30
 10
0.0
 20
328.47680999999989
 30
0.0
  0
POINT
  8
DEFPOINTS
  6
CONTINUOUS
 62
    30
 10
0.0
 20
574.81922455079257
 30
0.0
  0
LINE
  8
SIZE
  6
CONTINUOUS
 62
    30
 10
0.0
 20
348.47680999999989
 30
0.0
 11
0.0
 21
594.81922455079257
 31
0.0
  0
LINE
  8
SIZE
  6
CONTINUOUS
 62
    30
 10
-130.0
 20
278.0
 30
0.0
 11
-130.0
 21
594.81922455079257
 31
0.0
  0
LINE
  8
SIZE
  6
CONTINUOUS
 62
    30
 10
-12.0
 20
574.81922455079257
 30
0.0
 11
-118.0
 21
574.81922455079257
 31
0.0
  0
LINE
  8
SIZE
  6
CONTINUOUS
 62
    30
 10
-130.0
 20
574.81922455079257
 30
0.0
 11
-396.32016128944048
 21
574.81922455079257
 31
0.0
  0
CIRCLE
  8
SIZE
  6
CONTINUOUS
 62
    30
 10
0.0
 20
574.81922455079257
 30
0.0
 40
6.0
  0
LINE
  8
SIZE
  6
CONTINUOUS
 62
    30
 10
0.0
 20
574.81922455079257
 30
0.0
 11
-12.0
 21
574.81922455079257
 31
0.0
  0
CIRCLE
  8
SIZE
  6
CONTINUOUS
 62
    30
 10
-130.0
 20
574.81922455079257
 30
0.0
 40
6.0
  0
LINE
  8
SIZE
  6
CONTINUOUS
 62
    30
 10
-130.0
 20
574.81922455079257
 30
0.0
 11
-118.0
 21
574.81922455079257
 31
0.0
  0
TEXT
  8
SIZE
  6
CONTINUOUS
 62
    30
 10
-371.32016128944048
 20
599.81922455079257
 30
0.0
 40
64.0
  1
130
 41
0.9
 72
     1
 11
-302.74873271801198
 21
599.81922455079257
 31
0.0
  0
POINT
  8
DEFPOINTS
  6
CONTINUOUS
 62
    30
 10
0.0
 20
328.47680999999989
 30
0.0
  0
POINT
  8
DEFPOINTS
  6
CONTINUOUS
 62
    30
 10
-130.0
 20
258.0
 30
0.0
  0
POINT
  8
DEFPOINTS
  6
CONTINUOUS
 62
    30
 10
-130.0
 20
574.81922455079257
 30
0.0
  0
LINE
  8
OUTLINE
  6
CONTINUOUS
 62
     3
 10
198.25
 20
80.0
 30
0.0
 11
198.25
 21
0.0
 31
0.0
  0
LINE
  8
OUTLINE
  6
CONTINUOUS
 62
     3
 10
194.7499999999998
 20
256.0
 30
0.0
 11
194.7499999999998
 21
0.0
 31
0.0
  0
LINE
  8
OUTLINE
  6
CONTINUOUS
 62
     3
 10
193.0
 20
0.0
 30
0.0
 11
193.0
 21
256.0
 31
0.0
  0
LINE
  8
OUTLINE
  6
CONTINUOUS
 62
     3
 10
278.0
 20
80.0
 30
0.0
 11
194.7499999999998
 21
80.0
 31
0.0
  0
LINE
  8
OUTLINE
  6
CONTINUOUS
 62
     3
 10
278.0
 20
244.0
 30
0.0
 11
194.7499999999998
 21
244.0
 31
0.0
  0
LINE
  8
OUTLINE
  6
CONTINUOUS
 62
     3
 10
335.0
 20
90.0
 30
0.0
 11
335.0
 21
234.0
 31
0.0
  0
LINE
  8
OUTLINE
  6
CONTINUOUS
 62
     3
 10
308.0
 20
86.0
 30
0.0
 11
308.0
 21
238.0
 31
0.0
  0
LINE
  8
OUTLINE
  6
CONTINUOUS
 62
     3
 10
278.0
 20
80.0
 30
0.0
 11
278.0
 21
244.0
 31
0.0
  0
LINE
  8
OUTLINE
  6
CONTINUOUS
 62
     3
 10
308.0
 20
86.0
 30
0.0
 11
278.0
 21
86.0
 31
0.0
  0
LINE
  8
OUTLINE
  6
CONTINUOUS
 62
     3
 10
335.0
 20
90.0
 30
0.0
 11
308.0
 21
90.0
 31
0.0
  0
LINE
  8
OUTLINE
  6
CONTINUOUS
 62
     3
 10
308.0
 20
238.0
 30
0.0
 11
278.0
 21
238.0
 31
0.0
  0
LINE
  8
OUTLINE
  6
CONTINUOUS
 62
     3
 10
335.0
 20
234.0
 30
0.0
 11
308.0
 21
234.0
 31
0.0
  0
LINE
  8
OUTLINE
  6
CONTINUOUS
 62
     3
 10
198.25
 20
256.0
 30
0.0
 11
198.25
 21
244.0
 31
0.0
  0
LINE
  8
OUTLINE
  6
CONTINUOUS
 62
     3
 10
198.25
 20
256.0
 30
0.0
 11
193.0
 21
256.0
 31
0.0
  0
ENDSEC
  0
EOF
