  0
SECTION
  2
HEADER
  9
$ACADVER
  1
AC1009
  9
$DWGCODEPAGE
  3
dos932
  9
$INSBASE
 10
0.0
 20
0.0
 30
0.0
  9
$EXTMIN
 10
-846.0983113340335
 20
-702.07213214839794
 30
-0.0000002793804338
  9
$EXTMAX
 10
1110.758983833666
 20
908.11158065697055
 30
0.0000000116489898
  9
$LIMMIN
 10
-2970.0
 20
-2100.0
  9
$LIMMAX
 10
2970.0
 20
2100.0
  9
$ORTHOMODE
 70
     1
  9
$REGENMODE
 70
     1
  9
$FILLMODE
 70
     1
  9
$QTEXTMODE
 70
     0
  9
$MIRRTEXT
 70
     0
  9
$LTSCALE
 40
20.0
  9
$ATTMODE
 70
     1
  9
$TEXTSIZE
 40
64.0
  9
$TRACEWID
 40
0.05
  9
$TEXTSTYLE
  7
STANDARD
  9
$CLAYER
  8
NOTE
  9
$CELTYPE
  6
CONTINUOUS
  9
$CECOLOR
 62
     7
  9
$DIMSCALE
 40
1.0
  9
$DIMASZ
 40
12.0
  9
$DIMEXO
 40
20.0
  9
$DIMDLI
 40
200.0
  9
$DIMRND
 40
0.0
  9
$DIMDLE
 40
0.0
  9
$DIMEXE
 40
20.0
  9
$DIMTP
 40
0.0
  9
$DIMTM
 40
0.0
  9
$DIMTXT
 40
64.0
  9
$DIMCEN
 40
0.09
  9
$DIMTSZ
 40
0.0
  9
$DIMTOL
 70
     0
  9
$DIMLIM
 70
     0
  9
$DIMTIH
 70
     0
  9
$DIMTOH
 70
     0
  9
$DIMSE1
 70
     0
  9
$DIMSE2
 70
     0
  9
$DIMTAD
 70
     1
  9
$DIMZIN
 70
     8
  9
$DIMBLK
  1

  9
$DIMASO
 70
     1
  9
$DIMSHO
 70
     0
  9
$DIMPOST
  1

  9
$DIMAPOST
  1

  9
$DIMALT
 70
     0
  9
$DIMALTD
 70
     2
  9
$DIMALTF
 40
25.399999999999999
  9
$DIMLFAC
 40
1.0
  9
$DIMTOFL
 70
     1
  9
$DIMTVP
 40
0.0
  9
$DIMTIX
 70
     1
  9
$DIMSOXD
 70
     0
  9
$DIMSAH
 70
     0
  9
$DIMBLK1
  1

  9
$DIMBLK2
  1

  9
$DIMSTYLE
  2
STANDARD
  9
$DIMCLRD
 70
     7
  9
$DIMCLRE
 70
     7
  9
$DIMCLRT
 70
     7
  9
$DIMTFAC
 40
1.0
  9
$DIMGAP
 40
25.0
  9
$LUNITS
 70
     2
  9
$LUPREC
 70
     4
  9
$SKETCHINC
 40
0.1
  9
$FILLETRAD
 40
3.0
  9
$AUNITS
 70
     1
  9
$AUPREC
 70
     3
  9
$MENU
  1
ACAD
  9
$ELEVATION
 40
0.0
  9
$PELEVATION
 40
0.0
  9
$THICKNESS
 40
50.0
  9
$LIMCHECK
 70
     0
  9
$CHAMFERA
 40
0.0
  9
$CHAMFERB
 40
0.0
  9
$SKPOLY
 70
     0
  9
$TDCREATE
 40
2453019.62301037
  9
$TDUPDATE
 40
2458899.649435231
  9
$TDINDWG
 40
1.7782196875
  9
$TDUSRTIMER
 40
1.7782196875
  9
$USRTIMER
 70
     1
  9
$ANGBASE
 50
0.0
  9
$ANGDIR
 70
     0
  9
$PDMODE
 70
     3
  9
$PDSIZE
 40
-2.0
  9
$PLINEWID
 40
0.0
  9
$SPLFRAME
 70
     0
  9
$SPLINETYPE
 70
     6
  9
$SPLINESEGS
 70
     8
  9
$SURFTAB1
 70
     6
  9
$SURFTAB2
 70
     6
  9
$SURFTYPE
 70
     6
  9
$SURFU
 70
     6
  9
$SURFV
 70
     6
  9
$UCSNAME
  2

  9
$UCSORG
 10
0.0
 20
0.0
 30
0.0
  9
$UCSXDIR
 10
1.0
 20
0.0
 30
0.0
  9
$UCSYDIR
 10
0.0
 20
1.0
 30
0.0
  9
$PUCSNAME
  2

  9
$PUCSORG
 10
0.0
 20
0.0
 30
0.0
  9
$PUCSXDIR
 10
1.0
 20
0.0
 30
0.0
  9
$PUCSYDIR
 10
0.0
 20
1.0
 30
0.0
  9
$USERI1
 70
     0
  9
$USERI2
 70
     0
  9
$USERI3
 70
     0
  9
$USERI4
 70
     0
  9
$USERI5
 70
     0
  9
$USERR1
 40
20.0
  9
$USERR2
 40
0.0
  9
$USERR3
 40
0.0
  9
$USERR4
 40
0.0
  9
$USERR5
 40
0.0
  9
$WORLDVIEW
 70
     1
  9
$SHADEDGE
 70
     3
  9
$SHADEDIF
 70
    70
  9
$TILEMODE
 70
     1
  9
$MAXACTVP
 70
    48
  9
$PINSBASE
 10
0.0
 20
0.0
 30
0.0
  9
$PLIMCHECK
 70
     0
  9
$PEXTMIN
 10
-100000000000000000000.0
 20
-100000000000000000000.0
 30
-100000000000000000000.0
  9
$PEXTMAX
 10
100000000000000000000.0
 20
100000000000000000000.0
 30
100000000000000000000.0
  9
$PLIMMIN
 10
0.0
 20
0.0
  9
$PLIMMAX
 10
12.0
 20
9.0
  9
$UNITMODE
 70
     0
  9
$VISRETAIN
 70
     0
  9
$PLINEGEN
 70
     0
  9
$PSLTSCALE
 70
     0
  9
$TREEDEPTH
 70
  3020
  9
$ATTDIA
 70
     0
  9
$ATTREQ
 70
     1
  9
$BLIPMODE
 70
     1
  9
$COORDS
 70
     1
  9
$DRAGMODE
 70
     2
  9
$OSMODE
 70
     0
  9
$HANDLING
 70
     0
  9
$HANDSEED
  5
3C49F
  0
ENDSEC
  0
SECTION
  2
TABLES
  0
TABLE
  2
LTYPE
 70
     2
  0
LTYPE
  2
CONTINUOUS
 70
     0
  3
実線
 72
    65
 73
     0
 40
0.0
  0
LTYPE
  2
DASHDOT
 70
     0
  3
____ _ ____ _ ____ _ ____ _ ____ _ ____ _ ____
 72
    65
 73
     4
 40
5.5
 49
4.0
 49
-0.6
 49
0.3
 49
-0.6
  0
ENDTAB
  0
TABLE
  2
LAYER
 70
    12
  0
LAYER
  2
0
 70
     0
 62
     7
  6
CONTINUOUS
  0
LAYER
  2
BASIS
 70
     0
 62
     6
  6
DASHDOT
  0
LAYER
  2
OUTLINE
 70
     0
 62
     3
  6
CONTINUOUS
  0
LAYER
  2
DETAIL
 70
     0
 62
     5
  6
CONTINUOUS
  0
LAYER
  2
SIZE
 70
     0
 62
    30
  6
CONTINUOUS
  0
LAYER
  2
ARRANGE
 70
     0
 62
     1
  6
CONTINUOUS
  0
LAYER
  2
DEFPOINTS
 70
     0
 62
     7
  6
CONTINUOUS
  0
LAYER
  2
ETC
 70
     0
 62
    61
  6
CONTINUOUS
  0
LAYER
  2
FIX
 70
     0
 62
    11
  6
CONTINUOUS
  0
LAYER
  2
NOTE
 70
     0
 62
     4
  6
CONTINUOUS
  0
LAYER
  2
SERVICESPACE
 70
    64
 62
     2
  6
DASHDOT
  0
LAYER
  2
SYMBOLLINE
 70
    64
 62
    15
  6
CONTINUOUS
  0
ENDTAB
  0
TABLE
  2
STYLE
 70
     1
  0
STYLE
  2
STANDARD
 70
     0
 40
64.0
 41
0.9
 50
0.0
 71
     0
 42
64.0
  3
SIMPLEX.shx
  4
BIGFONT.shx
  0
ENDTAB
  0
TABLE
  2
APPID
 70
    17
  0
APPID
  2
ACAD
 70
     0
  0
APPID
  2
AUTOCAD_POSTSCRIPT_FIGURE
 70
     0
  0
APPID
  2
ACAD_EXEMPT_FROM_CAD_STANDARDS
 70
     0
  0
APPID
  2
ACAD_PSEXT
 70
     0
  0
APPID
  2
ACAUTHENVIRON
 70
     0
  0
APPID
  2
GENIUS_GENOENT_13
 70
     0
  0
APPID
  2
GENIUS_GENCFG_13
 70
     0
  0
APPID
  2
GENIUS_GENCFG0_13
 70
     0
  0
APPID
  2
GENIUS_GENCFG1_13
 70
     0
  0
APPID
  2
GENIUS_GENCFG2_13
 70
     0
  0
APPID
  2
GENIUS_GENCFG3_13
 70
     0
  0
APPID
  2
GENIUS_GENCFG4_13
 70
     0
  0
APPID
  2
GENIUS_GEVCFG0_13
 70
     0
  0
APPID
  2
CONTENTBLOCKICON
 70
     0
  0
APPID
  2
CONTENTBLOCKDESCRIPTION
 70
     0
  0
APPID
  2
ACAD_NAV_VCDISPLAY
 70
     0
  0
APPID
  2
ACAD_MLEADERVER
 70
     0
  0
ENDTAB
  0
TABLE
  2
DIMSTYLE
 70
     1
  0
DIMSTYLE
  2
STANDARD
 70
     0
  3

  4

  5
_ORIGIN
  6

  7

 40
1.0
 41
12.0
 42
20.0
 43
200.0
 44
20.0
 45
0.0
 46
0.0
 47
0.0
 48
0.0
140
64.0
141
0.09
142
0.0
143
25.399999999999999
144
1.0
145
0.0
146
1.0
147
25.0
 71
     0
 72
     0
 73
     0
 74
     0
 75
     0
 76
     0
 77
     1
 78
     8
170
     0
171
     2
172
     1
173
     0
174
     1
175
     0
176
     7
177
     7
178
     7
  0
ENDTAB
  0
TABLE
  2
VIEW
 70
     1
  0
VIEW
  2
ALL
 70
     0
 40
4282.6198079999986
 10
0.0
 20
41.309904000000003
 41
5940.0
 11
0.0
 21
0.0
 31
1.0
 12
0.0
 22
0.0
 32
0.0
 42
50.0
 43
0.0
 44
0.0
 50
0.0
 71
     0
  0
ENDTAB
  0
TABLE
  2
UCS
 70
     0
  0
ENDTAB
  0
TABLE
  2
VPORT
 70
     1
  0
VPORT
  2
*ACTIVE
 70
     0
 10
0.0
 20
0.0
 11
1.0
 21
1.0
 12
132.3303362498163
 22
103.0197242542863
 13
0.0
 23
0.0
 14
1.0
 24
1.0
 15
0.0
 25
0.0
 16
0.0
 26
0.0
 36
1.0
 17
0.0
 27
0.0
 37
0.0
 40
1620.16419036408
 41
1.6339193381592549
 42
50.0
 43
0.0
 44
0.0
 50
0.0
 51
0.0
 71
     0
 72
  1000
 73
     1
 74
     3
 75
     0
 76
     0
 77
     0
 78
     0
  0
ENDTAB
  0
ENDSEC
  0
SECTION
  2
BLOCKS
  0
BLOCK
  8
0
  2
_ORIGIN
 70
     0
 10
0.0
 20
0.0
 30
0.0
  3
_ORIGIN
  1
_ORIGIN
  0
CIRCLE
  8
0
  6
CONTINUOUS
 62
     7
 10
0.0
 20
0.0
 30
0.0
 40
0.5
  0
LINE
  8
0
  6
CONTINUOUS
 62
     7
 10
0.0
 20
0.0
 30
0.0
 11
-1.0
 21
0.0
 31
0.0
  0
ENDBLK
  8
0
  0
ENDSEC
  0
SECTION
  2
ENTITIES
  0
POINT
  8
ARRANGE
  6
CONTINUOUS
 62
     1
 10
0.0
 20
0.0
 30
0.0
  0
CIRCLE
  8
ARRANGE
  6
CONTINUOUS
 62
     1
 10
0.0
 20
0.0
 30
0.0
 40
40.0
  0
LINE
  8
OUTLINE
  6
CONTINUOUS
 62
     3
 10
193.0
 20
200.0
 30
0.0
 11
-192.2179169999998
 21
200.0
 31
0.0
  0
TEXT
  8
SIZE
  6
CONTINUOUS
 62
    30
 10
-110.56453385714281
 20
-656.75446450298443
 30
0.0
 40
64.0
  1
□470
 41
0.9
 72
     1
 11
-0.027390999999966
 21
-656.75446450298443
 31
0.0
  0
LINE
  8
SIZE
  6
CONTINUOUS
 62
    30
 10
222.97260899999989
 20
-681.75446450298443
 30
0.0
 11
-223.02739099999999
 21
-681.75446450298443
 31
0.0
  0
LINE
  8
DETAIL
  6
CONTINUOUS
 62
     5
 10
72.5
 20
232.0
 30
0.0
 11
-15.499645999999981
 21
232.0
 31
0.0
  0
LINE
  8
DETAIL
  6
CONTINUOUS
 62
     5
 10
193.0
 20
193.0
 30
0.0
 11
-10.5
 21
193.0
 31
0.0
  0
TEXT
  8
SIZE
  6
CONTINUOUS
 62
    30
 10
-68.571428571428555
 20
843.91230251924571
 30
0.0
 40
64.0
  1
418
 41
0.9
 72
     1
 11
0.0
 21
843.91230251924571
 31
0.0
  0
LINE
  8
SIZE
  6
CONTINUOUS
 62
    30
 10
197.0
 20
818.91230251924571
 30
0.0
 11
-197.0
 21
818.91230251924571
 31
0.0
  0
TEXT
  8
SIZE
  6
CONTINUOUS
 62
    30
 10
-68.571428571428555
 20
-526.75659080203366
 30
0.0
 40
64.0
  1
410
 41
0.9
 72
     1
 11
0.0
 21
-526.75659080203366
 31
0.0
  0
LINE
  8
SIZE
  6
CONTINUOUS
 62
    30
 10
193.0
 20
-549.38722280203376
 30
0.0
 11
-193.0
 21
-549.38722280203376
 31
0.0
  0
TEXT
  8
SIZE
  6
CONTINUOUS
 62
    30
 10
-109.1657142857143
 20
690.11047315851101
 30
0.0
 40
64.0
  1
□386
 41
0.9
 72
     1
 11
0.0
 21
690.11047315851101
 31
0.0
  0
LINE
  8
SIZE
  6
CONTINUOUS
 62
    30
 10
-181.0
 20
670.94053840285414
 30
0.0
 11
181.0
 21
670.94053840285414
 31
0.0
  0
TEXT
  8
SIZE
  6
CONTINUOUS
 62
    30
 10
-74.05714285714285
 20
-254.45504769505931
 30
0.0
 40
64.0
  1
300
 41
0.9
 72
     1
 11
0.0
 21
-254.45504769505931
 31
0.0
  0
LINE
  8
SIZE
  6
CONTINUOUS
 62
    30
 10
138.0
 20
-276.1832636950594
 30
0.0
 11
-138.0
 21
-276.1832636950594
 31
0.0
  0
LINE
  8
DETAIL
  6
CONTINUOUS
 62
     5
 10
193.0
 20
200.0
 30
0.0
 11
-10.5
 21
200.0
 31
0.0
  0
LINE
  8
OUTLINE
  6
CONTINUOUS
 62
     3
 10
-193.0
 20
0.0
 30
0.0
 11
-193.0
 21
200.0
 31
0.0
  0
LINE
  8
DETAIL
  6
CONTINUOUS
 62
     5
 10
-12.0
 20
0.0
 30
0.0
 11
-12.0
 21
229.0
 31
0.0
  0
LINE
  8
SIZE
  6
CONTINUOUS
 62
    30
 10
-755.31542600000012
 20
0.0
 30
0.0
 11
-755.31542600000012
 21
12.0
 31
0.0
  0
CIRCLE
  8
SIZE
  6
CONTINUOUS
 62
    30
 10
-755.31542600000012
 20
0.0
 30
0.0
 40
6.0
  0
LINE
  8
SIZE
  6
CONTINUOUS
 62
    30
 10
-755.31542600000012
 20
0.0
 30
0.0
 11
-755.31542600000012
 21
12.0
 31
0.0
  0
CIRCLE
  8
SIZE
  6
CONTINUOUS
 62
    30
 10
-755.31542600000012
 20
0.0
 30
0.0
 40
6.0
  0
LINE
  8
NOTE
  6
CONTINUOUS
 62
     4
 10
-150.0
 20
-20.0
 30
0.0
 11
-150.0
 21
20.0
 31
0.0
  0
CIRCLE
  8
FIX
  6
CONTINUOUS
 62
    11
 10
-150.0
 20
0.0
 30
0.0
 40
2.5
  0
CIRCLE
  8
FIX
  6
CONTINUOUS
 62
    11
 10
-205.0
 20
0.0
 30
0.0
 40
2.5
  0
LINE
  8
NOTE
  6
CONTINUOUS
 62
     4
 10
-205.0
 20
-20.0
 30
0.0
 11
-205.0
 21
20.0
 31
0.0
  0
LINE
  8
DETAIL
  6
CONTINUOUS
 62
     5
 10
-193.0
 20
0.0
 30
0.0
 11
-193.0
 21
49.093293000000017
 31
0.0
  0
LINE
  8
BASIS
  6
DASHDOT
 62
     6
 10
0.0
 20
-96.452677999999992
 30
0.0
 11
0.0
 21
280.0
 31
0.0
  0
LINE
  8
SIZE
  6
CONTINUOUS
 62
    30
 10
-235.02739099999999
 20
-20.0
 30
0.0
 11
-235.02739099999999
 21
-701.75446450298443
 31
0.0
  0
LINE
  8
SIZE
  6
CONTINUOUS
 62
    30
 10
-235.02739099999999
 20
-681.75446450298443
 30
0.0
 11
-223.02739099999999
 21
-681.75446450298443
 31
0.0
  0
CIRCLE
  8
SIZE
  6
CONTINUOUS
 62
    30
 10
-235.02739099999999
 20
-681.75446450298443
 30
0.0
 40
6.0
  0
LINE
  8
SIZE
  6
CONTINUOUS
 62
    30
 10
-243.25316963371731
 20
-55.0
 30
0.0
 11
-775.31542600000012
 21
-55.0
 31
0.0
  0
LINE
  8
SIZE
  6
CONTINUOUS
 62
    30
 10
-255.02739099999999
 20
0.0
 30
0.0
 11
-775.31542600000012
 21
0.0
 31
0.0
  0
LINE
  8
SIZE
  6
CONTINUOUS
 62
    30
 10
-255.02739099999999
 20
0.0
 30
0.0
 11
-775.31542600000012
 21
0.0
 31
0.0
  0
TEXT
  8
SIZE
  6
CONTINUOUS
 62
    30
 10
-781.85206500000004
 20
-187.37612942857149
 30
0.0
 40
64.0
  1
55
 50
90.0
 41
0.9
 72
     1
 11
-781.85206500000004
 21
-140.747558
 31
0.0
  0
LINE
  8
SIZE
  6
CONTINUOUS
 62
    30
 10
-755.31542600000012
 20
-25.0
 30
0.0
 11
-755.31542600000012
 21
-238.054337
 31
0.0
  0
CIRCLE
  8
SIZE
  6
CONTINUOUS
 62
    30
 10
-755.31542600000012
 20
-55.0
 30
0.0
 40
6.0
  0
LINE
  8
SIZE
  6
CONTINUOUS
 62
    30
 10
-755.31542600000012
 20
-55.0
 30
0.0
 11
-755.31542600000012
 21
-67.0
 31
0.0
  0
LINE
  8
SIZE
  6
CONTINUOUS
 62
    30
 10
-755.31542600000012
 20
0.0
 30
0.0
 11
-755.31542600000012
 21
-55.0
 31
0.0
  0
LINE
  8
SIZE
  6
CONTINUOUS
 62
    30
 10
-755.31542600000012
 20
0.0
 30
0.0
 11
-755.31542600000012
 21
-55.0
 31
0.0
  0
LINE
  8
SIZE
  6
CONTINUOUS
 62
    30
 10
-755.31542600000012
 20
-67.0
 30
0.0
 11
-755.31542600000012
 21
-79.0
 31
0.0
  0
LINE
  8
SIZE
  6
CONTINUOUS
 62
    30
 10
-205.0
 20
-40.961177705868067
 30
0.0
 11
-205.0
 21
-569.38722280203376
 31
0.0
  0
LINE
  8
SIZE
  6
CONTINUOUS
 62
    30
 10
-193.0
 20
245.8985237647104
 30
0.0
 11
-193.0
 21
690.94053840285414
 31
0.0
  0
CIRCLE
  8
SIZE
  6
CONTINUOUS
 62
    30
 10
-150.0
 20
-276.1832636950594
 30
0.0
 40
6.0
  0
LINE
  8
SIZE
  6
CONTINUOUS
 62
    30
 10
-150.0
 20
-40.961177705868067
 30
0.0
 11
-150.0
 21
-296.18326369505922
 31
0.0
  0
LINE
  8
SIZE
  6
CONTINUOUS
 62
    30
 10
-205.0
 20
-549.38722280203376
 30
0.0
 11
-193.0
 21
-549.38722280203376
 31
0.0
  0
CIRCLE
  8
SIZE
  6
CONTINUOUS
 62
    30
 10
-205.0
 20
-549.38722280203376
 30
0.0
 40
6.0
  0
LINE
  8
SIZE
  6
CONTINUOUS
 62
    30
 10
-193.0
 20
670.94053840285414
 30
0.0
 11
-181.0
 21
670.94053840285414
 31
0.0
  0
CIRCLE
  8
SIZE
  6
CONTINUOUS
 62
    30
 10
-193.0
 20
670.94053840285414
 30
0.0
 40
6.0
  0
LINE
  8
SIZE
  6
CONTINUOUS
 62
    30
 10
-150.0
 20
-276.1832636950594
 30
0.0
 11
-138.0
 21
-276.1832636950594
 31
0.0
  0
LINE
  8
NOTE
  6
CONTINUOUS
 62
     4
 10
-185.0
 20
0.0
 30
0.0
 11
-225.0
 21
0.0
 31
0.0
  0
LINE
  8
NOTE
  6
CONTINUOUS
 62
     4
 10
-130.0
 20
0.0
 30
0.0
 11
-170.0
 21
0.0
 31
0.0
  0
LINE
  8
SIZE
  6
CONTINUOUS
 62
    30
 10
-209.0
 20
248.0
 30
0.0
 11
-209.0
 21
838.91230251924571
 31
0.0
  0
LINE
  8
SIZE
  6
CONTINUOUS
 62
    30
 10
-35.499645999999977
 20
232.0
 30
0.0
 11
-775.31542600000012
 21
232.0
 31
0.0
  0
TEXT
  8
SIZE
  6
CONTINUOUS
 62
    30
 10
-781.85206500000004
 20
44.512503142857071
 30
0.0
 40
64.0
  1
232
 50
90.0
 41
0.9
 72
     1
 11
-781.85206500000004
 21
118.56964599999991
 31
0.0
  0
LINE
  8
SIZE
  6
CONTINUOUS
 62
    30
 10
-755.31542600000012
 20
12.0
 30
0.0
 11
-755.31542600000012
 21
220.0
 31
0.0
  0
LINE
  8
SIZE
  6
CONTINUOUS
 62
    30
 10
-755.31542600000012
 20
12.0
 30
0.0
 11
-755.31542600000012
 21
24.0
 31
0.0
  0
CIRCLE
  8
SIZE
  6
CONTINUOUS
 62
    30
 10
-755.31542600000012
 20
232.0
 30
0.0
 40
6.0
  0
LINE
  8
SIZE
  6
CONTINUOUS
 62
    30
 10
-755.31542600000012
 20
232.0
 30
0.0
 11
-755.31542600000012
 21
220.0
 31
0.0
  0
LINE
  8
DETAIL
  6
CONTINUOUS
 62
     5
 10
-204.0
 20
63.959362000000063
 30
0.0
 11
-204.0
 21
206.56245899999999
 31
0.0
  0
LINE
  8
DETAIL
  6
CONTINUOUS
 62
     5
 10
-202.49999999999989
 20
85.0
 30
0.0
 11
-202.49999999999989
 21
190.4006509999999
 31
0.0
  0
LINE
  8
DETAIL
  6
CONTINUOUS
 62
     5
 10
-188.0
 20
85.0
 30
0.0
 11
-188.0
 21
185.0
 31
0.0
  0
CIRCLE
  8
DETAIL
  6
CONTINUOUS
 62
     5
 10
-110.9999999999999
 20
135.0
 30
0.0
 40
76.0
  0
CIRCLE
  8
DETAIL
  6
CONTINUOUS
 62
     5
 10
-110.9999999999999
 20
135.0
 30
0.0
 40
72.0
  0
LINE
  8
DETAIL
  6
CONTINUOUS
 62
     5
 10
-34.0
 20
85.0
 30
0.0
 11
-34.0
 21
185.0
 31
0.0
  0
LINE
  8
DETAIL
  6
CONTINUOUS
 62
     5
 10
-18.5
 20
190.4006509999999
 30
0.0
 11
-18.5
 21
79.599348999999961
 31
0.0
  0
LINE
  8
BASIS
  6
DASHDOT
 62
     6
 10
-110.9999999999999
 20
26.692090000000011
 30
0.0
 11
-110.9999999999999
 21
261.98522400000002
 31
0.0
  0
LINE
  8
BASIS
  6
DASHDOT
 62
     6
 10
-3.9822689999999739
 20
135.0
 30
0.0
 11
-219.43466100000001
 21
135.0
 31
0.0
  0
LINE
  8
DETAIL
  6
CONTINUOUS
 62
     5
 10
-57.122900999999963
 20
137.04745299999979
 30
0.0
 11
-164.8770989999999
 21
137.04745299999979
 31
0.0
  0
TEXT
  8
NOTE
  6
CONTINUOUS
 62
     4
 10
-156.08182600000001
 20
90.983867000000032
 30
0.0
 40
64.0
  1
EA
 41
0.9
  0
LINE
  8
DETAIL
  6
CONTINUOUS
 62
     5
 10
-57.199241000000029
 20
43.0
 30
0.0
 11
-163.800759
 21
43.0
 31
0.0
  0
LINE
  8
DETAIL
  6
CONTINUOUS
 62
     5
 10
-158.0
 20
54.0
 30
0.0
 11
-64.0
 21
54.0
 31
0.0
  0
ARC
  8
DETAIL
  6
CONTINUOUS
 62
     5
 10
-157.13255852794771
 20
84.855588521340906
 30
0.0
 40
30.867779280436508
 50
179.73194707825061
 51
268.38967103027642
  0
LINE
  8
DETAIL
  6
CONTINUOUS
 62
     5
 10
-202.49999999999989
 20
85.0
 30
0.0
 11
-202.49999999999989
 21
79.599348999999961
 31
0.0
  0
LINE
  8
DETAIL
  6
CONTINUOUS
 62
     5
 10
-170.308673
 20
45.407433999999967
 30
0.0
 11
-199.0079139999998
 21
72.006783000000041
 31
0.0
  0
ARC
  8
DETAIL
  6
CONTINUOUS
 62
     5
 10
-189.0
 20
63.959362000000063
 30
0.0
 40
15.0
 50
180.0
 51
270.0
  0
LINE
  8
DETAIL
  6
CONTINUOUS
 62
     5
 10
-174.14100899999991
 20
48.959362000000063
 30
0.0
 11
-191.0
 21
48.959362000000063
 31
0.0
  0
LINE
  8
DETAIL
  6
CONTINUOUS
 62
     5
 10
-198.25
 20
52.150996321380489
 30
0.0
 11
-198.25
 21
7.0
 31
0.0
  0
LINE
  8
DETAIL
  6
CONTINUOUS
 62
     5
 10
-198.25
 20
7.0
 30
0.0
 11
-193.0
 21
7.0
 31
0.0
  0
LINE
  8
DETAIL
  6
CONTINUOUS
 62
     5
 10
-194.7499999999998
 20
50.105210997502581
 30
0.0
 11
-194.7499999999998
 21
7.0
 31
0.0
  0
ARC
  8
DETAIL
  6
CONTINUOUS
 62
     5
 10
-192.5
 20
79.599348999999961
 30
0.0
 40
10.0
 50
180.0
 51
229.39870499999969
  0
ARC
  8
DETAIL
  6
CONTINUOUS
 62
     5
 10
-163.800759
 20
53.0
 30
0.0
 40
10.0
 50
229.39870499999969
 51
270.0
  0
LINE
  8
DETAIL
  6
CONTINUOUS
 62
     5
 10
-182.82285999999999
 20
140.04745299999979
 30
0.0
 11
-166.523537
 21
140.04745299999979
 31
0.0
  0
LINE
  8
DETAIL
  6
CONTINUOUS
 62
     5
 10
-166.523537
 20
140.04745299999979
 30
0.0
 11
-164.8770989999999
 21
137.04745299999979
 31
0.0
  0
ARC
  8
DETAIL
  6
CONTINUOUS
 62
     5
 10
-64.867441472052406
 20
84.855588521340906
 30
0.0
 40
30.867779280436491
 50
271.61032896972358
 51
0.2680529217493575
  0
LINE
  8
DETAIL
  6
CONTINUOUS
 62
     5
 10
-50.691327000000001
 20
45.407433999999967
 30
0.0
 11
-21.992085999999968
 21
72.006783000000041
 31
0.0
  0
ARC
  8
DETAIL
  6
CONTINUOUS
 62
     5
 10
-28.5
 20
79.599348999999961
 30
0.0
 40
10.0
 50
310.60129500000028
 51
0.0
  0
ARC
  8
DETAIL
  6
CONTINUOUS
 62
     5
 10
-57.199241000000029
 20
53.0
 30
0.0
 40
10.0
 50
270.0
 51
310.60129500000028
  0
LINE
  8
DETAIL
  6
CONTINUOUS
 62
     5
 10
-55.476462999999967
 20
140.04745299999979
 30
0.0
 11
-57.122900999999963
 21
137.04745299999979
 31
0.0
  0
LINE
  8
DETAIL
  6
CONTINUOUS
 62
     5
 10
-39.177140000000009
 20
140.04745299999979
 30
0.0
 11
-55.476462999999967
 21
140.04745299999979
 31
0.0
  0
LINE
  8
DETAIL
  6
CONTINUOUS
 62
     5
 10
-12.0
 20
229.0
 30
0.0
 11
-186.0
 21
229.0
 31
0.0
  0
LINE
  8
DETAIL
  6
CONTINUOUS
 62
     5
 10
-57.199241000000029
 20
227.0
 30
0.0
 11
-163.800759
 21
227.0
 31
0.0
  0
LINE
  8
DETAIL
  6
CONTINUOUS
 62
     5
 10
-64.000001999999995
 20
215.0
 30
0.0
 11
-158.00000199999999
 21
215.0
 31
0.0
  0
ARC
  8
DETAIL
  6
CONTINUOUS
 62
     5
 10
-158.0
 20
185.0
 30
0.0
 40
30.0
 50
90.0
 51
180.0
  0
LINE
  8
DETAIL
  6
CONTINUOUS
 62
     5
 10
-170.308673
 20
224.59256600000001
 30
0.0
 11
-199.0079139999998
 21
197.99321699999999
 31
0.0
  0
CIRCLE
  8
FIX
  6
CONTINUOUS
 62
    11
 10
-209.0
 20
207.0
 30
0.0
 40
7.5
  0
LINE
  8
NOTE
  6
CONTINUOUS
 62
     4
 10
-189.0
 20
207.0
 30
0.0
 11
-229.0
 21
207.0
 31
0.0
  0
LINE
  8
NOTE
  6
CONTINUOUS
 62
     4
 10
-209.0
 20
188.0
 30
0.0
 11
-209.0
 21
228.0
 31
0.0
  0
LINE
  8
DETAIL
  6
CONTINUOUS
 62
     5
 10
-225.24999999999989
 20
203.5
 30
0.0
 11
-204.0
 21
203.5
 31
0.0
  0
LINE
  8
DETAIL
  6
CONTINUOUS
 62
     5
 10
-225.24999999999989
 20
207.0
 30
0.0
 11
-204.0
 21
207.0
 31
0.0
  0
LINE
  8
DETAIL
  6
CONTINUOUS
 62
     5
 10
-225.24999999999989
 20
207.0
 30
0.0
 11
-225.24999999999989
 21
203.5
 31
0.0
  0
ARC
  8
DETAIL
  6
CONTINUOUS
 62
     5
 10
-192.5
 20
190.4006509999999
 30
0.0
 40
10.0
 50
130.60129500000031
 51
180.0
  0
ARC
  8
DETAIL
  6
CONTINUOUS
 62
     5
 10
-181.2510568576827
 20
206.41396250219429
 30
0.0
 40
22.752709565107772
 50
96.939331022991354
 51
181.04249520025931
  0
ARC
  8
DETAIL
  6
CONTINUOUS
 62
     5
 10
-163.800759
 20
217.0
 30
0.0
 40
10.0
 50
90.0
 51
130.60129500000031
  0
ARC
  8
DETAIL
  6
CONTINUOUS
 62
     5
 10
-64.0
 20
185.0
 30
0.0
 40
30.0
 50
0.0
 51
90.0
  0
ARC
  8
DETAIL
  6
CONTINUOUS
 62
     5
 10
-15.499645999999981
 20
227.0
 30
0.0
 40
5.0
 50
90.0
 51
156.42182200000201
  0
LINE
  8
DETAIL
  6
CONTINUOUS
 62
     5
 10
-50.691327000000001
 20
224.59256600000001
 30
0.0
 11
-21.992085999999968
 21
197.99321699999999
 31
0.0
  0
ARC
  8
DETAIL
  6
CONTINUOUS
 62
     5
 10
-57.199241000000029
 20
217.0
 30
0.0
 40
10.0
 50
49.398704999999723
 51
90.0
  0
ARC
  8
DETAIL
  6
CONTINUOUS
 62
     5
 10
-28.5
 20
190.4006509999999
 30
0.0
 40
10.0
 50
0.0
 51
49.398704999999723
  0
CIRCLE
  8
SIZE
  6
CONTINUOUS
 62
    30
 10
-209.0
 20
818.91230251924571
 30
0.0
 40
6.0
  0
LINE
  8
SIZE
  6
CONTINUOUS
 62
    30
 10
-209.0
 20
818.91230251924571
 30
0.0
 11
-197.0
 21
818.91230251924571
 31
0.0
  0
LINE
  8
OUTLINE
  6
CONTINUOUS
 62
     3
 10
193.0
 20
0.0
 30
0.0
 11
193.0
 21
200.0
 31
0.0
  0
LINE
  8
SIZE
  6
CONTINUOUS
 62
    30
 10
571.43094299999984
 20
0.0
 30
0.0
 11
571.43094299999984
 21
12.0
 31
0.0
  0
CIRCLE
  8
SIZE
  6
CONTINUOUS
 62
    30
 10
571.43094299999984
 20
0.0
 30
0.0
 40
6.0
  0
LINE
  8
NOTE
  6
CONTINUOUS
 62
     4
 10
204.973287
 20
0.0766780000000153
 30
0.0
 11
229.675037
 21
-32.345961705868042
 31
0.0
  0
LINE
  8
NOTE
  6
CONTINUOUS
 62
     4
 10
210.63489799999999
 20
-40.48179970586807
 30
0.0
 11
204.973287
 21
0.0766780000000153
 31
0.0
  0
LINE
  8
NOTE
  6
CONTINUOUS
 62
     4
 10
204.974107
 20
0.0222559999999703
 30
0.0
 11
328.71917200000013
 21
-300.94586199999992
 31
0.0
  0
LINE
  8
NOTE
  6
CONTINUOUS
 62
     4
 10
205.0
 20
-20.0
 30
0.0
 11
205.0
 21
20.0
 31
0.0
  0
LINE
  8
NOTE
  6
CONTINUOUS
 62
     4
 10
150.0
 20
-20.0
 30
0.0
 11
150.0
 21
20.0
 31
0.0
  0
CIRCLE
  8
FIX
  6
CONTINUOUS
 62
    11
 10
150.0
 20
0.0
 30
0.0
 40
2.5
  0
CIRCLE
  8
FIX
  6
CONTINUOUS
 62
    11
 10
205.0
 20
0.0
 30
0.0
 40
2.5
  0
LINE
  8
DETAIL
  6
CONTINUOUS
 62
     5
 10
193.0
 20
0.0
 30
0.0
 11
193.0
 21
200.0
 31
0.0
  0
LINE
  8
SIZE
  6
CONTINUOUS
 62
    30
 10
234.97260899999989
 20
-20.0
 30
0.0
 11
234.97260899999989
 21
-701.75446450298443
 31
0.0
  0
LINE
  8
SIZE
  6
CONTINUOUS
 62
    30
 10
234.97260899999989
 20
-681.75446450298443
 30
0.0
 11
222.97260899999989
 21
-681.75446450298443
 31
0.0
  0
CIRCLE
  8
SIZE
  6
CONTINUOUS
 62
    30
 10
234.97260899999989
 20
-681.75446450298443
 30
0.0
 40
6.0
  0
LINE
  8
SIZE
  6
CONTINUOUS
 62
    30
 10
254.97260899999989
 20
0.0
 30
0.0
 11
591.43094299999984
 21
0.0
 31
0.0
  0
LINE
  8
NOTE
  6
CONTINUOUS
 62
     4
 10
719.57754100000011
 20
-300.94586199999992
 30
0.0
 11
328.71917200000013
 21
-300.94586199999992
 31
0.0
  0
TEXT
  8
NOTE
  6
CONTINUOUS
 62
     4
 10
356.06176099999988
 20
-267.98159099999998
 30
0.0
 40
64.0
  1
8-φ5×8
 41
0.9
  0
LINE
  8
SIZE
  6
CONTINUOUS
 62
    30
 10
205.0
 20
-40.961177705868067
 30
0.0
 11
205.0
 21
-569.38722280203376
 31
0.0
  0
LINE
  8
SIZE
  6
CONTINUOUS
 62
    30
 10
193.0
 20
215.8619938783477
 30
0.0
 11
193.0
 21
690.94053840285414
 31
0.0
  0
CIRCLE
  8
SIZE
  6
CONTINUOUS
 62
    30
 10
150.0
 20
-276.1832636950594
 30
0.0
 40
6.0
  0
LINE
  8
SIZE
  6
CONTINUOUS
 62
    30
 10
150.0
 20
-40.961177705868067
 30
0.0
 11
150.0
 21
-296.18326369505922
 31
0.0
  0
LINE
  8
SIZE
  6
CONTINUOUS
 62
    30
 10
205.0
 20
-549.38722280203376
 30
0.0
 11
193.0
 21
-549.38722280203376
 31
0.0
  0
CIRCLE
  8
SIZE
  6
CONTINUOUS
 62
    30
 10
205.0
 20
-549.38722280203376
 30
0.0
 40
6.0
  0
LINE
  8
SIZE
  6
CONTINUOUS
 62
    30
 10
193.0
 20
670.94053840285414
 30
0.0
 11
181.0
 21
670.94053840285414
 31
0.0
  0
CIRCLE
  8
SIZE
  6
CONTINUOUS
 62
    30
 10
193.0
 20
670.94053840285414
 30
0.0
 40
6.0
  0
LINE
  8
SIZE
  6
CONTINUOUS
 62
    30
 10
150.0
 20
-276.1832636950594
 30
0.0
 11
138.0
 21
-276.1832636950594
 31
0.0
  0
LINE
  8
NOTE
  6
CONTINUOUS
 62
     4
 10
130.0
 20
0.0
 30
0.0
 11
170.0
 21
0.0
 31
0.0
  0
LINE
  8
NOTE
  6
CONTINUOUS
 62
     4
 10
185.0
 20
0.0
 30
0.0
 11
225.0
 21
0.0
 31
0.0
  0
LINE
  8
SIZE
  6
CONTINUOUS
 62
    30
 10
571.43094299999984
 20
0.0
 30
0.0
 11
571.43094299999984
 21
-170.427154
 31
0.0
  0
TEXT
  8
SIZE
  6
CONTINUOUS
 62
    30
 10
548.30369399999995
 20
-159.25158457142859
 30
0.0
 40
64.0
  1
135
 50
90.0
 41
0.9
 72
     1
 11
548.30369399999995
 21
-90.680156000000011
 31
0.0
  0
LINE
  8
NOTE
  6
CONTINUOUS
 62
     4
 10
333.43255532873491
 20
267.03490378812899
 30
0.0
 11
587.03555692863119
 21
267.03490378812899
 31
0.0
  0
TEXT
  8
NOTE
  6
CONTINUOUS
 62
     4
 10
355.77742832873469
 20
296.99188578812903
 30
0.0
 40
64.0
  1
AH 4
 41
0.9
  0
LINE
  8
SIZE
  6
CONTINUOUS
 62
    30
 10
209.0
 20
248.0
 30
0.0
 11
209.0
 21
838.91230251924571
 31
0.0
  0
LINE
  8
NOTE
  6
CONTINUOUS
 62
     4
 10
209.0
 20
207.0
 30
0.0
 11
333.43255532873491
 21
267.03490378812899
 31
0.0
  0
LINE
  8
NOTE
  6
CONTINUOUS
 62
     4
 10
169.0
 20
200.0
 30
0.0
 11
325.06871632873481
 21
391.06927478812901
 31
0.0
  0
LINE
  8
SIZE
  6
CONTINUOUS
 62
    30
 10
16.51773100000003
 20
135.0
 30
0.0
 11
591.43094299999984
 21
135.0
 31
0.0
  0
LINE
  8
NOTE
  6
CONTINUOUS
 62
     4
 10
209.0
 20
207.0
 30
0.0
 11
239.72115800000009
 21
233.61660499999991
 31
0.0
  0
LINE
  8
NOTE
  6
CONTINUOUS
 62
     4
 10
248.41360599999959
 20
214.8240509999998
 30
0.0
 11
209.0
 21
207.0
 31
0.0
  0
LINE
  8
DETAIL
  6
CONTINUOUS
 62
     5
 10
194.7499999999998
 20
207.0
 30
0.0
 11
194.7499999999998
 21
7.0
 31
0.0
  0
LINE
  8
DETAIL
  6
CONTINUOUS
 62
     5
 10
198.25
 20
203.5
 30
0.0
 11
198.25
 21
7.0
 31
0.0
  0
LINE
  8
DETAIL
  6
CONTINUOUS
 62
     5
 10
198.25
 20
7.0
 30
0.0
 11
193.0
 21
7.0
 31
0.0
  0
ARC
  8
DETAIL
  6
CONTINUOUS
 62
     5
 10
72.5
 20
227.0
 30
0.0
 40
5.0
 50
0.0
 51
90.0
  0
LINE
  8
DETAIL
  6
CONTINUOUS
 62
     5
 10
77.5
 20
200.0
 30
0.0
 11
77.5
 21
227.0
 31
0.0
  0
LINE
  8
NOTE
  6
CONTINUOUS
 62
     4
 10
169.0
 20
200.0
 30
0.0
 11
201.40547363168429
 21
223.44963259176191
 31
0.0
  0
LINE
  8
NOTE
  6
CONTINUOUS
 62
     4
 10
185.33914712601089
 20
236.51071473326309
 30
0.0
 11
169.0
 21
200.0
 31
0.0
  0
LINE
  8
NOTE
  6
CONTINUOUS
 62
     4
 10
149.0
 20
200.0
 30
0.0
 11
188.9999999999998
 21
200.0
 31
0.0
  0
LINE
  8
NOTE
  6
CONTINUOUS
 62
     4
 10
169.0
 20
180.0
 30
0.0
 11
169.0
 21
220.0
 31
0.0
  0
CIRCLE
  8
FIX
  6
CONTINUOUS
 62
    11
 10
209.0
 20
207.0
 30
0.0
 40
7.5
  0
LINE
  8
NOTE
  6
CONTINUOUS
 62
     4
 10
189.0
 20
207.0
 30
0.0
 11
229.0
 21
207.0
 31
0.0
  0
LINE
  8
NOTE
  6
CONTINUOUS
 62
     4
 10
209.0
 20
188.0
 30
0.0
 11
209.0
 21
228.0
 31
0.0
  0
LINE
  8
DETAIL
  6
CONTINUOUS
 62
     5
 10
225.25
 20
207.0
 30
0.0
 11
225.25
 21
203.5
 31
0.0
  0
LINE
  8
DETAIL
  6
CONTINUOUS
 62
     5
 10
225.25
 20
207.0
 30
0.0
 11
193.0
 21
207.0
 31
0.0
  0
LINE
  8
DETAIL
  6
CONTINUOUS
 62
     5
 10
225.25
 20
203.5
 30
0.0
 11
198.25
 21
203.5
 31
0.0
  0
LINE
  8
DETAIL
  6
CONTINUOUS
 62
     5
 10
193.0
 20
200.0
 30
0.0
 11
193.0
 21
207.0
 31
0.0
  0
LINE
  8
SIZE
  6
CONTINUOUS
 62
    30
 10
571.43094299999984
 20
12.0
 30
0.0
 11
571.43094299999984
 21
123.0
 31
0.0
  0
LINE
  8
SIZE
  6
CONTINUOUS
 62
    30
 10
571.43094299999984
 20
135.0
 30
0.0
 11
571.43094299999984
 21
123.0
 31
0.0
  0
CIRCLE
  8
SIZE
  6
CONTINUOUS
 62
    30
 10
571.43094299999984
 20
135.0
 30
0.0
 40
6.0
  0
TEXT
  8
NOTE
  6
CONTINUOUS
 62
     4
 10
336.7250133287348
 20
418.02296078812918
 30
0.0
 40
64.0
  1
EL
 41
0.9
  0
LINE
  8
NOTE
  6
CONTINUOUS
 62
     4
 10
325.06871632873481
 20
391.06927478812901
 30
0.0
 11
437.84335816281327
 21
391.06927478812901
 31
0.0
  0
CIRCLE
  8
SIZE
  6
CONTINUOUS
 62
    30
 10
209.0
 20
818.91230251924571
 30
0.0
 40
6.0
  0
LINE
  8
SIZE
  6
CONTINUOUS
 62
    30
 10
209.0
 20
818.91230251924571
 30
0.0
 11
197.0
 21
818.91230251924571
 31
0.0
  0
TEXT
  8
ETC
  6
CONTINUOUS
 62
    61
 10
325.85145296577321
 20
832.91514588836981
 30
0.0
 40
64.0
  1
VD-23ZX13-FP_2
 41
0.9
  0
TEXT
  8
ETC
  6
CONTINUOUS
 62
    61
 10
321.66545896577281
 20
714.95983587353885
 30
0.0
 40
64.0
  1
換気扇
 41
0.9
  0
TEXT
  8
ETC
  6
CONTINUOUS
 62
    61
 10
372.27296161802951
 20
635.52416135495423
 30
0.0
 40
40.0
  1
VD-23ZX13-FP
 41
0.9
  0
LINE
  8
SIZE
  6
CONTINUOUS
 62
    30
 10
-110.9999999999999
 20
281.98522400000002
 30
0.0
 11
-110.9999999999999
 21
450.96664978154149
 31
0.0
  0
LINE
  8
SIZE
  6
CONTINUOUS
 62
    30
 10
0.0
 20
300.0
 30
0.0
 11
0.0
 21
450.96664978154149
 31
0.0
  0
LINE
  8
SIZE
  6
CONTINUOUS
 62
    30
 10
-12.0
 20
430.96664978154149
 30
0.0
 11
-98.999999999999886
 21
430.96664978154149
 31
0.0
  0
LINE
  8
SIZE
  6
CONTINUOUS
 62
    30
 10
-110.9999999999999
 20
430.96664978154149
 30
0.0
 11
-406.97405073617108
 21
430.96664978154149
 31
0.0
  0
CIRCLE
  8
SIZE
  6
CONTINUOUS
 62
    30
 10
0.0
 20
430.96664978154149
 30
0.0
 40
6.0
  0
LINE
  8
SIZE
  6
CONTINUOUS
 62
    30
 10
0.0
 20
430.96664978154149
 30
0.0
 11
-12.0
 21
430.96664978154149
 31
0.0
  0
CIRCLE
  8
SIZE
  6
CONTINUOUS
 62
    30
 10
-110.9999999999999
 20
430.96664978154149
 30
0.0
 40
6.0
  0
LINE
  8
SIZE
  6
CONTINUOUS
 62
    30
 10
-110.9999999999999
 20
430.96664978154149
 30
0.0
 11
-98.999999999999886
 21
430.96664978154149
 31
0.0
  0
TEXT
  8
SIZE
  6
CONTINUOUS
 62
    30
 10
-381.97405073617108
 20
455.96664978154149
 30
0.0
 40
64.0
  1
111
 41
0.9
 72
     1
 11
-331.23119359331389
 21
455.96664978154149
 31
0.0
  0
POINT
  8
DEFPOINTS
  6
CONTINUOUS
 62
    30
 10
-110.9999999999999
 20
261.98522400000002
 30
0.0
  0
POINT
  8
DEFPOINTS
  6
CONTINUOUS
 62
    30
 10
0.0
 20
280.0
 30
0.0
  0
POINT
  8
DEFPOINTS
  6
CONTINUOUS
 62
    30
 10
0.0
 20
430.96664978154149
 30
0.0
  0
LINE
  8
SIZE
  6
CONTINUOUS
 62
    30
 10
-255.0
 20
0.0
 30
0.0
 11
-514.41327241535964
 21
0.0
 31
0.0
  0
LINE
  8
SIZE
  6
CONTINUOUS
 62
    30
 10
-213.0
 20
49.502529705198299
 30
0.0
 11
-514.41327241535964
 21
49.502529705198299
 31
0.0
  0
LINE
  8
SIZE
  6
CONTINUOUS
 62
    30
 10
-494.41327241535959
 20
-12.0
 30
0.0
 11
-494.41327241535959
 21
-24.0
 31
0.0
  0
LINE
  8
SIZE
  6
CONTINUOUS
 62
    30
 10
-494.41327241535959
 20
61.502529705198299
 30
0.0
 11
-494.41327241535959
 21
216.75967256234119
 31
0.0
  0
LINE
  8
SIZE
  6
CONTINUOUS
 62
    30
 10
-494.41327241535959
 20
0.0
 30
0.0
 11
-494.41327241535959
 21
49.502529705198299
 31
0.0
  0
CIRCLE
  8
SIZE
  6
CONTINUOUS
 62
    30
 10
-494.41327241535959
 20
0.0
 30
0.0
 40
6.0
  0
LINE
  8
SIZE
  6
CONTINUOUS
 62
    30
 10
-494.41327241535959
 20
0.0
 30
0.0
 11
-494.41327241535959
 21
-12.0
 31
0.0
  0
CIRCLE
  8
SIZE
  6
CONTINUOUS
 62
    30
 10
-494.41327241535959
 20
49.502529705198299
 30
0.0
 40
6.0
  0
LINE
  8
SIZE
  6
CONTINUOUS
 62
    30
 10
-494.41327241535959
 20
49.502529705198299
 30
0.0
 11
-494.41327241535959
 21
61.502529705198299
 31
0.0
  0
TEXT
  8
SIZE
  6
CONTINUOUS
 62
    30
 10
-519.41327241535964
 20
98.502529705198256
 30
0.0
 40
64.0
  1
50
 50
90.0
 41
0.9
 72
     1
 11
-519.41327241535964
 21
145.1311011337697
 31
0.0
  0
POINT
  8
DEFPOINTS
  6
CONTINUOUS
 62
    30
 10
-235.0
 20
0.0
 30
0.0
  0
POINT
  8
DEFPOINTS
  6
CONTINUOUS
 62
    30
 10
-193.0
 20
49.502529705198299
 30
0.0
  0
POINT
  8
DEFPOINTS
  6
CONTINUOUS
 62
    30
 10
-494.41327241535959
 20
49.502529705198299
 30
0.0
  0
LINE
  8
SIZE
  6
CONTINUOUS
 62
    30
 10
-255.02739099999999
 20
0.0
 30
0.0
 11
-624.76236051747492
 21
0.0
 31
0.0
  0
LINE
  8
SIZE
  6
CONTINUOUS
 62
    30
 10
-180.80523546675931
 20
54.1314437246117
 30
0.0
 11
-624.76236051747492
 21
54.131443724611813
 31
0.0
  0
LINE
  8
SIZE
  6
CONTINUOUS
 62
    30
 10
-604.76236051747492
 20
-12.0
 30
0.0
 11
-604.76236051747492
 21
-24.0
 31
0.0
  0
LINE
  8
SIZE
  6
CONTINUOUS
 62
    30
 10
-604.76236051747492
 20
66.131443724611813
 30
0.0
 11
-604.76236051747492
 21
224.13144372461181
 31
0.0
  0
LINE
  8
SIZE
  6
CONTINUOUS
 62
    30
 10
-604.76236051747492
 20
0.0
 30
0.0
 11
-604.76236051747492
 21
54.131443724611813
 31
0.0
  0
CIRCLE
  8
SIZE
  6
CONTINUOUS
 62
    30
 10
-604.76236051747492
 20
0.0
 30
0.0
 40
6.0
  0
LINE
  8
SIZE
  6
CONTINUOUS
 62
    30
 10
-604.76236051747492
 20
0.0
 30
0.0
 11
-604.76236051747492
 21
-12.0
 31
0.0
  0
CIRCLE
  8
SIZE
  6
CONTINUOUS
 62
    30
 10
-604.76236051747492
 20
54.131443724611813
 30
0.0
 40
6.0
  0
LINE
  8
SIZE
  6
CONTINUOUS
 62
    30
 10
-604.76236051747492
 20
54.131443724611813
 30
0.0
 11
-604.76236051747492
 21
66.131443724611813
 31
0.0
  0
TEXT
  8
SIZE
  6
CONTINUOUS
 62
    30
 10
-629.76236051747492
 20
103.1314437246118
 30
0.0
 40
64.0
  1
54
 50
90.0
 41
0.9
 72
     1
 11
-629.76236051747492
 21
151.13144372461181
 31
0.0
  0
POINT
  8
DEFPOINTS
  6
CONTINUOUS
 62
    30
 10
-235.02739099999999
 20
0.0
 30
0.0
  0
POINT
  8
DEFPOINTS
  6
CONTINUOUS
 62
    30
 10
-160.80523546675931
 20
54.1314437246117
 30
0.0
  0
POINT
  8
DEFPOINTS
  6
CONTINUOUS
 62
    30
 10
-604.76236051747492
 20
54.131443724611813
 30
0.0
  0
LINE
  8
SIZE
  6
CONTINUOUS
 62
    30
 10
245.25
 20
207.0
 30
0.0
 11
733.86354915381889
 21
206.99999999999989
 31
0.0
  0
LINE
  8
SIZE
  6
CONTINUOUS
 62
    30
 10
255.0
 20
0.0
 30
0.0
 11
733.86354915381889
 21
-0.0000000000001137
 31
0.0
  0
LINE
  8
SIZE
  6
CONTINUOUS
 62
    30
 10
713.86354915381889
 20
194.99999999999989
 30
0.0
 11
713.86354915381889
 21
11.99999999999989
 31
0.0
  0
CIRCLE
  8
SIZE
  6
CONTINUOUS
 62
    30
 10
713.86354915381889
 20
206.99999999999989
 30
0.0
 40
6.0
  0
LINE
  8
SIZE
  6
CONTINUOUS
 62
    30
 10
713.86354915381889
 20
206.99999999999989
 30
0.0
 11
713.86354915381889
 21
194.99999999999989
 31
0.0
  0
CIRCLE
  8
SIZE
  6
CONTINUOUS
 62
    30
 10
713.86354915381889
 20
-0.0000000000001137
 30
0.0
 40
6.0
  0
LINE
  8
SIZE
  6
CONTINUOUS
 62
    30
 10
713.86354915381889
 20
-0.0000000000001137
 30
0.0
 11
713.86354915381889
 21
11.99999999999989
 31
0.0
  0
TEXT
  8
SIZE
  6
CONTINUOUS
 62
    30
 10
688.86354915381889
 20
29.44285714285704
 30
0.0
 40
64.0
  1
207
 50
90.0
 41
0.9
 72
     1
 11
688.86354915381889
 21
103.4999999999999
 31
0.0
  0
POINT
  8
DEFPOINTS
  6
CONTINUOUS
 62
    30
 10
225.25
 20
207.0
 30
0.0
  0
POINT
  8
DEFPOINTS
  6
CONTINUOUS
 62
    30
 10
235.0
 20
0.0
 30
0.0
  0
POINT
  8
DEFPOINTS
  6
CONTINUOUS
 62
    30
 10
713.86354915381889
 20
-0.0000000000001137
 30
0.0
  0
LINE
  8
SIZE
  6
CONTINUOUS
 62
    30
 10
-193.0
 20
245.8985237647104
 30
0.0
 11
-193.0
 21
690.94053840285414
 31
0.0
  0
LINE
  8
SIZE
  6
CONTINUOUS
 62
    30
 10
-204.0
 20
227.0
 30
0.0
 11
-204.0
 21
690.94053840285414
 31
0.0
  0
LINE
  8
SIZE
  6
CONTINUOUS
 62
    30
 10
-181.0
 20
670.94053840285414
 30
0.0
 11
-169.0
 21
670.94053840285414
 31
0.0
  0
LINE
  8
SIZE
  6
CONTINUOUS
 62
    30
 10
-216.0
 20
670.94053840285414
 30
0.0
 11
-346.43122958271101
 21
670.94053840285414
 31
0.0
  0
LINE
  8
SIZE
  6
CONTINUOUS
 62
    30
 10
-193.0
 20
670.94053840285414
 30
0.0
 11
-204.0
 21
670.94053840285414
 31
0.0
  0
CIRCLE
  8
SIZE
  6
CONTINUOUS
 62
    30
 10
-193.0
 20
670.94053840285414
 30
0.0
 40
6.0
  0
LINE
  8
SIZE
  6
CONTINUOUS
 62
    30
 10
-193.0
 20
670.94053840285414
 30
0.0
 11
-181.0
 21
670.94053840285414
 31
0.0
  0
CIRCLE
  8
SIZE
  6
CONTINUOUS
 62
    30
 10
-204.0
 20
670.94053840285414
 30
0.0
 40
6.0
  0
LINE
  8
SIZE
  6
CONTINUOUS
 62
    30
 10
-204.0
 20
670.94053840285414
 30
0.0
 11
-216.0
 21
670.94053840285414
 31
0.0
  0
TEXT
  8
SIZE
  6
CONTINUOUS
 62
    30
 10
-321.43122958271118
 20
695.94053840285414
 30
0.0
 40
64.0
  1
11
 41
0.9
 72
     1
 11
-292.63122958271123
 21
695.94053840285414
 31
0.0
  0
POINT
  8
DEFPOINTS
  6
CONTINUOUS
 62
    30
 10
-193.0
 20
225.8985237647104
 30
0.0
  0
POINT
  8
DEFPOINTS
  6
CONTINUOUS
 62
    30
 10
-204.0
 20
207.0
 30
0.0
  0
POINT
  8
DEFPOINTS
  6
CONTINUOUS
 62
    30
 10
-204.0
 20
670.94053840285414
 30
0.0
  0
LINE
  8
DETAIL
  6
CONTINUOUS
 62
     5
 10
196.0
 20
8.0
 30
0.0
 11
196.0
 21
28.0
 31
0.0
  0
LINE
  8
DETAIL
  6
CONTINUOUS
 62
     5
 10
193.0
 20
8.0
 30
0.0
 11
196.0
 21
8.0
 31
0.0
  0
LINE
  8
DETAIL
  6
CONTINUOUS
 62
     5
 10
193.0
 20
28.0
 30
0.0
 11
196.0
 21
28.0
 31
0.0
  0
LINE
  8
DETAIL
  6
CONTINUOUS
 62
     5
 10
-196.0
 20
8.0
 30
0.0
 11
-196.0
 21
28.0
 31
0.0
  0
LINE
  8
DETAIL
  6
CONTINUOUS
 62
     5
 10
-193.0
 20
8.0
 30
0.0
 11
-196.0
 21
8.0
 31
0.0
  0
LINE
  8
DETAIL
  6
CONTINUOUS
 62
     5
 10
-193.0
 20
28.0
 30
0.0
 11
-196.0
 21
28.0
 31
0.0
  0
LINE
  8
SIZE
  6
CONTINUOUS
 62
    30
 10
-196.0
 20
-12.0
 30
0.0
 11
-196.0
 21
-436.62216159194088
 31
0.0
  0
LINE
  8
SIZE
  6
CONTINUOUS
 62
    30
 10
196.0
 20
-12.0
 30
0.0
 11
196.0
 21
-436.62216159194088
 31
0.0
  0
LINE
  8
SIZE
  6
CONTINUOUS
 62
    30
 10
-184.0
 20
-416.62216159194088
 30
0.0
 11
184.0
 21
-416.62216159194088
 31
0.0
  0
CIRCLE
  8
SIZE
  6
CONTINUOUS
 62
    30
 10
-196.0
 20
-416.62216159194088
 30
0.0
 40
6.0
  0
LINE
  8
SIZE
  6
CONTINUOUS
 62
    30
 10
-196.0
 20
-416.62216159194088
 30
0.0
 11
-184.0
 21
-416.62216159194088
 31
0.0
  0
CIRCLE
  8
SIZE
  6
CONTINUOUS
 62
    30
 10
196.0
 20
-416.62216159194088
 30
0.0
 40
6.0
  0
LINE
  8
SIZE
  6
CONTINUOUS
 62
    30
 10
196.0
 20
-416.62216159194088
 30
0.0
 11
184.0
 21
-416.62216159194088
 31
0.0
  0
TEXT
  8
SIZE
  6
CONTINUOUS
 62
    30
 10
-74.05714285714285
 20
-391.62216159194088
 30
0.0
 40
64.0
  1
392
 41
0.9
 72
     1
 11
0.0
 21
-391.62216159194088
 31
0.0
  0
POINT
  8
DEFPOINTS
  6
CONTINUOUS
 62
    30
 10
-196.0
 20
8.0
 30
0.0
  0
POINT
  8
DEFPOINTS
  6
CONTINUOUS
 62
    30
 10
196.0
 20
8.0
 30
0.0
  0
POINT
  8
DEFPOINTS
  6
CONTINUOUS
 62
    30
 10
196.0
 20
-416.62216159194088
 30
0.0
  0
LINE
  8
SIZE
  6
CONTINUOUS
 62
    30
 10
-20.08222169495582
 20
249.0
 30
0.0
 11
-20.08222169495582
 21
545.24210862884411
 31
0.0
  0
LINE
  8
SIZE
  6
CONTINUOUS
 62
    30
 10
77.5
 20
247.0
 30
0.0
 11
77.5
 21
545.24210862884411
 31
0.0
  0
LINE
  8
SIZE
  6
CONTINUOUS
 62
    30
 10
-8.0822216949558197
 20
525.24210862884411
 30
0.0
 11
65.5
 21
525.24210862884411
 31
0.0
  0
CIRCLE
  8
SIZE
  6
CONTINUOUS
 62
    30
 10
-20.08222169495582
 20
525.24210862884411
 30
0.0
 40
6.0
  0
LINE
  8
SIZE
  6
CONTINUOUS
 62
    30
 10
-20.08222169495582
 20
525.24210862884411
 30
0.0
 11
-8.0822216949558197
 21
525.24210862884411
 31
0.0
  0
CIRCLE
  8
SIZE
  6
CONTINUOUS
 62
    30
 10
77.5
 20
525.24210862884411
 30
0.0
 40
6.0
  0
LINE
  8
SIZE
  6
CONTINUOUS
 62
    30
 10
77.5
 20
525.24210862884411
 30
0.0
 11
65.5
 21
525.24210862884411
 31
0.0
  0
TEXT
  8
SIZE
  6
CONTINUOUS
 62
    30
 10
-48.09111084747785
 20
560.90877529551062
 30
0.0
 40
64.0
  1
φ98
 41
0.9
 72
     1
 11
28.708889152522151
 21
560.90877529551062
 31
0.0
  0
POINT
  8
DEFPOINTS
  6
CONTINUOUS
 62
    30
 10
-20.08222169495582
 20
229.0
 30
0.0
  0
POINT
  8
DEFPOINTS
  6
CONTINUOUS
 62
    30
 10
77.5
 20
227.0
 30
0.0
  0
POINT
  8
DEFPOINTS
  6
CONTINUOUS
 62
    30
 10
77.5
 20
525.24210862884411
 30
0.0
  0
LINE
  8
SIZE
  6
CONTINUOUS
 62
    30
 10
-769.54143456708971
 20
304.87945143003901
 30
0.0
 11
-192.33728882155731
 21
155.98202676479451
 31
0.0
  0
LINE
  8
SIZE
  6
CONTINUOUS
 62
    30
 10
-29.662711178442461
 20
114.0179732352055
 30
0.0
 11
-18.043098489648631
 21
111.0205408402348
 31
0.0
  0
TEXT
  8
SIZE
  6
CONTINUOUS
 62
    30
 10
-743.07312451683345
 20
323.87001814901788
 30
0.0
 40
64.0
  1
φ144
 50
345.53514891818111
 41
0.9
 72
     1
 11
-646.13235579889567
 21
298.86286788240568
 31
0.0
  0
LINE
  8
SIZE
  6
CONTINUOUS
 62
    30
 10
-41.282323867236407
 20
117.0154056301761
 30
0.0
 11
-180.71767613276339
 21
152.98459436982381
 31
0.0
  0
CIRCLE
  8
SIZE
  6
CONTINUOUS
 62
    30
 10
-41.282323867236407
 20
117.0154056301761
 30
0.0
 40
6.0
  0
LINE
  8
SIZE
  6
CONTINUOUS
 62
    30
 10
-41.282323867236407
 20
117.0154056301761
 30
0.0
 11
-29.662711178442461
 21
114.0179732352054
 31
0.0
  0
CIRCLE
  8
SIZE
  6
CONTINUOUS
 62
    30
 10
-180.71767613276339
 20
152.98459436982381
 30
0.0
 40
6.0
  0
LINE
  8
SIZE
  6
CONTINUOUS
 62
    30
 10
-180.71767613276339
 20
152.98459436982381
 30
0.0
 11
-192.33728882155719
 21
155.98202676479451
 31
0.0
  0
POINT
  8
DEFPOINTS
  6
CONTINUOUS
 62
    30
 10
-180.71767613276339
 20
152.98459436982381
 30
0.0
  0
POINT
  8
DEFPOINTS
  6
CONTINUOUS
 62
    30
 10
-41.282323867236407
 20
117.0154056301761
 30
0.0
  0
LINE
  8
SIZE
  6
CONTINUOUS
 62
    30
 10
-624.00139733741992
 20
402.41044314941041
 30
0.0
 11
-189.03458631959961
 21
175.67681572995781
 31
0.0
  0
LINE
  8
SIZE
  6
CONTINUOUS
 62
    30
 10
-32.965413680400161
 20
94.323184270042248
 30
0.0
 11
-22.324333727727549
 21
88.776345761411676
 31
0.0
  0
TEXT
  8
SIZE
  6
CONTINUOUS
 62
    30
 10
-593.92493747919264
 20
414.92521936079061
 30
0.0
 40
64.0
  1
φ152
 50
332.46847807798417
 41
0.9
 72
     1
 11
-506.36405101148603
 21
369.28266248977297
 31
0.0
  0
LINE
  8
SIZE
  6
CONTINUOUS
 62
    30
 10
-43.606493633072887
 20
99.870022778672819
 30
0.0
 11
-178.39350636692691
 21
170.1299772213271
 31
0.0
  0
CIRCLE
  8
SIZE
  6
CONTINUOUS
 62
    30
 10
-43.606493633072887
 20
99.870022778672819
 30
0.0
 40
6.0
  0
LINE
  8
SIZE
  6
CONTINUOUS
 62
    30
 10
-43.606493633072887
 20
99.870022778672819
 30
0.0
 11
-32.965413680400161
 21
94.323184270042248
 31
0.0
  0
CIRCLE
  8
SIZE
  6
CONTINUOUS
 62
    30
 10
-178.39350636692691
 20
170.1299772213271
 30
0.0
 40
6.0
  0
LINE
  8
SIZE
  6
CONTINUOUS
 62
    30
 10
-178.39350636692691
 20
170.1299772213271
 30
0.0
 11
-189.03458631959961
 21
175.67681572995781
 31
0.0
  0
POINT
  8
DEFPOINTS
  6
CONTINUOUS
 62
    30
 10
-178.39350636692691
 20
170.1299772213271
 30
0.0
  0
POINT
  8
DEFPOINTS
  6
CONTINUOUS
 62
    30
 10
-43.606493633072887
 20
99.870022778672819
 30
0.0
  0
LINE
  8
OUTLINE
  6
CONTINUOUS
 62
     3
 10
-234.9999999999998
 20
0.0
 30
0.0
 11
235.0
 21
0.0
 31
0.0
  0
LINE
  8
DETAIL
  6
CONTINUOUS
 62
     5
 10
-233.7309178144933
 20
-55.0
 30
0.0
 11
233.73108475602751
 21
-55.0
 31
0.0
  0
ARC
  8
DETAIL
  6
CONTINUOUS
 62
     5
 10
-233.7309178144933
 20
-53.99980000000005
 30
0.0
 40
1.00019999999991
 50
182.99999999753999
 51
270.0
  0
LINE
  8
DETAIL
  6
CONTINUOUS
 62
     5
 10
-181.97233042058181
 20
-32.786497470833638
 30
0.0
 11
-181.60448190411259
 21
-32.786497470833638
 31
0.0
  0
LINE
  8
DETAIL
  6
CONTINUOUS
 62
     5
 10
-181.9461289715864
 20
-35.788886127907062
 30
0.0
 11
-181.60448190411259
 21
-35.788886127907062
 31
0.0
  0
LINE
  8
DETAIL
  6
CONTINUOUS
 62
     5
 10
-180.80384492889431
 20
-47.197963024781529
 30
0.0
 11
-180.80384492889431
 21
-28.082755241419822
 31
0.0
  0
LINE
  8
DETAIL
  6
CONTINUOUS
 62
     5
 10
-180.80384492889431
 20
-28.082755241419822
 30
0.0
 11
-181.60448190411259
 21
-28.082755241419822
 31
0.0
  0
LINE
  8
DETAIL
  6
CONTINUOUS
 62
     5
 10
-181.60448190411259
 20
-47.197963024781529
 30
0.0
 11
-181.60448190411259
 21
-28.082755241419822
 31
0.0
  0
ARC
  8
DETAIL
  6
CONTINUOUS
 62
     5
 10
-180.00320795367409
 20
-47.197963024781529
 30
0.0
 40
0.8006369752194481
 50
180.0
 51
269.39604809250989
  0
ARC
  8
DETAIL
  6
CONTINUOUS
 62
     5
 10
-180.00320795367409
 20
-47.197963024781529
 30
0.0
 40
1.6012739504384279
 50
180.0
 51
210.01911603939229
  0
LINE
  8
DETAIL
  6
CONTINUOUS
 62
     5
 10
-179.60288946606309
 20
-35.788886127907062
 30
0.0
 11
-177.4011377842107
 21
-35.788886127907062
 31
0.0
  0
LINE
  8
DETAIL
  6
CONTINUOUS
 62
     5
 10
-179.60288946606309
 20
-32.786497470833638
 30
0.0
 11
-177.4011377842107
 21
-32.786497470833638
 31
0.0
  0
ARC
  8
DETAIL
  6
CONTINUOUS
 62
     5
 10
-180.00320795367409
 20
-31.085143898493239
 30
0.0
 40
0.8006369752194481
 50
180.0
 51
270.0
  0
LINE
  8
DETAIL
  6
CONTINUOUS
 62
     5
 10
-179.60288946606309
 20
-31.88578087371161
 30
0.0
 11
-180.00320795367409
 21
-31.88578087371161
 31
0.0
  0
LINE
  8
DETAIL
  6
CONTINUOUS
 62
     5
 10
-179.60288946606309
 20
-36.689537255940188
 30
0.0
 11
-179.60288946606309
 21
-31.8858463422971
 31
0.0
  0
LINE
  8
DETAIL
  6
CONTINUOUS
 62
     5
 10
-179.60288946606309
 20
-36.689602725026823
 30
0.0
 11
-180.00320795367409
 21
-36.689602725026823
 31
0.0
  0
ARC
  8
DETAIL
  6
CONTINUOUS
 62
     5
 10
-180.00320795367409
 20
-37.490239700246548
 30
0.0
 40
0.8006369752196582
 50
90.0
 51
180.0
  0
LINE
  8
DETAIL
  6
CONTINUOUS
 62
     5
 10
-177.4011377842107
 20
-32.786497470833638
 30
0.0
 11
-177.4011377842107
 21
-35.788886127907062
 31
0.0
  0
ARC
  8
DETAIL
  6
CONTINUOUS
 62
     5
 10
-183.26335769774599
 20
-10.308201055947389
 30
0.0
 40
0.30023886570672
 50
90.0
 51
179.00000000001131
  0
LINE
  8
DETAIL
  6
CONTINUOUS
 62
     5
 10
-183.16597824605921
 20
-10.00796219024096
 30
0.0
 11
-183.56442473750761
 21
-10.353026973490159
 31
0.0
  0
LINE
  8
DETAIL
  6
CONTINUOUS
 62
     5
 10
-182.58816827929149
 20
-10.00796219024096
 30
0.0
 11
-183.57329328059129
 21
-10.8611054666535
 31
0.0
  0
ARC
  8
DETAIL
  6
CONTINUOUS
 62
     5
 10
-185.0460512935351
 20
-13.510748956823591
 30
0.0
 40
2.00159243804847
 50
358.89829388474681
 51
43.505196684255488
  0
LINE
  8
DETAIL
  6
CONTINUOUS
 62
     5
 10
-183.29428782781179
 20
-27.482277510006501
 30
0.0
 11
-183.0448288698652
 21
-13.5492340029723
 31
0.0
  0
LINE
  8
DETAIL
  6
CONTINUOUS
 62
     5
 10
-202.22088401600919
 20
-47.969993454545147
 30
0.0
 11
-202.22088401600919
 21
-47.998599999999897
 31
0.0
  0
LINE
  8
DETAIL
  6
CONTINUOUS
 62
     5
 10
-234.44531221738541
 20
-54.087717217754737
 30
0.0
 11
-234.44309667273049
 21
-54.085521095050808
 31
0.0
  0
ARC
  8
DETAIL
  6
CONTINUOUS
 62
     5
 10
-234.51969041760819
 20
-0.5003981095105701
 30
0.0
 40
0.500398109511198
 50
90.0
 51
177.00000000003351
  0
LINE
  8
DETAIL
  6
CONTINUOUS
 62
     5
 10
-235.01940274852399
 20
-0.4742092955693806
 30
0.0
 11
-235.04699999999869
 21
-1.0007962190229589
 31
0.0
  0
ARC
  8
DETAIL
  6
CONTINUOUS
 62
     5
 10
-233.90629962775071
 20
-9.007165971215727
 30
0.0
 40
1.0007962190236199
 50
180.9999999999757
 51
270.0
  0
LINE
  8
DETAIL
  6
CONTINUOUS
 62
     5
 10
-235.04699999999869
 20
-1.0007962190229589
 30
0.0
 11
-234.90694342050651
 21
-9.0246322731532018
 31
0.0
  0
ARC
  8
DETAIL
  6
CONTINUOUS
 62
     5
 10
-202.76375990422821
 20
-10.308201055947389
 30
0.0
 40
0.300238865707122
 50
0.9999999999822377
 51
90.0
  0
LINE
  8
DETAIL
  6
CONTINUOUS
 62
     5
 10
0.0
 20
-10.00796219024096
 30
0.0
 11
-233.90629962775071
 21
-10.00796219024096
 31
0.0
  0
LINE
  8
DETAIL
  6
CONTINUOUS
 62
     5
 10
-202.46356676640059
 20
-10.302961165165931
 30
0.0
 11
-201.82236436252609
 21
-47.998599999999897
 31
0.0
  0
ARC
  8
DETAIL
  6
CONTINUOUS
 62
     5
 10
-201.22008779698541
 20
-47.969993454545147
 30
0.0
 40
1.0007962190241539
 50
160.5462185838864
 51
180.0
  0
LINE
  8
DETAIL
  6
CONTINUOUS
 62
     5
 10
-201.84446034827221
 20
-46.732721801079613
 30
0.0
 11
-202.16374901522701
 21
-47.636681923203007
 31
0.0
  0
LINE
  8
DETAIL
  6
CONTINUOUS
 62
     5
 10
-235.01940274852399
 20
-48.525186922954163
 30
0.0
 11
-234.7297470751582
 21
-54.052146423391598
 31
0.0
  0
ARC
  8
DETAIL
  6
CONTINUOUS
 62
     5
 10
-234.51969041760819
 20
-48.498998109512293
 30
0.0
 40
0.50039810951205
 50
90.0
 51
183.00000000007739
  0
LINE
  8
DETAIL
  6
CONTINUOUS
 62
     5
 10
-234.51969041760819
 20
-47.998599999999897
 30
0.0
 11
0.0
 21
-47.998599999999897
 31
0.0
  0
LINE
  8
DETAIL
  6
CONTINUOUS
 62
     5
 10
-183.5635508355717
 20
-10.302961165165931
 30
0.0
 11
-184.20475323944811
 21
-47.998599999999897
 31
0.0
  0
LINE
  8
DETAIL
  6
CONTINUOUS
 62
     5
 10
-183.29428782781179
 20
-27.482277510006501
 30
0.0
 11
-183.0448288698652
 21
-13.5492340029723
 31
0.0
  0
LINE
  8
DETAIL
  6
CONTINUOUS
 62
     5
 10
-183.5635508355717
 20
-10.302961165165931
 30
0.0
 11
-184.20475323944811
 21
-47.998599999999897
 31
0.0
  0
ARC
  8
DETAIL
  6
CONTINUOUS
 62
     5
 10
-185.0460512935351
 20
-13.510748956823591
 30
0.0
 40
2.00159243804847
 50
358.89829388474681
 51
43.505196684255488
  0
LINE
  8
DETAIL
  6
CONTINUOUS
 62
     5
 10
-183.84663949832611
 20
-27.482277510006501
 30
0.0
 11
-182.3162498003758
 21
-27.482277510006501
 31
0.0
  0
LINE
  8
DETAIL
  6
CONTINUOUS
 62
     5
 10
-182.01602236676351
 20
-27.779896330243449
 30
0.0
 11
-181.8395764129109
 21
-47.998599999999897
 31
0.0
  0
ARC
  8
DETAIL
  6
CONTINUOUS
 62
     5
 10
-182.3162498003758
 20
-27.78251637571293
 30
0.0
 40
0.300238865707128
 50
0.4999999999264113
 51
90.0
  0
LINE
  8
DETAIL
  6
CONTINUOUS
 62
     5
 10
0.0
 20
0.0
 30
0.0
 11
-234.51969041760819
 21
0.0
 31
0.0
  0
ARC
  8
DETAIL
  6
CONTINUOUS
 62
     5
 10
233.7309178144933
 20
-53.99980000000005
 30
0.0
 40
1.00019999999991
 50
270.0
 51
357.00000000246001
  0
LINE
  8
DETAIL
  6
CONTINUOUS
 62
     5
 10
181.97233042058181
 20
-32.786497470833638
 30
0.0
 11
181.60448190411259
 21
-32.786497470833638
 31
0.0
  0
LINE
  8
DETAIL
  6
CONTINUOUS
 62
     5
 10
181.94612897158549
 20
-35.788886127907062
 30
0.0
 11
181.60448190411259
 21
-35.788886127907062
 31
0.0
  0
LINE
  8
DETAIL
  6
CONTINUOUS
 62
     5
 10
180.80384492889431
 20
-47.197963024781529
 30
0.0
 11
180.80384492889431
 21
-28.082755241419822
 31
0.0
  0
LINE
  8
DETAIL
  6
CONTINUOUS
 62
     5
 10
180.80384492889431
 20
-28.082755241419822
 30
0.0
 11
181.60448190411259
 21
-28.082755241419822
 31
0.0
  0
LINE
  8
DETAIL
  6
CONTINUOUS
 62
     5
 10
181.60448190411259
 20
-47.197963024781529
 30
0.0
 11
181.60448190411259
 21
-28.082755241419822
 31
0.0
  0
ARC
  8
DETAIL
  6
CONTINUOUS
 62
     5
 10
180.00320795367409
 20
-47.197963024781529
 30
0.0
 40
0.8006369752194481
 50
270.60395190749011
 51
0.0
  0
ARC
  8
DETAIL
  6
CONTINUOUS
 62
     5
 10
180.00320795367409
 20
-47.197963024781529
 30
0.0
 40
1.6012739504384279
 50
329.98088396060763
 51
0.0
  0
LINE
  8
DETAIL
  6
CONTINUOUS
 62
     5
 10
179.60288946606309
 20
-35.788886127907062
 30
0.0
 11
177.4011377842107
 21
-35.788886127907062
 31
0.0
  0
LINE
  8
DETAIL
  6
CONTINUOUS
 62
     5
 10
179.60288946606309
 20
-32.786497470833638
 30
0.0
 11
177.4011377842107
 21
-32.786497470833638
 31
0.0
  0
ARC
  8
DETAIL
  6
CONTINUOUS
 62
     5
 10
180.00320795367409
 20
-31.085143898493239
 30
0.0
 40
0.8006369752194481
 50
270.0
 51
0.0
  0
LINE
  8
DETAIL
  6
CONTINUOUS
 62
     5
 10
179.60288946606309
 20
-31.88578087371161
 30
0.0
 11
180.00320795367409
 21
-31.88578087371161
 31
0.0
  0
LINE
  8
DETAIL
  6
CONTINUOUS
 62
     5
 10
179.60288946606309
 20
-36.689537255940188
 30
0.0
 11
179.60288946606309
 21
-31.8858463422971
 31
0.0
  0
LINE
  8
DETAIL
  6
CONTINUOUS
 62
     5
 10
179.60288946606309
 20
-36.689602725026823
 30
0.0
 11
180.00320795367409
 21
-36.689602725026823
 31
0.0
  0
ARC
  8
DETAIL
  6
CONTINUOUS
 62
     5
 10
180.00320795367409
 20
-37.490239700246548
 30
0.0
 40
0.8006369752196582
 50
0.0
 51
90.0
  0
LINE
  8
DETAIL
  6
CONTINUOUS
 62
     5
 10
177.4011377842107
 20
-32.786497470833638
 30
0.0
 11
177.4011377842107
 21
-35.788886127907062
 31
0.0
  0
ARC
  8
DETAIL
  6
CONTINUOUS
 62
     5
 10
183.26335769774599
 20
-10.308201055947389
 30
0.0
 40
0.30023886570672
 50
0.9999999999822377
 51
90.0
  0
LINE
  8
DETAIL
  6
CONTINUOUS
 62
     5
 10
183.16597824605921
 20
-10.00796219024096
 30
0.0
 11
183.56442473750761
 21
-10.353026973490159
 31
0.0
  0
LINE
  8
DETAIL
  6
CONTINUOUS
 62
     5
 10
182.58816827929149
 20
-10.00796219024096
 30
0.0
 11
183.57329328059129
 21
-10.8611054666535
 31
0.0
  0
ARC
  8
DETAIL
  6
CONTINUOUS
 62
     5
 10
185.0460512935351
 20
-13.510748956823591
 30
0.0
 40
2.00159243804847
 50
136.49480331574449
 51
181.10170611524009
  0
LINE
  8
DETAIL
  6
CONTINUOUS
 62
     5
 10
183.29428782781179
 20
-27.482277510006501
 30
0.0
 11
183.04482886986631
 21
-13.5492340029723
 31
0.0
  0
LINE
  8
DETAIL
  6
CONTINUOUS
 62
     5
 10
202.22088401600919
 20
-47.969993454545147
 30
0.0
 11
202.22088401600919
 21
-47.998599999999897
 31
0.0
  0
LINE
  8
DETAIL
  6
CONTINUOUS
 62
     5
 10
234.44531221738541
 20
-54.087717217754737
 30
0.0
 11
234.44309667273049
 21
-54.085521095050808
 31
0.0
  0
ARC
  8
DETAIL
  6
CONTINUOUS
 62
     5
 10
234.51969041760819
 20
-0.5003981095105701
 30
0.0
 40
0.500398109511198
 50
2.9999999999729852
 51
90.0
  0
LINE
  8
DETAIL
  6
CONTINUOUS
 62
     5
 10
235.01940274852501
 20
-0.4742092955693806
 30
0.0
 11
235.04699999999869
 21
-1.0007962190229589
 31
0.0
  0
ARC
  8
DETAIL
  6
CONTINUOUS
 62
     5
 10
233.90629962775171
 20
-9.007165971215727
 30
0.0
 40
1.0007962190236199
 50
270.0
 51
359.00000000001779
  0
LINE
  8
DETAIL
  6
CONTINUOUS
 62
     5
 10
235.04699999999869
 20
-1.0007962190229589
 30
0.0
 11
234.90694342050659
 21
-9.0246322731532018
 31
0.0
  0
ARC
  8
DETAIL
  6
CONTINUOUS
 62
     5
 10
202.76375990422821
 20
-10.308201055947389
 30
0.0
 40
0.300238865707122
 50
90.0
 51
179.00000000001131
  0
LINE
  8
DETAIL
  6
CONTINUOUS
 62
     5
 10
0.0
 20
-10.00796219024096
 30
0.0
 11
233.90629962775171
 21
-10.00796219024096
 31
0.0
  0
LINE
  8
DETAIL
  6
CONTINUOUS
 62
     5
 10
202.46356676640059
 20
-10.302961165165931
 30
0.0
 11
201.82236436252609
 21
-47.998599999999897
 31
0.0
  0
ARC
  8
DETAIL
  6
CONTINUOUS
 62
     5
 10
201.22008779698629
 20
-47.969993454545147
 30
0.0
 40
1.0007962190241539
 50
0.0
 51
19.453781416113561
  0
LINE
  8
DETAIL
  6
CONTINUOUS
 62
     5
 10
201.84446034827309
 20
-46.732721801079613
 30
0.0
 11
202.1637490152261
 21
-47.636681923203007
 31
0.0
  0
LINE
  8
DETAIL
  6
CONTINUOUS
 62
     5
 10
235.01940274852501
 20
-48.525186922954163
 30
0.0
 11
234.7297470751582
 21
-54.052146423391598
 31
0.0
  0
ARC
  8
DETAIL
  6
CONTINUOUS
 62
     5
 10
234.51969041760819
 20
-48.498998109512293
 30
0.0
 40
0.50039810951205
 50
356.99999999992258
 51
90.0
  0
LINE
  8
DETAIL
  6
CONTINUOUS
 62
     5
 10
234.51969041760819
 20
-47.998599999999897
 30
0.0
 11
0.0
 21
-47.998599999999897
 31
0.0
  0
LINE
  8
DETAIL
  6
CONTINUOUS
 62
     5
 10
183.5635508355717
 20
-10.302961165165931
 30
0.0
 11
184.20475323944811
 21
-47.998599999999897
 31
0.0
  0
LINE
  8
DETAIL
  6
CONTINUOUS
 62
     5
 10
183.29428782781179
 20
-27.482277510006501
 30
0.0
 11
183.04482886986631
 21
-13.5492340029723
 31
0.0
  0
LINE
  8
DETAIL
  6
CONTINUOUS
 62
     5
 10
183.5635508355717
 20
-10.302961165165931
 30
0.0
 11
184.20475323944811
 21
-47.998599999999897
 31
0.0
  0
ARC
  8
DETAIL
  6
CONTINUOUS
 62
     5
 10
185.0460512935351
 20
-13.510748956823591
 30
0.0
 40
2.00159243804847
 50
136.49480331574449
 51
181.10170611524009
  0
LINE
  8
DETAIL
  6
CONTINUOUS
 62
     5
 10
183.84663949832611
 20
-27.482277510006501
 30
0.0
 11
182.31624980037489
 21
-27.482277510006501
 31
0.0
  0
LINE
  8
DETAIL
  6
CONTINUOUS
 62
     5
 10
182.01602236676439
 20
-27.779896330243449
 30
0.0
 11
181.8395764129109
 21
-47.998599999999897
 31
0.0
  0
ARC
  8
DETAIL
  6
CONTINUOUS
 62
     5
 10
182.31624980037489
 20
-27.78251637571293
 30
0.0
 40
0.300238865707128
 50
90.0
 51
179.50000000007361
  0
LINE
  8
DETAIL
  6
CONTINUOUS
 62
     5
 10
0.0
 20
0.0
 30
0.0
 11
234.51969041760819
 21
0.0
 31
0.0
  0
ENDSEC
  0
EOF
