  0
SECTION
  2
HEADER
  9
$ACADVER
  1
AC1009
  9
$DWGCODEPAGE
  3
dos932
  9
$INSBASE
 10
0.0
 20
0.0
 30
0.0
  9
$EXTMIN
 10
-832.04954422783339
 20
-632.85826488032399
 30
-0.0000002793804338
  9
$EXTMAX
 10
1079.489147371482
 20
844.98597023192087
 30
0.0000000116489898
  9
$LIMMIN
 10
-2970.0
 20
-2100.0
  9
$LIMMAX
 10
2970.0
 20
2100.0
  9
$ORTHOMODE
 70
     1
  9
$REGENMODE
 70
     1
  9
$FILLMODE
 70
     1
  9
$QTEXTMODE
 70
     0
  9
$MIRRTEXT
 70
     0
  9
$LTSCALE
 40
20.0
  9
$ATTMODE
 70
     1
  9
$TEXTSIZE
 40
64.0
  9
$TRACEWID
 40
0.05
  9
$TEXTSTYLE
  7
STANDARD
  9
$CLAYER
  8
ETC
  9
$CELTYPE
  6
CONTINUOUS
  9
$CECOLOR
 62
     7
  9
$DIMSCALE
 40
1.0
  9
$DIMASZ
 40
12.0
  9
$DIMEXO
 40
20.0
  9
$DIMDLI
 40
200.0
  9
$DIMRND
 40
0.0
  9
$DIMDLE
 40
0.0
  9
$DIMEXE
 40
20.0
  9
$DIMTP
 40
0.0
  9
$DIMTM
 40
0.0
  9
$DIMTXT
 40
64.0
  9
$DIMCEN
 40
0.09
  9
$DIMTSZ
 40
0.0
  9
$DIMTOL
 70
     0
  9
$DIMLIM
 70
     0
  9
$DIMTIH
 70
     0
  9
$DIMTOH
 70
     0
  9
$DIMSE1
 70
     0
  9
$DIMSE2
 70
     0
  9
$DIMTAD
 70
     1
  9
$DIMZIN
 70
     8
  9
$DIMBLK
  1

  9
$DIMASO
 70
     1
  9
$DIMSHO
 70
     0
  9
$DIMPOST
  1

  9
$DIMAPOST
  1

  9
$DIMALT
 70
     0
  9
$DIMALTD
 70
     2
  9
$DIMALTF
 40
25.399999999999999
  9
$DIMLFAC
 40
1.0
  9
$DIMTOFL
 70
     1
  9
$DIMTVP
 40
0.0
  9
$DIMTIX
 70
     1
  9
$DIMSOXD
 70
     0
  9
$DIMSAH
 70
     0
  9
$DIMBLK1
  1

  9
$DIMBLK2
  1

  9
$DIMSTYLE
  2
STANDARD
  9
$DIMCLRD
 70
     7
  9
$DIMCLRE
 70
     7
  9
$DIMCLRT
 70
     7
  9
$DIMTFAC
 40
1.0
  9
$DIMGAP
 40
25.0
  9
$LUNITS
 70
     2
  9
$LUPREC
 70
     4
  9
$SKETCHINC
 40
0.1
  9
$FILLETRAD
 40
3.0
  9
$AUNITS
 70
     1
  9
$AUPREC
 70
     3
  9
$MENU
  1
ACAD
  9
$ELEVATION
 40
0.0
  9
$PELEVATION
 40
0.0
  9
$THICKNESS
 40
50.0
  9
$LIMCHECK
 70
     0
  9
$CHAMFERA
 40
0.0
  9
$CHAMFERB
 40
0.0
  9
$SKPOLY
 70
     0
  9
$TDCREATE
 40
2453019.62301037
  9
$TDUPDATE
 40
2458899.650379004
  9
$TDINDWG
 40
1.8195667014
  9
$TDUSRTIMER
 40
1.8195667014
  9
$USRTIMER
 70
     1
  9
$ANGBASE
 50
0.0
  9
$ANGDIR
 70
     0
  9
$PDMODE
 70
     3
  9
$PDSIZE
 40
-2.0
  9
$PLINEWID
 40
0.0
  9
$SPLFRAME
 70
     0
  9
$SPLINETYPE
 70
     6
  9
$SPLINESEGS
 70
     8
  9
$SURFTAB1
 70
     6
  9
$SURFTAB2
 70
     6
  9
$SURFTYPE
 70
     6
  9
$SURFU
 70
     6
  9
$SURFV
 70
     6
  9
$UCSNAME
  2

  9
$UCSORG
 10
0.0
 20
0.0
 30
0.0
  9
$UCSXDIR
 10
1.0
 20
0.0
 30
0.0
  9
$UCSYDIR
 10
0.0
 20
1.0
 30
0.0
  9
$PUCSNAME
  2

  9
$PUCSORG
 10
0.0
 20
0.0
 30
0.0
  9
$PUCSXDIR
 10
1.0
 20
0.0
 30
0.0
  9
$PUCSYDIR
 10
0.0
 20
1.0
 30
0.0
  9
$USERI1
 70
     0
  9
$USERI2
 70
     0
  9
$USERI3
 70
     0
  9
$USERI4
 70
     0
  9
$USERI5
 70
     0
  9
$USERR1
 40
20.0
  9
$USERR2
 40
0.0
  9
$USERR3
 40
0.0
  9
$USERR4
 40
0.0
  9
$USERR5
 40
0.0
  9
$WORLDVIEW
 70
     1
  9
$SHADEDGE
 70
     3
  9
$SHADEDIF
 70
    70
  9
$TILEMODE
 70
     1
  9
$MAXACTVP
 70
    48
  9
$PINSBASE
 10
0.0
 20
0.0
 30
0.0
  9
$PLIMCHECK
 70
     0
  9
$PEXTMIN
 10
-100000000000000000000.0
 20
-100000000000000000000.0
 30
-100000000000000000000.0
  9
$PEXTMAX
 10
100000000000000000000.0
 20
100000000000000000000.0
 30
100000000000000000000.0
  9
$PLIMMIN
 10
0.0
 20
0.0
  9
$PLIMMAX
 10
12.0
 20
9.0
  9
$UNITMODE
 70
     0
  9
$VISRETAIN
 70
     0
  9
$PLINEGEN
 70
     0
  9
$PSLTSCALE
 70
     0
  9
$TREEDEPTH
 70
  3020
  9
$ATTDIA
 70
     0
  9
$ATTREQ
 70
     1
  9
$BLIPMODE
 70
     1
  9
$COORDS
 70
     1
  9
$DRAGMODE
 70
     2
  9
$OSMODE
 70
     0
  9
$HANDLING
 70
     0
  9
$HANDSEED
  5
3EA95
  0
ENDSEC
  0
SECTION
  2
TABLES
  0
TABLE
  2
LTYPE
 70
     2
  0
LTYPE
  2
CONTINUOUS
 70
     0
  3
実線
 72
    65
 73
     0
 40
0.0
  0
LTYPE
  2
DASHDOT
 70
     0
  3
____ _ ____ _ ____ _ ____ _ ____ _ ____ _ ____
 72
    65
 73
     4
 40
5.5
 49
4.0
 49
-0.6
 49
0.3
 49
-0.6
  0
ENDTAB
  0
TABLE
  2
LAYER
 70
    12
  0
LAYER
  2
0
 70
     0
 62
     7
  6
CONTINUOUS
  0
LAYER
  2
BASIS
 70
     0
 62
     6
  6
DASHDOT
  0
LAYER
  2
OUTLINE
 70
     0
 62
     3
  6
CONTINUOUS
  0
LAYER
  2
DETAIL
 70
     0
 62
     5
  6
CONTINUOUS
  0
LAYER
  2
SIZE
 70
     0
 62
    30
  6
CONTINUOUS
  0
LAYER
  2
ARRANGE
 70
     0
 62
     1
  6
CONTINUOUS
  0
LAYER
  2
DEFPOINTS
 70
     0
 62
     7
  6
CONTINUOUS
  0
LAYER
  2
ETC
 70
     0
 62
    61
  6
CONTINUOUS
  0
LAYER
  2
FIX
 70
     0
 62
    11
  6
CONTINUOUS
  0
LAYER
  2
NOTE
 70
     0
 62
     4
  6
CONTINUOUS
  0
LAYER
  2
SERVICESPACE
 70
    64
 62
     2
  6
DASHDOT
  0
LAYER
  2
SYMBOLLINE
 70
    64
 62
    15
  6
CONTINUOUS
  0
ENDTAB
  0
TABLE
  2
STYLE
 70
     1
  0
STYLE
  2
STANDARD
 70
     0
 40
64.0
 41
0.9
 50
0.0
 71
     0
 42
64.0
  3
SIMPLEX.shx
  4
BIGFONT.shx
  0
ENDTAB
  0
TABLE
  2
APPID
 70
    17
  0
APPID
  2
ACAD
 70
     0
  0
APPID
  2
AUTOCAD_POSTSCRIPT_FIGURE
 70
     0
  0
APPID
  2
ACAD_EXEMPT_FROM_CAD_STANDARDS
 70
     0
  0
APPID
  2
ACAD_PSEXT
 70
     0
  0
APPID
  2
ACAUTHENVIRON
 70
     0
  0
APPID
  2
GENIUS_GENOENT_13
 70
     0
  0
APPID
  2
GENIUS_GENCFG_13
 70
     0
  0
APPID
  2
GENIUS_GENCFG0_13
 70
     0
  0
APPID
  2
GENIUS_GENCFG1_13
 70
     0
  0
APPID
  2
GENIUS_GENCFG2_13
 70
     0
  0
APPID
  2
GENIUS_GENCFG3_13
 70
     0
  0
APPID
  2
GENIUS_GENCFG4_13
 70
     0
  0
APPID
  2
GENIUS_GEVCFG0_13
 70
     0
  0
APPID
  2
CONTENTBLOCKICON
 70
     0
  0
APPID
  2
CONTENTBLOCKDESCRIPTION
 70
     0
  0
APPID
  2
ACAD_NAV_VCDISPLAY
 70
     0
  0
APPID
  2
ACAD_MLEADERVER
 70
     0
  0
ENDTAB
  0
TABLE
  2
DIMSTYLE
 70
     1
  0
DIMSTYLE
  2
STANDARD
 70
     0
  3

  4

  5
_ORIGIN
  6

  7

 40
1.0
 41
12.0
 42
20.0
 43
200.0
 44
20.0
 45
0.0
 46
0.0
 47
0.0
 48
0.0
140
64.0
141
0.09
142
0.0
143
25.399999999999999
144
1.0
145
0.0
146
1.0
147
25.0
 71
     0
 72
     0
 73
     0
 74
     0
 75
     0
 76
     0
 77
     1
 78
     8
170
     0
171
     2
172
     1
173
     0
174
     1
175
     0
176
     7
177
     7
178
     7
  0
ENDTAB
  0
TABLE
  2
VIEW
 70
     1
  0
VIEW
  2
ALL
 70
     0
 40
4282.6198079999986
 10
0.0
 20
41.309904000000003
 41
5940.0
 11
0.0
 21
0.0
 31
1.0
 12
0.0
 22
0.0
 32
0.0
 42
50.0
 43
0.0
 44
0.0
 50
0.0
 71
     0
  0
ENDTAB
  0
TABLE
  2
UCS
 70
     0
  0
ENDTAB
  0
TABLE
  2
VPORT
 70
     1
  0
VPORT
  2
*ACTIVE
 70
     0
 10
0.0
 20
0.0
 11
1.0
 21
1.0
 12
123.71980157182411
 22
106.0638526757984
 13
0.0
 23
0.0
 14
1.0
 24
1.0
 15
0.0
 25
0.0
 16
0.0
 26
0.0
 36
1.0
 17
0.0
 27
0.0
 37
0.0
 40
1487.004426652197
 41
1.6339193381592549
 42
50.0
 43
0.0
 44
0.0
 50
0.0
 51
0.0
 71
     0
 72
  1000
 73
     1
 74
     3
 75
     0
 76
     0
 77
     0
 78
     0
  0
ENDTAB
  0
ENDSEC
  0
SECTION
  2
BLOCKS
  0
BLOCK
  8
0
  2
_ORIGIN
 70
     0
 10
0.0
 20
0.0
 30
0.0
  3
_ORIGIN
  1
_ORIGIN
  0
CIRCLE
  8
0
  6
CONTINUOUS
 62
     7
 10
0.0
 20
0.0
 30
0.0
 40
0.5
  0
LINE
  8
0
  6
CONTINUOUS
 62
     7
 10
0.0
 20
0.0
 30
0.0
 11
-1.0
 21
0.0
 31
0.0
  0
ENDBLK
  8
0
  0
ENDSEC
  0
SECTION
  2
ENTITIES
  0
TEXT
  8
ETC
  6
CONTINUOUS
 62
    61
 10
344.1551879028259
 20
766.59382054944945
 30
0.0
 40
64.0
  1
VD-23ZX13-Z_4
 41
0.9
  0
TEXT
  8
ETC
  6
CONTINUOUS
 62
    61
 10
341.78800990282571
 20
661.81255507377682
 30
0.0
 40
64.0
  1
換気扇
 41
0.9
  0
TEXT
  8
ETC
  6
CONTINUOUS
 62
    61
 10
426.14895124630681
 20
578.74510082504048
 30
0.0
 40
40.0
  1
VD-23ZX13-Z
 41
0.9
  0
TEXT
  8
ETC
  6
CONTINUOUS
 62
    61
 10
426.14895124630681
 20
512.74510082504048
 30
0.0
 40
40.0
  1
VD-23ZN13-Z
 41
0.9
  0
POINT
  8
ARRANGE
  6
CONTINUOUS
 62
     1
 10
0.0
 20
0.0
 30
0.0
  0
LINE
  8
OUTLINE
  6
CONTINUOUS
 62
     3
 10
-255.0
 20
0.0
 30
0.0
 11
255.0
 21
0.0
 31
0.0
  0
LINE
  8
OUTLINE
  6
CONTINUOUS
 62
     3
 10
193.0
 20
250.0
 30
0.0
 11
-193.0
 21
250.0
 31
0.0
  0
LINE
  8
OUTLINE
  6
CONTINUOUS
 62
     3
 10
-227.5
 20
50.0
 30
0.0
 11
227.5
 21
50.0
 31
0.0
  0
LINE
  8
OUTLINE
  6
CONTINUOUS
 62
     3
 10
-227.5
 20
50.0
 30
0.0
 11
227.5
 21
50.0
 31
0.0
  0
LINE
  8
DETAIL
  6
CONTINUOUS
 62
     5
 10
-41.500001999999768
 20
282.0
 30
0.0
 11
46.5
 21
282.0
 31
0.0
  0
TEXT
  8
SIZE
  6
CONTINUOUS
 62
    30
 10
-74.05714285714285
 20
646.8315268262013
 30
0.0
 40
64.0
  1
300
 41
0.9
 72
     1
 11
0.0
 21
646.8315268262013
 31
0.0
  0
LINE
  8
SIZE
  6
CONTINUOUS
 62
    30
 10
-138.0
 20
624.78882882620155
 30
0.0
 11
138.0
 21
624.78882882620155
 31
0.0
  0
TEXT
  8
SIZE
  6
CONTINUOUS
 62
    30
 10
-109.1657142857143
 20
773.0923548262017
 30
0.0
 40
64.0
  1
□386
 41
0.9
 72
     1
 11
0.0
 21
773.0923548262017
 31
0.0
  0
LINE
  8
SIZE
  6
CONTINUOUS
 62
    30
 10
181.0
 20
747.91127282620164
 30
0.0
 11
-181.0
 21
747.91127282620164
 31
0.0
  0
TEXT
  8
SIZE
  6
CONTINUOUS
 62
    30
 10
-59.174235000000223
 20
520.57069882620135
 30
0.0
 40
64.0
  1
φ98
 41
0.9
 72
     1
 11
17.62576499999977
 21
520.57069882620135
 31
0.0
  0
LINE
  8
SIZE
  6
CONTINUOUS
 62
    30
 10
-34.5
 20
494.14893482620141
 30
0.0
 11
39.5
 21
494.14893482620141
 31
0.0
  0
TEXT
  8
SIZE
  6
CONTINUOUS
 62
    30
 10
-110.5371428571429
 20
-315.71733499999982
 30
0.0
 40
64.0
  1
□455
 41
0.9
 72
     1
 11
0.0
 21
-315.71733499999982
 31
0.0
  0
LINE
  8
SIZE
  6
CONTINUOUS
 62
    30
 10
215.5
 20
-341.78844199999997
 30
0.0
 11
-215.5
 21
-341.78844199999997
 31
0.0
  0
TEXT
  8
SIZE
  6
CONTINUOUS
 62
    30
 10
-74.05714285714285
 20
-169.72825199999991
 30
0.0
 40
64.0
  1
300
 41
0.9
 72
     1
 11
0.0
 21
-169.72825199999991
 31
0.0
  0
LINE
  8
SIZE
  6
CONTINUOUS
 62
    30
 10
138.0
 20
-197.7812099999999
 30
0.0
 11
-138.0
 21
-197.7812099999999
 31
0.0
  0
TEXT
  8
SIZE
  6
CONTINUOUS
 62
    30
 10
-74.057142857142836
 20
-449.86946799999993
 30
0.0
 40
64.0
  1
480
 41
0.9
 72
     1
 11
0.0
 21
-449.86946799999993
 31
0.0
  0
LINE
  8
SIZE
  6
CONTINUOUS
 62
    30
 10
228.0
 20
-474.97897499999988
 30
0.0
 11
-228.0
 21
-474.97897499999988
 31
0.0
  0
TEXT
  8
SIZE
  6
CONTINUOUS
 62
    30
 10
-105.0514285714286
 20
-587.96724699999982
 30
0.0
 40
64.0
  1
□510
 41
0.9
 72
     1
 11
0.0
 21
-587.96724699999982
 31
0.0
  0
LINE
  8
SIZE
  6
CONTINUOUS
 62
    30
 10
243.0
 20
-612.75798799999995
 30
0.0
 11
-243.0
 21
-612.75798799999995
 31
0.0
  0
CIRCLE
  8
ARRANGE
  6
CONTINUOUS
 62
     1
 10
0.0
 20
0.0
 30
0.0
 40
40.0
  0
LINE
  8
DETAIL
  6
CONTINUOUS
 62
     5
 10
-219.78141899999989
 20
-8.0
 30
0.0
 11
219.78141899999989
 21
-8.0
 31
0.0
  0
LINE
  8
DETAIL
  6
CONTINUOUS
 62
     5
 10
-255.0
 20
0.0
 30
0.0
 11
255.0
 21
0.0
 31
0.0
  0
LINE
  8
DETAIL
  6
CONTINUOUS
 62
     5
 10
-227.5
 20
50.0
 30
0.0
 11
227.5
 21
50.0
 31
0.0
  0
LINE
  8
DETAIL
  6
CONTINUOUS
 62
     5
 10
193.0
 20
243.0
 30
0.0
 11
-193.0
 21
243.0
 31
0.0
  0
LINE
  8
DETAIL
  6
CONTINUOUS
 62
     5
 10
193.0
 20
250.0
 30
0.0
 11
-193.0
 21
250.0
 31
0.0
  0
LINE
  8
OUTLINE
  6
CONTINUOUS
 62
     3
 10
-227.5
 20
0.0
 30
0.0
 11
-227.5
 21
50.0
 31
0.0
  0
LINE
  8
OUTLINE
  6
CONTINUOUS
 62
     3
 10
-227.5
 20
0.0
 30
0.0
 11
-227.5
 21
50.0
 31
0.0
  0
LINE
  8
SIZE
  6
CONTINUOUS
 62
    30
 10
-559.84177602157433
 20
0.0
 30
0.0
 11
-559.84177602157433
 21
12.0
 31
0.0
  0
CIRCLE
  8
SIZE
  6
CONTINUOUS
 62
    30
 10
-559.84177602157433
 20
0.0
 30
0.0
 40
6.0
  0
CIRCLE
  8
FIX
  6
CONTINUOUS
 62
    11
 10
-240.0
 20
0.0
 30
0.0
 40
2.5
  0
LINE
  8
NOTE
  6
CONTINUOUS
 62
     4
 10
-240.0
 20
-20.0
 30
0.0
 11
-240.0
 21
20.0
 31
0.0
  0
LINE
  8
DETAIL
  6
CONTINUOUS
 62
     5
 10
-227.5
 20
0.0
 30
0.0
 11
-227.5
 21
50.0
 31
0.0
  0
LINE
  8
NOTE
  6
CONTINUOUS
 62
     4
 10
-150.0
 20
-20.0
 30
0.0
 11
-150.0
 21
20.0
 31
0.0
  0
CIRCLE
  8
FIX
  6
CONTINUOUS
 62
    11
 10
-150.0
 20
0.0
 30
0.0
 40
2.5
  0
LINE
  8
BASIS
  6
DASHDOT
 62
     6
 10
0.0
 20
-59.258078000000069
 30
0.0
 11
0.0
 21
391.69593800000013
 31
0.0
  0
LINE
  8
SIZE
  6
CONTINUOUS
 62
    30
 10
-275.0
 20
0.0
 30
0.0
 11
-579.84177602157445
 21
0.0
 31
0.0
  0
TEXT
  8
SIZE
  6
CONTINUOUS
 62
    30
 10
-582.08115202157444
 20
-172.79518457142851
 30
0.0
 40
64.0
  1
185
 50
90.0
 41
0.9
 72
     1
 11
-582.08115202157444
 21
-104.22375599999999
 31
0.0
  0
LINE
  8
SIZE
  6
CONTINUOUS
 62
    30
 10
-559.84177602157433
 20
-4.3464890000000196
 30
0.0
 11
-559.84177602157433
 21
-182.883644
 31
0.0
  0
LINE
  8
SIZE
  6
CONTINUOUS
 62
    30
 10
-227.5
 20
-20.0
 30
0.0
 11
-227.5
 21
-361.78844199999992
 31
0.0
  0
LINE
  8
SIZE
  6
CONTINUOUS
 62
    30
 10
-240.0
 20
-40.0
 30
0.0
 11
-240.0
 21
-494.97897499999988
 31
0.0
  0
LINE
  8
SIZE
  6
CONTINUOUS
 62
    30
 10
-255.0
 20
-20.0
 30
0.0
 11
-255.0
 21
-632.75798799999995
 31
0.0
  0
CIRCLE
  8
SIZE
  6
CONTINUOUS
 62
    30
 10
-227.5
 20
-341.78844199999997
 30
0.0
 40
6.0
  0
LINE
  8
SIZE
  6
CONTINUOUS
 62
    30
 10
-240.0
 20
-474.97897499999988
 30
0.0
 11
-228.0
 21
-474.97897499999988
 31
0.0
  0
LINE
  8
SIZE
  6
CONTINUOUS
 62
    30
 10
-255.0
 20
-612.75798799999995
 30
0.0
 11
-243.0
 21
-612.75798799999995
 31
0.0
  0
CIRCLE
  8
SIZE
  6
CONTINUOUS
 62
    30
 10
-255.0
 20
-612.75798799999995
 30
0.0
 40
6.0
  0
CIRCLE
  8
SIZE
  6
CONTINUOUS
 62
    30
 10
-240.0
 20
-474.97897499999988
 30
0.0
 40
6.0
  0
LINE
  8
SIZE
  6
CONTINUOUS
 62
    30
 10
-227.5
 20
-341.78844199999997
 30
0.0
 11
-215.5
 21
-341.78844199999997
 31
0.0
  0
LINE
  8
NOTE
  6
CONTINUOUS
 62
     4
 10
-220.0
 20
0.0
 30
0.0
 11
-260.0
 21
0.0
 31
0.0
  0
LINE
  8
DETAIL
  6
CONTINUOUS
 62
     5
 10
-219.78141899999989
 20
-8.0
 30
0.0
 11
-255.0
 21
-4.0
 31
0.0
  0
LINE
  8
DETAIL
  6
CONTINUOUS
 62
     5
 10
-255.0
 20
-4.0
 30
0.0
 11
-255.0
 21
0.0
 31
0.0
  0
LINE
  8
SIZE
  6
CONTINUOUS
 62
    30
 10
-150.0
 20
-40.0
 30
0.0
 11
-150.0
 21
-217.78120999999999
 31
0.0
  0
LINE
  8
SIZE
  6
CONTINUOUS
 62
    30
 10
-150.0
 20
-197.7812099999999
 30
0.0
 11
-138.0
 21
-197.7812099999999
 31
0.0
  0
CIRCLE
  8
SIZE
  6
CONTINUOUS
 62
    30
 10
-150.0
 20
-197.7812099999999
 30
0.0
 40
6.0
  0
LINE
  8
NOTE
  6
CONTINUOUS
 62
     4
 10
-130.0
 20
0.0
 30
0.0
 11
-170.0
 21
0.0
 31
0.0
  0
LINE
  8
SIZE
  6
CONTINUOUS
 62
    30
 10
-150.0
 20
170.0
 30
0.0
 11
-150.0
 21
644.78882882620155
 31
0.0
  0
LINE
  8
SIZE
  6
CONTINUOUS
 62
    30
 10
-335.0
 20
277.0
 30
0.0
 11
-335.0
 21
767.91127282620164
 31
0.0
  0
LINE
  8
SIZE
  6
CONTINUOUS
 62
    30
 10
-193.0
 20
298.86160399999989
 30
0.0
 11
-193.0
 21
767.91127282620164
 31
0.0
  0
LINE
  8
SIZE
  6
CONTINUOUS
 62
    30
 10
-193.0
 20
298.86160399999989
 30
0.0
 11
-193.0
 21
767.91127282620164
 31
0.0
  0
LINE
  8
SIZE
  6
CONTINUOUS
 62
    30
 10
-335.0
 20
277.0
 30
0.0
 11
-335.0
 21
645.74442182620169
 31
0.0
  0
LINE
  8
SIZE
  6
CONTINUOUS
 62
    30
 10
-278.0
 20
281.0
 30
0.0
 11
-278.0
 21
645.74442182620169
 31
0.0
  0
LINE
  8
SIZE
  6
CONTINUOUS
 62
    30
 10
-308.0
 20
277.0
 30
0.0
 11
-308.0
 21
517.93024882620148
 31
0.0
  0
LINE
  8
SIZE
  6
CONTINUOUS
 62
    30
 10
-335.0
 20
277.0
 30
0.0
 11
-335.0
 21
517.93024882620148
 31
0.0
  0
LINE
  8
SIZE
  6
CONTINUOUS
 62
    30
 10
-46.5
 20
296.94001400000002
 30
0.0
 11
-46.5
 21
514.14893482620141
 31
0.0
  0
LINE
  8
SIZE
  6
CONTINUOUS
 62
    30
 10
-386.76425699999999
 20
185.0
 30
0.0
 11
-579.84177602157445
 21
185.0
 31
0.0
  0
LINE
  8
SIZE
  6
CONTINUOUS
 62
    30
 10
-338.0
 20
497.93024882620148
 30
0.0
 11
-486.24452900000011
 21
497.93024882620148
 31
0.0
  0
LINE
  8
SIZE
  6
CONTINUOUS
 62
    30
 10
-328.0
 20
261.0
 30
0.0
 11
-764.93557302157421
 21
261.0
 31
0.0
  0
LINE
  8
SIZE
  6
CONTINUOUS
 62
    30
 10
-328.0
 20
109.0
 30
0.0
 11
-764.93557302157421
 21
109.0
 31
0.0
  0
LINE
  8
SIZE
  6
CONTINUOUS
 62
    30
 10
-355.0
 20
257.0
 30
0.0
 11
-642.87079002157452
 21
257.0
 31
0.0
  0
LINE
  8
SIZE
  6
CONTINUOUS
 62
    30
 10
-355.0
 20
113.0
 30
0.0
 11
-642.87079002157452
 21
113.0
 31
0.0
  0
TEXT
  8
NOTE
  6
CONTINUOUS
 62
     4
 10
-486.07392199999998
 20
135.5792449999997
 30
0.0
 40
64.0
  1
EA
 41
0.9
  0
TEXT
  8
NOTE
  6
CONTINUOUS
 62
     4
 10
-504.11792772208543
 20
395.17615999999998
 30
0.0
 40
64.0
  1
EL
 41
0.9
  0
LINE
  8
NOTE
  6
CONTINUOUS
 62
     4
 10
-538.38254649999999
 20
368.22247399999992
 30
0.0
 11
-392.47154499999988
 21
368.22247399999992
 31
0.0
  0
LINE
  8
SIZE
  6
CONTINUOUS
 62
    30
 10
-622.87079002157407
 20
250.65351100000001
 30
0.0
 11
-622.87079002157407
 21
498.30946899999981
 31
0.0
  0
TEXT
  8
SIZE
  6
CONTINUOUS
 62
    30
 10
-767.67086502157451
 20
71.857279596789922
 30
0.0
 40
64.0
  1
φ152
 50
90.0
 41
0.9
 72
     1
 11
-767.67086502157451
 21
170.60013673964701
 31
0.0
  0
TEXT
  8
SIZE
  6
CONTINUOUS
 62
    30
 10
-641.31191202157424
 20
287.43963528571419
 30
0.0
 40
64.0
  1
φ144
 50
90.0
 41
0.9
 72
     1
 11
-641.31191202157424
 21
387.55392099999989
 31
0.0
  0
LINE
  8
SIZE
  6
CONTINUOUS
 62
    30
 10
-744.93557302157421
 20
121.0
 30
0.0
 11
-744.93557302157421
 21
249.0
 31
0.0
  0
LINE
  8
SIZE
  6
CONTINUOUS
 62
    30
 10
-622.87079002157407
 20
125.0
 30
0.0
 11
-622.87079002157407
 21
245.0
 31
0.0
  0
LINE
  8
SIZE
  6
CONTINUOUS
 62
    30
 10
-744.93557302157421
 20
109.0
 30
0.0
 11
-744.93557302157421
 21
121.0
 31
0.0
  0
CIRCLE
  8
SIZE
  6
CONTINUOUS
 62
    30
 10
-744.93557302157421
 20
109.0
 30
0.0
 40
6.0
  0
LINE
  8
SIZE
  6
CONTINUOUS
 62
    30
 10
-622.87079002157407
 20
113.0
 30
0.0
 11
-622.87079002157407
 21
125.0
 31
0.0
  0
CIRCLE
  8
SIZE
  6
CONTINUOUS
 62
    30
 10
-622.87079002157407
 20
113.0
 30
0.0
 40
6.0
  0
LINE
  8
SIZE
  6
CONTINUOUS
 62
    30
 10
-744.93557302157421
 20
261.0
 30
0.0
 11
-744.93557302157421
 21
249.0
 31
0.0
  0
CIRCLE
  8
SIZE
  6
CONTINUOUS
 62
    30
 10
-744.93557302157421
 20
261.0
 30
0.0
 40
6.0
  0
LINE
  8
SIZE
  6
CONTINUOUS
 62
    30
 10
-622.87079002157407
 20
257.0
 30
0.0
 11
-622.87079002157407
 21
245.0
 31
0.0
  0
CIRCLE
  8
SIZE
  6
CONTINUOUS
 62
    30
 10
-622.87079002157407
 20
257.0
 30
0.0
 40
6.0
  0
LINE
  8
SIZE
  6
CONTINUOUS
 62
    30
 10
-559.84177602157433
 20
12.0
 30
0.0
 11
-559.84177602157433
 21
173.0
 31
0.0
  0
LINE
  8
SIZE
  6
CONTINUOUS
 62
    30
 10
-559.84177602157433
 20
185.0
 30
0.0
 11
-559.84177602157433
 21
173.0
 31
0.0
  0
CIRCLE
  8
SIZE
  6
CONTINUOUS
 62
    30
 10
-559.84177602157433
 20
185.0
 30
0.0
 40
6.0
  0
LINE
  8
NOTE
  6
CONTINUOUS
 62
     4
 10
-157.0
 20
250.0
 30
0.0
 11
-392.47154499999988
 21
368.22247399999992
 31
0.0
  0
LINE
  8
BASIS
  6
DASHDOT
 62
     6
 10
-366.76425699999987
 20
185.0
 30
0.0
 11
-169.71645200000009
 21
185.0
 31
0.0
  0
LINE
  8
DETAIL
  6
CONTINUOUS
 62
     5
 10
-278.0
 20
105.0
 30
0.0
 11
-193.0
 21
105.0
 31
0.0
  0
LINE
  8
DETAIL
  6
CONTINUOUS
 62
     5
 10
-278.0
 20
265.0
 30
0.0
 11
-194.7499999999998
 21
265.0
 31
0.0
  0
LINE
  8
DETAIL
  6
CONTINUOUS
 62
     5
 10
-335.0
 20
113.0
 30
0.0
 11
-335.0
 21
257.0
 31
0.0
  0
LINE
  8
DETAIL
  6
CONTINUOUS
 62
     5
 10
-278.0
 20
105.0
 30
0.0
 11
-278.0
 21
265.0
 31
0.0
  0
LINE
  8
DETAIL
  6
CONTINUOUS
 62
     5
 10
-308.0
 20
109.0
 30
0.0
 11
-308.0
 21
261.0
 31
0.0
  0
LINE
  8
DETAIL
  6
CONTINUOUS
 62
     5
 10
-308.0
 20
109.0
 30
0.0
 11
-278.0
 21
109.0
 31
0.0
  0
LINE
  8
DETAIL
  6
CONTINUOUS
 62
     5
 10
-335.0
 20
113.0
 30
0.0
 11
-308.0
 21
113.0
 31
0.0
  0
LINE
  8
DETAIL
  6
CONTINUOUS
 62
     5
 10
-308.0
 20
261.0
 30
0.0
 11
-278.0
 21
261.0
 31
0.0
  0
LINE
  8
DETAIL
  6
CONTINUOUS
 62
     5
 10
-335.0
 20
257.0
 30
0.0
 11
-308.0
 21
257.0
 31
0.0
  0
LINE
  8
DETAIL
  6
CONTINUOUS
 62
     5
 10
-194.7499999999998
 20
279.0
 30
0.0
 11
-194.7499999999998
 21
50.0
 31
0.0
  0
LINE
  8
DETAIL
  6
CONTINUOUS
 62
     5
 10
-193.0
 20
50.0
 30
0.0
 11
-193.0
 21
279.0
 31
0.0
  0
LINE
  8
DETAIL
  6
CONTINUOUS
 62
     5
 10
-130.0
 20
68.0
 30
0.0
 11
-130.0
 21
130.0
 31
0.0
  0
LINE
  8
DETAIL
  6
CONTINUOUS
 62
     5
 10
-170.0
 20
130.0
 30
0.0
 11
-170.0
 21
25.0
 31
0.0
  0
LINE
  8
DETAIL
  6
CONTINUOUS
 62
     5
 10
-198.25
 20
105.0
 30
0.0
 11
-198.25
 21
50.0
 31
0.0
  0
LINE
  8
DETAIL
  6
CONTINUOUS
 62
     5
 10
-170.0
 20
25.0
 30
0.0
 11
-130.0
 21
25.0
 31
0.0
  0
LINE
  8
DETAIL
  6
CONTINUOUS
 62
     5
 10
-130.0
 20
25.0
 30
0.0
 11
-130.0
 21
62.255437353461957
 31
0.0
  0
LINE
  8
DETAIL
  6
CONTINUOUS
 62
     5
 10
-162.0
 20
130.0
 30
0.0
 11
-170.0
 21
130.0
 31
0.0
  0
LINE
  8
DETAIL
  6
CONTINUOUS
 62
     5
 10
-162.0
 20
136.0
 30
0.0
 11
-162.0
 21
120.0
 31
0.0
  0
LINE
  8
DETAIL
  6
CONTINUOUS
 62
     5
 10
-138.0
 20
120.0
 30
0.0
 11
-138.0
 21
136.0
 31
0.0
  0
LINE
  8
DETAIL
  6
CONTINUOUS
 62
     5
 10
-138.0
 20
136.0
 30
0.0
 11
-162.0
 21
136.0
 31
0.0
  0
LINE
  8
DETAIL
  6
CONTINUOUS
 62
     5
 10
-138.0
 20
120.0
 30
0.0
 11
-162.0
 21
120.0
 31
0.0
  0
LINE
  8
DETAIL
  6
CONTINUOUS
 62
     5
 10
-130.0
 20
130.0
 30
0.0
 11
-138.0
 21
130.0
 31
0.0
  0
LINE
  8
DETAIL
  6
CONTINUOUS
 62
     5
 10
-130.0
 20
128.0
 30
0.0
 11
-170.0
 21
128.0
 31
0.0
  0
CIRCLE
  8
FIX
  6
CONTINUOUS
 62
    11
 10
-150.0
 20
130.0
 30
0.0
 40
7.5
  0
LINE
  8
NOTE
  6
CONTINUOUS
 62
     4
 10
-170.0
 20
130.0
 30
0.0
 11
-130.0
 21
130.0
 31
0.0
  0
LINE
  8
NOTE
  6
CONTINUOUS
 62
     4
 10
-150.0
 20
110.0
 30
0.0
 11
-150.0
 21
150.0
 31
0.0
  0
ARC
  8
DETAIL
  6
CONTINUOUS
 62
     5
 10
-74.0
 20
68.0
 30
0.0
 40
7.0
 50
270.0
 51
90.0
  0
ARC
  8
DETAIL
  6
CONTINUOUS
 62
     5
 10
-74.0
 20
68.0
 30
0.0
 40
10.0
 50
270.0
 51
90.0
  0
ARC
  8
DETAIL
  6
CONTINUOUS
 62
     5
 10
-95.0
 20
68.0
 30
0.0
 40
10.0
 50
90.0
 51
270.0
  0
ARC
  8
DETAIL
  6
CONTINUOUS
 62
     5
 10
-95.0
 20
68.0
 30
0.0
 40
7.0
 50
90.0
 51
270.0
  0
LINE
  8
DETAIL
  6
CONTINUOUS
 62
     5
 10
-74.0
 20
61.0
 30
0.0
 11
-95.0
 21
61.0
 31
0.0
  0
LINE
  8
DETAIL
  6
CONTINUOUS
 62
     5
 10
-95.0
 20
75.0
 30
0.0
 11
-74.0
 21
75.0
 31
0.0
  0
LINE
  8
DETAIL
  6
CONTINUOUS
 62
     5
 10
-95.0
 20
78.0
 30
0.0
 11
-74.0
 21
78.0
 31
0.0
  0
LINE
  8
DETAIL
  6
CONTINUOUS
 62
     5
 10
-95.0
 20
58.0
 30
0.0
 11
-74.0
 21
58.0
 31
0.0
  0
LINE
  8
BASIS
  6
DASHDOT
 62
     6
 10
-84.5
 20
54.237540999999958
 30
0.0
 11
-84.5
 21
81.965836999999965
 31
0.0
  0
LINE
  8
BASIS
  6
DASHDOT
 62
     6
 10
-108.75421246296079
 20
68.0
 30
0.0
 11
-60.382422958135983
 21
68.0
 31
0.0
  0
LINE
  8
NOTE
  6
CONTINUOUS
 62
     4
 10
-157.0
 20
230.0
 30
0.0
 11
-157.0
 21
270.0
 31
0.0
  0
LINE
  8
NOTE
  6
CONTINUOUS
 62
     4
 10
-157.0
 20
250.0
 30
0.0
 11
-196.3512310000001
 21
257.17500100000012
 31
0.0
  0
LINE
  8
NOTE
  6
CONTINUOUS
 62
     4
 10
-187.49166500000001
 20
275.88934899999998
 30
0.0
 11
-157.0
 21
250.0
 31
0.0
  0
LINE
  8
NOTE
  6
CONTINUOUS
 62
     4
 10
-177.5
 20
250.0
 30
0.0
 11
-137.5
 21
250.0
 31
0.0
  0
LINE
  8
DETAIL
  6
CONTINUOUS
 62
     5
 10
-198.25
 20
279.0
 30
0.0
 11
-193.0
 21
279.0
 31
0.0
  0
LINE
  8
DETAIL
  6
CONTINUOUS
 62
     5
 10
-198.25
 20
279.0
 30
0.0
 11
-198.25
 21
265.0
 31
0.0
  0
LINE
  8
DETAIL
  6
CONTINUOUS
 62
     5
 10
-194.7499999999998
 20
279.0
 30
0.0
 11
-193.0
 21
279.0
 31
0.0
  0
ARC
  8
DETAIL
  6
CONTINUOUS
 62
     5
 10
-41.500001999999768
 20
277.0
 30
0.0
 40
5.0
 50
90.0
 51
180.0
  0
LINE
  8
DETAIL
  6
CONTINUOUS
 62
     5
 10
-46.500001999999768
 20
277.0
 30
0.0
 11
-46.500001999999768
 21
250.0
 31
0.0
  0
LINE
  8
SIZE
  6
CONTINUOUS
 62
    30
 10
-347.0
 20
497.93024882620148
 30
0.0
 11
-359.0
 21
497.93024882620148
 31
0.0
  0
LINE
  8
SIZE
  6
CONTINUOUS
 62
    30
 10
-296.0
 20
497.93024882620148
 30
0.0
 11
-284.0
 21
497.93024882620148
 31
0.0
  0
LINE
  8
SIZE
  6
CONTINUOUS
 62
    30
 10
-308.0
 20
497.93024882620148
 30
0.0
 11
-296.0
 21
497.93024882620148
 31
0.0
  0
CIRCLE
  8
SIZE
  6
CONTINUOUS
 62
    30
 10
-308.0
 20
497.93024882620148
 30
0.0
 40
6.0
  0
LINE
  8
SIZE
  6
CONTINUOUS
 62
    30
 10
-335.0
 20
497.93024882620148
 30
0.0
 11
-347.0
 21
497.93024882620148
 31
0.0
  0
CIRCLE
  8
SIZE
  6
CONTINUOUS
 62
    30
 10
-335.0
 20
497.93024882620148
 30
0.0
 40
6.0
  0
LINE
  8
SIZE
  6
CONTINUOUS
 62
    30
 10
-335.0
 20
497.93024882620148
 30
0.0
 11
-308.0
 21
497.93024882620148
 31
0.0
  0
LINE
  8
SIZE
  6
CONTINUOUS
 62
    30
 10
-335.0
 20
497.93024882620148
 30
0.0
 11
-308.0
 21
497.93024882620148
 31
0.0
  0
LINE
  8
SIZE
  6
CONTINUOUS
 62
    30
 10
-46.5
 20
494.14893482620141
 30
0.0
 11
-34.5
 21
494.14893482620141
 31
0.0
  0
CIRCLE
  8
SIZE
  6
CONTINUOUS
 62
    30
 10
-46.5
 20
494.14893482620141
 30
0.0
 40
6.0
  0
LINE
  8
SIZE
  6
CONTINUOUS
 62
    30
 10
-342.0
 20
625.74442182620169
 30
0.0
 11
-486.24452900000011
 21
625.74442182620169
 31
0.0
  0
TEXT
  8
SIZE
  6
CONTINUOUS
 62
    30
 10
-473.58041842857142
 20
654.72282682620153
 30
0.0
 40
64.0
  1
57
 41
0.9
 72
     1
 11
-426.95184699999999
 21
654.72282682620153
 31
0.0
  0
TEXT
  8
SIZE
  6
CONTINUOUS
 62
    30
 10
-472.60181242857129
 20
528.46199882620112
 30
0.0
 40
64.0
  1
27
 41
0.9
 72
     1
 11
-425.97324099999992
 21
528.46199882620112
 31
0.0
  0
TEXT
  8
SIZE
  6
CONTINUOUS
 62
    30
 10
-334.07142857142861
 20
780.98365482620193
 30
0.0
 40
64.0
  1
142
 41
0.9
 72
     1
 11
-265.5
 21
780.98365482620193
 31
0.0
  0
LINE
  8
SIZE
  6
CONTINUOUS
 62
    30
 10
-205.0
 20
747.91127282620164
 30
0.0
 11
-323.0
 21
747.91127282620164
 31
0.0
  0
LINE
  8
SIZE
  6
CONTINUOUS
 62
    30
 10
-347.0
 20
625.74442182620169
 30
0.0
 11
-359.0
 21
625.74442182620169
 31
0.0
  0
LINE
  8
SIZE
  6
CONTINUOUS
 62
    30
 10
-278.0
 20
625.74442182620169
 30
0.0
 11
-335.0
 21
625.74442182620169
 31
0.0
  0
LINE
  8
SIZE
  6
CONTINUOUS
 62
    30
 10
-278.0
 20
625.74442182620169
 30
0.0
 11
-335.0
 21
625.74442182620169
 31
0.0
  0
LINE
  8
SIZE
  6
CONTINUOUS
 62
    30
 10
-335.0
 20
625.74442182620169
 30
0.0
 11
-347.0
 21
625.74442182620169
 31
0.0
  0
CIRCLE
  8
SIZE
  6
CONTINUOUS
 62
    30
 10
-335.0
 20
625.74442182620169
 30
0.0
 40
6.0
  0
CIRCLE
  8
SIZE
  6
CONTINUOUS
 62
    30
 10
-278.0
 20
625.74442182620169
 30
0.0
 40
6.0
  0
LINE
  8
SIZE
  6
CONTINUOUS
 62
    30
 10
-335.0
 20
747.91127282620164
 30
0.0
 11
-323.0
 21
747.91127282620164
 31
0.0
  0
CIRCLE
  8
SIZE
  6
CONTINUOUS
 62
    30
 10
-335.0
 20
747.91127282620164
 30
0.0
 40
6.0
  0
LINE
  8
SIZE
  6
CONTINUOUS
 62
    30
 10
-150.0
 20
624.78882882620155
 30
0.0
 11
-138.0
 21
624.78882882620155
 31
0.0
  0
CIRCLE
  8
SIZE
  6
CONTINUOUS
 62
    30
 10
-150.0
 20
624.78882882620155
 30
0.0
 40
6.0
  0
LINE
  8
SIZE
  6
CONTINUOUS
 62
    30
 10
-193.0
 20
747.91127282620164
 30
0.0
 11
-205.0
 21
747.91127282620164
 31
0.0
  0
CIRCLE
  8
SIZE
  6
CONTINUOUS
 62
    30
 10
-193.0
 20
747.91127282620164
 30
0.0
 40
6.0
  0
LINE
  8
SIZE
  6
CONTINUOUS
 62
    30
 10
-193.0
 20
747.91127282620164
 30
0.0
 11
-181.0
 21
747.91127282620164
 31
0.0
  0
CIRCLE
  8
SIZE
  6
CONTINUOUS
 62
    30
 10
-193.0
 20
747.91127282620164
 30
0.0
 40
6.0
  0
LINE
  8
OUTLINE
  6
CONTINUOUS
 62
     3
 10
227.5
 20
0.0
 30
0.0
 11
227.5
 21
50.0
 31
0.0
  0
LINE
  8
OUTLINE
  6
CONTINUOUS
 62
     3
 10
227.5
 20
0.0
 30
0.0
 11
227.5
 21
50.0
 31
0.0
  0
CIRCLE
  8
SIZE
  6
CONTINUOUS
 62
    30
 10
658.63087199999973
 20
0.0
 30
0.0
 40
6.0
  0
LINE
  8
SIZE
  6
CONTINUOUS
 62
    30
 10
658.63087199999973
 20
0.0
 30
0.0
 11
658.63087199999973
 21
50.0
 31
0.0
  0
LINE
  8
SIZE
  6
CONTINUOUS
 62
    30
 10
658.63087199999973
 20
0.0
 30
0.0
 11
658.63087199999973
 21
50.0
 31
0.0
  0
LINE
  8
SIZE
  6
CONTINUOUS
 62
    30
 10
964.16046017687495
 20
0.0
 30
0.0
 11
964.16046017687495
 21
12.0
 31
0.0
  0
CIRCLE
  8
SIZE
  6
CONTINUOUS
 62
    30
 10
964.16046017687495
 20
0.0
 30
0.0
 40
6.0
  0
LINE
  8
SIZE
  6
CONTINUOUS
 62
    30
 10
964.16046017687495
 20
0.0
 30
0.0
 11
964.16046017687495
 21
12.0
 31
0.0
  0
CIRCLE
  8
SIZE
  6
CONTINUOUS
 62
    30
 10
964.16046017687495
 20
0.0
 30
0.0
 40
6.0
  0
LINE
  8
DETAIL
  6
CONTINUOUS
 62
     5
 10
227.5
 20
0.0
 30
0.0
 11
227.5
 21
50.0
 31
0.0
  0
LINE
  8
NOTE
  6
CONTINUOUS
 62
     4
 10
240.0
 20
-20.0
 30
0.0
 11
240.0
 21
20.0
 31
0.0
  0
LINE
  8
NOTE
  6
CONTINUOUS
 62
     4
 10
150.0
 20
-20.0
 30
0.0
 11
150.0
 21
20.0
 31
0.0
  0
CIRCLE
  8
FIX
  6
CONTINUOUS
 62
    11
 10
150.0
 20
0.0
 30
0.0
 40
2.5
  0
CIRCLE
  8
FIX
  6
CONTINUOUS
 62
    11
 10
240.0
 20
0.0
 30
0.0
 40
2.5
  0
LINE
  8
SIZE
  6
CONTINUOUS
 62
    30
 10
280.0
 20
0.0
 30
0.0
 11
984.16046017687495
 21
0.0
 31
0.0
  0
LINE
  8
SIZE
  6
CONTINUOUS
 62
    30
 10
239.78141899999989
 20
-8.0
 30
0.0
 11
984.16046017687495
 21
-8.0
 31
0.0
  0
LINE
  8
SIZE
  6
CONTINUOUS
 62
    30
 10
275.0
 20
0.0
 30
0.0
 11
984.16046017687495
 21
0.0
 31
0.0
  0
LINE
  8
SIZE
  6
CONTINUOUS
 62
    30
 10
275.0
 20
0.0
 30
0.0
 11
678.63087199999973
 21
0.0
 31
0.0
  0
LINE
  8
NOTE
  6
CONTINUOUS
 62
     4
 10
707.10989500000005
 20
-164.56713500000001
 30
0.0
 11
340.84980399999989
 21
-164.56713500000001
 31
0.0
  0
TEXT
  8
NOTE
  6
CONTINUOUS
 62
     4
 10
343.59411399999999
 20
-131.60286499999961
 30
0.0
 40
64.0
  1
8-φ5×8
 41
0.9
  0
LINE
  8
SIZE
  6
CONTINUOUS
 62
    30
 10
227.5
 20
-20.0
 30
0.0
 11
227.5
 21
-361.78844199999992
 31
0.0
  0
LINE
  8
SIZE
  6
CONTINUOUS
 62
    30
 10
240.0
 20
-40.0
 30
0.0
 11
240.0
 21
-494.97897499999988
 31
0.0
  0
LINE
  8
SIZE
  6
CONTINUOUS
 62
    30
 10
255.0
 20
-20.0
 30
0.0
 11
255.0
 21
-632.75798799999995
 31
0.0
  0
CIRCLE
  8
SIZE
  6
CONTINUOUS
 62
    30
 10
227.5
 20
-341.78844199999997
 30
0.0
 40
6.0
  0
LINE
  8
SIZE
  6
CONTINUOUS
 62
    30
 10
240.0
 20
-474.97897499999988
 30
0.0
 11
228.0
 21
-474.97897499999988
 31
0.0
  0
LINE
  8
SIZE
  6
CONTINUOUS
 62
    30
 10
227.5
 20
-341.78844199999997
 30
0.0
 11
215.5
 21
-341.78844199999997
 31
0.0
  0
LINE
  8
SIZE
  6
CONTINUOUS
 62
    30
 10
255.0
 20
-612.75798799999995
 30
0.0
 11
243.0
 21
-612.75798799999995
 31
0.0
  0
CIRCLE
  8
SIZE
  6
CONTINUOUS
 62
    30
 10
255.0
 20
-612.75798799999995
 30
0.0
 40
6.0
  0
CIRCLE
  8
SIZE
  6
CONTINUOUS
 62
    30
 10
240.0
 20
-474.97897499999988
 30
0.0
 40
6.0
  0
LINE
  8
DETAIL
  6
CONTINUOUS
 62
     5
 10
219.78141899999989
 20
-8.0
 30
0.0
 11
255.0
 21
-4.0
 31
0.0
  0
LINE
  8
NOTE
  6
CONTINUOUS
 62
     4
 10
220.0
 20
0.0
 30
0.0
 11
260.0
 21
0.0
 31
0.0
  0
LINE
  8
SIZE
  6
CONTINUOUS
 62
    30
 10
150.0
 20
-40.0
 30
0.0
 11
150.0
 21
-217.78120999999999
 31
0.0
  0
LINE
  8
SIZE
  6
CONTINUOUS
 62
    30
 10
150.0
 20
-197.7812099999999
 30
0.0
 11
138.0
 21
-197.7812099999999
 31
0.0
  0
CIRCLE
  8
SIZE
  6
CONTINUOUS
 62
    30
 10
150.0
 20
-197.7812099999999
 30
0.0
 40
6.0
  0
LINE
  8
NOTE
  6
CONTINUOUS
 62
     4
 10
130.0
 20
0.0
 30
0.0
 11
170.0
 21
0.0
 31
0.0
  0
LINE
  8
NOTE
  6
CONTINUOUS
 62
     4
 10
240.0
 20
0.0
 30
0.0
 11
340.84980399999989
 21
-164.56713500000001
 31
0.0
  0
LINE
  8
DETAIL
  6
CONTINUOUS
 62
     5
 10
255.0
 20
-4.0
 30
0.0
 11
255.0
 21
0.0
 31
0.0
  0
LINE
  8
NOTE
  6
CONTINUOUS
 62
     4
 10
240.0
 20
0.0
 30
0.0
 11
269.39061099999981
 21
-27.132857999999938
 31
0.0
  0
LINE
  8
NOTE
  6
CONTINUOUS
 62
     4
 10
251.88658600000011
 20
-38.193049999999971
 30
0.0
 11
240.0
 21
0.0
 31
0.0
  0
LINE
  8
SIZE
  6
CONTINUOUS
 62
    30
 10
964.16046017687495
 20
-11.36887200000001
 30
0.0
 11
964.16046017687495
 21
-100.16064399999991
 31
0.0
  0
TEXT
  8
SIZE
  6
CONTINUOUS
 62
    30
 10
935.65807517687472
 20
-71.110507000000055
 30
0.0
 40
64.0
  1
8
 50
90.0
 41
0.9
 72
     1
 11
935.65807517687472
 21
-51.910507000000052
 31
0.0
  0
LINE
  8
SIZE
  6
CONTINUOUS
 62
    30
 10
964.16046017687495
 20
-8.0
 30
0.0
 11
964.16046017687495
 21
-20.0
 31
0.0
  0
CIRCLE
  8
SIZE
  6
CONTINUOUS
 62
    30
 10
964.16046017687495
 20
-8.0
 30
0.0
 40
6.0
  0
LINE
  8
SIZE
  6
CONTINUOUS
 62
    30
 10
964.16046017687495
 20
0.0
 30
0.0
 11
964.16046017687495
 21
-8.0
 31
0.0
  0
LINE
  8
SIZE
  6
CONTINUOUS
 62
    30
 10
964.16046017687495
 20
0.0
 30
0.0
 11
964.16046017687495
 21
-8.0
 31
0.0
  0
LINE
  8
SIZE
  6
CONTINUOUS
 62
    30
 10
964.16046017687495
 20
-20.0
 30
0.0
 11
964.16046017687495
 21
-32.0
 31
0.0
  0
LINE
  8
SIZE
  6
CONTINUOUS
 62
    30
 10
66.5
 20
282.0
 30
0.0
 11
984.16046017687495
 21
282.0
 31
0.0
  0
LINE
  8
SIZE
  6
CONTINUOUS
 62
    30
 10
150.0
 20
170.0
 30
0.0
 11
150.0
 21
644.78882882620155
 31
0.0
  0
LINE
  8
SIZE
  6
CONTINUOUS
 62
    30
 10
193.0
 20
265.36160399999989
 30
0.0
 11
193.0
 21
767.91127282620164
 31
0.0
  0
LINE
  8
SIZE
  6
CONTINUOUS
 62
    30
 10
51.5
 20
296.94001400000002
 30
0.0
 11
51.5
 21
514.14893482620141
 31
0.0
  0
LINE
  8
SIZE
  6
CONTINUOUS
 62
    30
 10
247.5
 20
50.0
 30
0.0
 11
678.63087199999973
 21
50.0
 31
0.0
  0
LINE
  8
NOTE
  6
CONTINUOUS
 62
     4
 10
296.3709960000001
 20
359.64307400000013
 30
0.0
 11
537.61125400998935
 21
359.64307400000013
 31
0.0
  0
TEXT
  8
NOTE
  6
CONTINUOUS
 62
     4
 10
328.73466399999961
 20
394.64314300000001
 30
0.0
 40
64.0
  1
AH 4
 41
0.9
  0
LINE
  8
NOTE
  6
CONTINUOUS
 62
     4
 10
150.0
 20
130.0
 30
0.0
 11
296.3709960000001
 21
359.64307400000013
 31
0.0
  0
LINE
  8
OUTLINE
  6
CONTINUOUS
 62
     3
 10
193.0
 20
50.0
 30
0.0
 11
193.0
 21
250.0
 31
0.0
  0
LINE
  8
NOTE
  6
CONTINUOUS
 62
     4
 10
150.0
 20
130.0
 30
0.0
 11
162.56374599999981
 21
167.97568000000001
 31
0.0
  0
LINE
  8
DETAIL
  6
CONTINUOUS
 62
     5
 10
193.0
 20
50.0
 30
0.0
 11
193.0
 21
250.0
 31
0.0
  0
LINE
  8
DETAIL
  6
CONTINUOUS
 62
     5
 10
105.0
 20
58.0
 30
0.0
 11
126.0
 21
58.0
 31
0.0
  0
LINE
  8
DETAIL
  6
CONTINUOUS
 62
     5
 10
105.0
 20
78.0
 30
0.0
 11
126.0
 21
78.0
 31
0.0
  0
LINE
  8
DETAIL
  6
CONTINUOUS
 62
     5
 10
105.0
 20
75.0
 30
0.0
 11
126.0
 21
75.0
 31
0.0
  0
LINE
  8
DETAIL
  6
CONTINUOUS
 62
     5
 10
126.0
 20
61.0
 30
0.0
 11
105.0
 21
61.0
 31
0.0
  0
LINE
  8
BASIS
  6
DASHDOT
 62
     6
 10
91.182517997541254
 20
68.0
 30
0.0
 11
139.5543075023661
 21
68.0
 31
0.0
  0
ARC
  8
DETAIL
  6
CONTINUOUS
 62
     5
 10
105.0
 20
68.0
 30
0.0
 40
7.0
 50
90.0
 51
270.0
  0
ARC
  8
DETAIL
  6
CONTINUOUS
 62
     5
 10
105.0
 20
68.0
 30
0.0
 40
10.0
 50
90.0
 51
270.0
  0
LINE
  8
BASIS
  6
DASHDOT
 62
     6
 10
115.5
 20
54.237540999999958
 30
0.0
 11
115.5
 21
81.965836999999965
 31
0.0
  0
LINE
  8
DETAIL
  6
CONTINUOUS
 62
     5
 10
170.0
 20
130.0
 30
0.0
 11
170.0
 21
25.0
 31
0.0
  0
LINE
  8
DETAIL
  6
CONTINUOUS
 62
     5
 10
130.0
 20
25.0
 30
0.0
 11
130.0
 21
130.0
 31
0.0
  0
ARC
  8
DETAIL
  6
CONTINUOUS
 62
     5
 10
126.0
 20
68.0
 30
0.0
 40
7.0
 50
55.150095420955303
 51
90.0
  0
ARC
  8
DETAIL
  6
CONTINUOUS
 62
     5
 10
126.0
 20
68.0
 30
0.0
 40
10.0
 50
66.421821521792523
 51
90.0
  0
ARC
  8
DETAIL
  6
CONTINUOUS
 62
     5
 10
126.0
 20
68.0
 30
0.0
 40
10.0
 50
270.0
 51
293.57817847820752
  0
ARC
  8
DETAIL
  6
CONTINUOUS
 62
     5
 10
126.0
 20
68.0
 30
0.0
 40
7.0
 50
270.0
 51
304.8499045790449
  0
LINE
  8
DETAIL
  6
CONTINUOUS
 62
     5
 10
170.0
 20
25.0
 30
0.0
 11
130.0
 21
25.0
 31
0.0
  0
LINE
  8
NOTE
  6
CONTINUOUS
 62
     4
 10
179.86836299999999
 20
156.606031
 30
0.0
 11
150.0
 21
130.0
 31
0.0
  0
LINE
  8
NOTE
  6
CONTINUOUS
 62
     4
 10
170.0
 20
130.0
 30
0.0
 11
130.0
 21
130.0
 31
0.0
  0
LINE
  8
NOTE
  6
CONTINUOUS
 62
     4
 10
150.0
 20
110.0
 30
0.0
 11
150.0
 21
150.0
 31
0.0
  0
CIRCLE
  8
FIX
  6
CONTINUOUS
 62
    11
 10
150.0
 20
130.0
 30
0.0
 40
7.5
  0
LINE
  8
DETAIL
  6
CONTINUOUS
 62
     5
 10
130.0
 20
128.0
 30
0.0
 11
170.0
 21
128.0
 31
0.0
  0
LINE
  8
DETAIL
  6
CONTINUOUS
 62
     5
 10
130.0
 20
130.0
 30
0.0
 11
138.0
 21
130.0
 31
0.0
  0
LINE
  8
DETAIL
  6
CONTINUOUS
 62
     5
 10
138.0
 20
120.0
 30
0.0
 11
162.0
 21
120.0
 31
0.0
  0
LINE
  8
DETAIL
  6
CONTINUOUS
 62
     5
 10
138.0
 20
136.0
 30
0.0
 11
162.0
 21
136.0
 31
0.0
  0
LINE
  8
DETAIL
  6
CONTINUOUS
 62
     5
 10
138.0
 20
120.0
 30
0.0
 11
138.0
 21
136.0
 31
0.0
  0
LINE
  8
DETAIL
  6
CONTINUOUS
 62
     5
 10
162.0
 20
136.0
 30
0.0
 11
162.0
 21
120.0
 31
0.0
  0
LINE
  8
DETAIL
  6
CONTINUOUS
 62
     5
 10
162.0
 20
130.0
 30
0.0
 11
170.0
 21
130.0
 31
0.0
  0
ARC
  8
DETAIL
  6
CONTINUOUS
 62
     5
 10
46.5
 20
277.0
 30
0.0
 40
5.0
 50
0.0
 51
90.0
  0
LINE
  8
DETAIL
  6
CONTINUOUS
 62
     5
 10
51.5
 20
250.0
 30
0.0
 11
51.5
 21
277.0
 31
0.0
  0
LINE
  8
SIZE
  6
CONTINUOUS
 62
    30
 10
51.5
 20
494.14893482620141
 30
0.0
 11
39.5
 21
494.14893482620141
 31
0.0
  0
CIRCLE
  8
SIZE
  6
CONTINUOUS
 62
    30
 10
51.5
 20
494.14893482620141
 30
0.0
 40
6.0
  0
TEXT
  8
SIZE
  6
CONTINUOUS
 62
    30
 10
644.63813522681812
 20
154.0130418948491
 30
0.0
 40
64.0
  1
50
 50
90.0
 41
0.9
 72
     1
 11
644.63813522681812
 21
200.6416133234205
 31
0.0
  0
LINE
  8
SIZE
  6
CONTINUOUS
 62
    30
 10
658.63087199999973
 20
226.07727099999991
 30
0.0
 11
658.63087199999973
 21
50.0
 31
0.0
  0
LINE
  8
SIZE
  6
CONTINUOUS
 62
    30
 10
658.63087199999973
 20
50.0
 30
0.0
 11
658.63087199999973
 21
62.0
 31
0.0
  0
CIRCLE
  8
SIZE
  6
CONTINUOUS
 62
    30
 10
658.63087199999973
 20
50.0
 30
0.0
 40
6.0
  0
LINE
  8
SIZE
  6
CONTINUOUS
 62
    30
 10
658.63087199999973
 20
62.0
 30
0.0
 11
658.63087199999973
 21
74.0
 31
0.0
  0
TEXT
  8
SIZE
  6
CONTINUOUS
 62
    30
 10
939.16046017687495
 20
66.942857142857164
 30
0.0
 40
64.0
  1
282
 50
90.0
 41
0.9
 72
     1
 11
939.16046017687495
 21
141.0
 31
0.0
  0
LINE
  8
SIZE
  6
CONTINUOUS
 62
    30
 10
964.16046017687495
 20
12.0
 30
0.0
 11
964.16046017687495
 21
270.0
 31
0.0
  0
LINE
  8
SIZE
  6
CONTINUOUS
 62
    30
 10
964.16046017687495
 20
12.0
 30
0.0
 11
964.16046017687495
 21
24.0
 31
0.0
  0
LINE
  8
SIZE
  6
CONTINUOUS
 62
    30
 10
964.16046017687495
 20
282.0
 30
0.0
 11
964.16046017687495
 21
270.0
 31
0.0
  0
CIRCLE
  8
SIZE
  6
CONTINUOUS
 62
    30
 10
964.16046017687495
 20
282.0
 30
0.0
 40
6.0
  0
LINE
  8
SIZE
  6
CONTINUOUS
 62
    30
 10
150.0
 20
624.78882882620155
 30
0.0
 11
138.0
 21
624.78882882620155
 31
0.0
  0
CIRCLE
  8
SIZE
  6
CONTINUOUS
 62
    30
 10
150.0
 20
624.78882882620155
 30
0.0
 40
6.0
  0
LINE
  8
SIZE
  6
CONTINUOUS
 62
    30
 10
193.0
 20
747.91127282620164
 30
0.0
 11
181.0
 21
747.91127282620164
 31
0.0
  0
CIRCLE
  8
SIZE
  6
CONTINUOUS
 62
    30
 10
193.0
 20
747.91127282620164
 30
0.0
 40
6.0
  0
LINE
  8
SIZE
  6
CONTINUOUS
 62
    30
 10
280.0
 20
0.0
 30
0.0
 11
844.67632215383037
 21
-0.0000000000001137
 31
0.0
  0
LINE
  8
SIZE
  6
CONTINUOUS
 62
    30
 10
190.0
 20
130.0
 30
0.0
 11
844.67632215383037
 21
129.9999999999998
 31
0.0
  0
LINE
  8
SIZE
  6
CONTINUOUS
 62
    30
 10
824.67632215383037
 20
117.9999999999998
 30
0.0
 11
824.67632215383037
 21
11.99999999999989
 31
0.0
  0
LINE
  8
SIZE
  6
CONTINUOUS
 62
    30
 10
824.67632215383037
 20
-0.0000000000001137
 30
0.0
 11
824.67632215383037
 21
-241.33691074645529
 31
0.0
  0
CIRCLE
  8
SIZE
  6
CONTINUOUS
 62
    30
 10
824.67632215383037
 20
129.9999999999998
 30
0.0
 40
6.0
  0
LINE
  8
SIZE
  6
CONTINUOUS
 62
    30
 10
824.67632215383037
 20
129.9999999999998
 30
0.0
 11
824.67632215383037
 21
117.9999999999998
 31
0.0
  0
CIRCLE
  8
SIZE
  6
CONTINUOUS
 62
    30
 10
824.67632215383037
 20
-0.0000000000001137
 30
0.0
 40
6.0
  0
LINE
  8
SIZE
  6
CONTINUOUS
 62
    30
 10
824.67632215383037
 20
-0.0000000000001137
 30
0.0
 11
824.67632215383037
 21
11.99999999999989
 31
0.0
  0
TEXT
  8
SIZE
  6
CONTINUOUS
 62
    30
 10
799.67632215383037
 20
-216.33691074645509
 30
0.0
 40
64.0
  1
130
 50
90.0
 41
0.9
 72
     1
 11
799.67632215383037
 21
-147.76548217502659
 31
0.0
  0
POINT
  8
DEFPOINTS
  6
CONTINUOUS
 62
    30
 10
260.0
 20
0.0
 30
0.0
  0
POINT
  8
DEFPOINTS
  6
CONTINUOUS
 62
    30
 10
170.0
 20
130.0
 30
0.0
  0
POINT
  8
DEFPOINTS
  6
CONTINUOUS
 62
    30
 10
824.67632215383037
 20
129.9999999999998
 30
0.0
  0
LINE
  8
OUTLINE
  6
CONTINUOUS
 62
     3
 10
-278.0
 20
105.0
 30
0.0
 11
-193.0
 21
105.0
 31
0.0
  0
LINE
  8
OUTLINE
  6
CONTINUOUS
 62
     3
 10
-278.0
 20
265.0
 30
0.0
 11
-194.7499999999998
 21
265.0
 31
0.0
  0
LINE
  8
OUTLINE
  6
CONTINUOUS
 62
     3
 10
-335.0
 20
113.0
 30
0.0
 11
-335.0
 21
257.0
 31
0.0
  0
LINE
  8
OUTLINE
  6
CONTINUOUS
 62
     3
 10
-278.0
 20
105.0
 30
0.0
 11
-278.0
 21
265.0
 31
0.0
  0
LINE
  8
OUTLINE
  6
CONTINUOUS
 62
     3
 10
-308.0
 20
109.0
 30
0.0
 11
-308.0
 21
261.0
 31
0.0
  0
LINE
  8
OUTLINE
  6
CONTINUOUS
 62
     3
 10
-308.0
 20
109.0
 30
0.0
 11
-278.0
 21
109.0
 31
0.0
  0
LINE
  8
OUTLINE
  6
CONTINUOUS
 62
     3
 10
-335.0
 20
113.0
 30
0.0
 11
-308.0
 21
113.0
 31
0.0
  0
LINE
  8
OUTLINE
  6
CONTINUOUS
 62
     3
 10
-308.0
 20
261.0
 30
0.0
 11
-278.0
 21
261.0
 31
0.0
  0
LINE
  8
OUTLINE
  6
CONTINUOUS
 62
     3
 10
-335.0
 20
257.0
 30
0.0
 11
-308.0
 21
257.0
 31
0.0
  0
LINE
  8
OUTLINE
  6
CONTINUOUS
 62
     3
 10
-194.7499999999998
 20
279.0
 30
0.0
 11
-194.7499999999998
 21
50.0
 31
0.0
  0
LINE
  8
OUTLINE
  6
CONTINUOUS
 62
     3
 10
-193.0
 20
50.0
 30
0.0
 11
-193.0
 21
279.0
 31
0.0
  0
LINE
  8
OUTLINE
  6
CONTINUOUS
 62
     3
 10
-198.25
 20
105.0
 30
0.0
 11
-198.25
 21
50.0
 31
0.0
  0
LINE
  8
OUTLINE
  6
CONTINUOUS
 62
     3
 10
-198.25
 20
279.0
 30
0.0
 11
-193.0
 21
279.0
 31
0.0
  0
LINE
  8
OUTLINE
  6
CONTINUOUS
 62
     3
 10
-198.25
 20
279.0
 30
0.0
 11
-198.25
 21
265.0
 31
0.0
  0
LINE
  8
OUTLINE
  6
CONTINUOUS
 62
     3
 10
-194.7499999999998
 20
279.0
 30
0.0
 11
-193.0
 21
279.0
 31
0.0
  0
ENDSEC
  0
EOF
