  0
SECTION
  2
HEADER
  9
$ACADVER
  1
AC1009
  9
$DWGCODEPAGE
  3
dos932
  9
$INSBASE
 10
0.0
 20
0.0
 30
0.0
  9
$EXTMIN
 10
-717.84666323550846
 20
-617.79784005810325
 30
-0.0015258207003583
  9
$EXTMAX
 10
1361.824047602508
 20
1045.257576910381
 30
0.0000000349246037
  9
$LIMMIN
 10
-2970.0
 20
-2100.0
  9
$LIMMAX
 10
2970.0
 20
2100.0
  9
$ORTHOMODE
 70
     1
  9
$REGENMODE
 70
     1
  9
$FILLMODE
 70
     1
  9
$QTEXTMODE
 70
     0
  9
$MIRRTEXT
 70
     0
  9
$LTSCALE
 40
20.0
  9
$ATTMODE
 70
     1
  9
$TEXTSIZE
 40
64.0
  9
$TRACEWID
 40
0.05
  9
$TEXTSTYLE
  7
STANDARD
  9
$CLAYER
  8
SIZE
  9
$CELTYPE
  6
CONTINUOUS
  9
$CECOLOR
 62
     7
  9
$DIMSCALE
 40
1.0
  9
$DIMASZ
 40
12.0
  9
$DIMEXO
 40
20.0
  9
$DIMDLI
 40
200.0
  9
$DIMRND
 40
0.0
  9
$DIMDLE
 40
0.0
  9
$DIMEXE
 40
20.0
  9
$DIMTP
 40
0.0
  9
$DIMTM
 40
0.0
  9
$DIMTXT
 40
64.0
  9
$DIMCEN
 40
0.09
  9
$DIMTSZ
 40
0.0
  9
$DIMTOL
 70
     0
  9
$DIMLIM
 70
     0
  9
$DIMTIH
 70
     0
  9
$DIMTOH
 70
     0
  9
$DIMSE1
 70
     0
  9
$DIMSE2
 70
     0
  9
$DIMTAD
 70
     1
  9
$DIMZIN
 70
     8
  9
$DIMBLK
  1

  9
$DIMASO
 70
     1
  9
$DIMSHO
 70
     0
  9
$DIMPOST
  1

  9
$DIMAPOST
  1

  9
$DIMALT
 70
     0
  9
$DIMALTD
 70
     2
  9
$DIMALTF
 40
25.399999999999999
  9
$DIMLFAC
 40
1.0
  9
$DIMTOFL
 70
     1
  9
$DIMTVP
 40
0.0
  9
$DIMTIX
 70
     1
  9
$DIMSOXD
 70
     0
  9
$DIMSAH
 70
     0
  9
$DIMBLK1
  1

  9
$DIMBLK2
  1

  9
$DIMSTYLE
  2
STANDARD
  9
$DIMCLRD
 70
     7
  9
$DIMCLRE
 70
     7
  9
$DIMCLRT
 70
     7
  9
$DIMTFAC
 40
1.0
  9
$DIMGAP
 40
25.0
  9
$LUNITS
 70
     2
  9
$LUPREC
 70
     4
  9
$SKETCHINC
 40
0.1
  9
$FILLETRAD
 40
3.0
  9
$AUNITS
 70
     1
  9
$AUPREC
 70
     3
  9
$MENU
  1
ACAD
  9
$ELEVATION
 40
0.0
  9
$PELEVATION
 40
0.0
  9
$THICKNESS
 40
0.0
  9
$LIMCHECK
 70
     0
  9
$CHAMFERA
 40
0.0
  9
$CHAMFERB
 40
0.0
  9
$SKPOLY
 70
     0
  9
$TDCREATE
 40
2453019.62301037
  9
$TDUPDATE
 40
2459025.52389331
  9
$TDINDWG
 40
1.7144372801
  9
$TDUSRTIMER
 40
1.7144372801
  9
$USRTIMER
 70
     1
  9
$ANGBASE
 50
0.0
  9
$ANGDIR
 70
     0
  9
$PDMODE
 70
     3
  9
$PDSIZE
 40
-2.0
  9
$PLINEWID
 40
0.0
  9
$SPLFRAME
 70
     0
  9
$SPLINETYPE
 70
     6
  9
$SPLINESEGS
 70
     8
  9
$SURFTAB1
 70
     6
  9
$SURFTAB2
 70
     6
  9
$SURFTYPE
 70
     6
  9
$SURFU
 70
     6
  9
$SURFV
 70
     6
  9
$UCSNAME
  2

  9
$UCSORG
 10
0.0
 20
0.0
 30
0.0
  9
$UCSXDIR
 10
1.0
 20
0.0
 30
0.0
  9
$UCSYDIR
 10
0.0
 20
1.0
 30
0.0
  9
$PUCSNAME
  2

  9
$PUCSORG
 10
0.0
 20
0.0
 30
0.0
  9
$PUCSXDIR
 10
1.0
 20
0.0
 30
0.0
  9
$PUCSYDIR
 10
0.0
 20
1.0
 30
0.0
  9
$USERI1
 70
     0
  9
$USERI2
 70
     0
  9
$USERI3
 70
     0
  9
$USERI4
 70
     0
  9
$USERI5
 70
     0
  9
$USERR1
 40
20.0
  9
$USERR2
 40
0.0
  9
$USERR3
 40
0.0
  9
$USERR4
 40
0.0
  9
$USERR5
 40
0.0
  9
$WORLDVIEW
 70
     1
  9
$SHADEDGE
 70
     3
  9
$SHADEDIF
 70
    70
  9
$TILEMODE
 70
     1
  9
$MAXACTVP
 70
    48
  9
$PINSBASE
 10
0.0
 20
0.0
 30
0.0
  9
$PLIMCHECK
 70
     0
  9
$PEXTMIN
 10
-100000000000000000000.0
 20
-100000000000000000000.0
 30
-100000000000000000000.0
  9
$PEXTMAX
 10
100000000000000000000.0
 20
100000000000000000000.0
 30
100000000000000000000.0
  9
$PLIMMIN
 10
0.0
 20
0.0
  9
$PLIMMAX
 10
12.0
 20
9.0
  9
$UNITMODE
 70
     0
  9
$VISRETAIN
 70
     0
  9
$PLINEGEN
 70
     0
  9
$PSLTSCALE
 70
     0
  9
$TREEDEPTH
 70
  3020
  9
$ATTDIA
 70
     0
  9
$ATTREQ
 70
     1
  9
$BLIPMODE
 70
     1
  9
$COORDS
 70
     1
  9
$DRAGMODE
 70
     2
  9
$OSMODE
 70
     0
  9
$HANDLING
 70
     0
  9
$HANDSEED
  5
1010A
  0
ENDSEC
  0
SECTION
  2
TABLES
  0
TABLE
  2
LTYPE
 70
     2
  0
LTYPE
  2
CONTINUOUS
 70
     0
  3
実線
 72
    65
 73
     0
 40
0.0
  0
LTYPE
  2
DASHDOT
 70
     0
  3
____ _ ____ _ ____ _ ____ _ ____ _ ____ _ ____
 72
    65
 73
     4
 40
5.5
 49
4.0
 49
-0.6
 49
0.3
 49
-0.6
  0
ENDTAB
  0
TABLE
  2
LAYER
 70
    12
  0
LAYER
  2
0
 70
     0
 62
     7
  6
CONTINUOUS
  0
LAYER
  2
BASIS
 70
     0
 62
     6
  6
DASHDOT
  0
LAYER
  2
OUTLINE
 70
     0
 62
     3
  6
CONTINUOUS
  0
LAYER
  2
DETAIL
 70
     0
 62
     5
  6
CONTINUOUS
  0
LAYER
  2
SIZE
 70
     0
 62
    30
  6
CONTINUOUS
  0
LAYER
  2
ARRANGE
 70
     0
 62
     1
  6
CONTINUOUS
  0
LAYER
  2
DEFPOINTS
 70
     0
 62
     7
  6
CONTINUOUS
  0
LAYER
  2
ETC
 70
     0
 62
    61
  6
CONTINUOUS
  0
LAYER
  2
FIX
 70
     0
 62
    11
  6
CONTINUOUS
  0
LAYER
  2
NOTE
 70
     0
 62
     4
  6
CONTINUOUS
  0
LAYER
  2
SERVICESPACE
 70
    64
 62
     2
  6
DASHDOT
  0
LAYER
  2
SYMBOLLINE
 70
    64
 62
    15
  6
CONTINUOUS
  0
ENDTAB
  0
TABLE
  2
STYLE
 70
     1
  0
STYLE
  2
STANDARD
 70
     0
 40
64.0
 41
0.9
 50
0.0
 71
     0
 42
64.0
  3
SIMPLEX.shx
  4
BIGFONT.shx
  0
ENDTAB
  0
TABLE
  2
APPID
 70
    19
  0
APPID
  2
ACAD
 70
     0
  0
APPID
  2
AUTOCAD_POSTSCRIPT_FIGURE
 70
     0
  0
APPID
  2
ACAD_EXEMPT_FROM_CAD_STANDARDS
 70
     0
  0
APPID
  2
ACAD_PSEXT
 70
     0
  0
APPID
  2
ACAUTHENVIRON
 70
     0
  0
APPID
  2
GENIUS_GENOENT_13
 70
     0
  0
APPID
  2
GENIUS_GENCFG_13
 70
     0
  0
APPID
  2
GENIUS_GENCFG0_13
 70
     0
  0
APPID
  2
GENIUS_GENCFG1_13
 70
     0
  0
APPID
  2
GENIUS_GENCFG2_13
 70
     0
  0
APPID
  2
GENIUS_GENCFG3_13
 70
     0
  0
APPID
  2
GENIUS_GENCFG4_13
 70
     0
  0
APPID
  2
GENIUS_GEVCFG0_13
 70
     0
  0
APPID
  2
CONTENTBLOCKICON
 70
     0
  0
APPID
  2
CONTENTBLOCKDESCRIPTION
 70
     0
  0
APPID
  2
ACAD_NAV_VCDISPLAY
 70
     0
  0
APPID
  2
ACAD_MLEADERVER
 70
     0
  0
APPID
  2
ACDBDYNAMICBLOCKTRUENAME
 70
     0
  0
APPID
  2
ACDBDYNAMICBLOCKGUID
 70
     0
  0
ENDTAB
  0
TABLE
  2
DIMSTYLE
 70
     1
  0
DIMSTYLE
  2
STANDARD
 70
     0
  3

  4

  5
_ORIGIN
  6

  7

 40
1.0
 41
12.0
 42
20.0
 43
200.0
 44
20.0
 45
0.0
 46
0.0
 47
0.0
 48
0.0
140
64.0
141
0.09
142
0.0
143
25.399999999999999
144
1.0
145
0.0
146
1.0
147
25.0
 71
     0
 72
     0
 73
     0
 74
     0
 75
     0
 76
     0
 77
     1
 78
     8
170
     0
171
     2
172
     1
173
     0
174
     1
175
     0
176
     7
177
     7
178
     7
  0
ENDTAB
  0
TABLE
  2
VIEW
 70
     1
  0
VIEW
  2
ALL
 70
     0
 40
4282.6198079999986
 10
0.0
 20
41.309904000000003
 41
5940.0
 11
0.0
 21
0.0
 31
1.0
 12
0.0
 22
0.0
 32
0.0
 42
50.0
 43
0.0
 44
0.0
 50
0.0
 71
     0
  0
ENDTAB
  0
TABLE
  2
UCS
 70
     0
  0
ENDTAB
  0
TABLE
  2
VPORT
 70
     1
  0
VPORT
  2
*ACTIVE
 70
     0
 10
0.0
 20
0.0
 11
1.0
 21
1.0
 12
321.98869218349932
 22
213.72986842613849
 13
0.0
 23
0.0
 14
1.0
 24
1.0
 15
0.0
 25
0.0
 16
0.0
 26
0.0
 36
1.0
 17
0.0
 27
0.0
 37
0.0
 40
1674.08119873844
 41
1.747787610619469
 42
50.0
 43
0.0
 44
0.0
 50
0.0
 51
0.0
 71
     0
 72
  1000
 73
     1
 74
     3
 75
     0
 76
     0
 77
     0
 78
     0
  0
ENDTAB
  0
ENDSEC
  0
SECTION
  2
BLOCKS
  0
BLOCK
  8
0
  2
_ORIGIN
 70
     0
 10
0.0
 20
0.0
 30
0.0
  3
_ORIGIN
  1
_ORIGIN
  0
CIRCLE
  8
0
  6
CONTINUOUS
 62
     7
 10
0.0
 20
0.0
 30
0.0
 40
0.5
  0
LINE
  8
0
  6
CONTINUOUS
 62
     7
 10
0.0
 20
0.0
 30
0.0
 11
-1.0
 21
0.0
 31
0.0
  0
ENDBLK
  8
0
  0
ENDSEC
  0
SECTION
  2
ENTITIES
  0
LINE
  8
BASIS
  6
DASHDOT
 62
     6
 10
0.0
 20
-109.2854010143142
 30
0.0
 11
0.0
 21
363.75426922658062
 31
0.0
  0
LINE
  8
BASIS
  6
DASHDOT
 62
     6
 10
-125.4561247050906
 20
0.0
 30
0.0
 11
125.4561247050906
 21
0.0
 31
0.0
  0
TEXT
  8
ETC
  6
CONTINUOUS
 62
    61
 10
571.85977145661127
 20
981.0371527387299
 30
0.0
 40
64.0
  1
VD-23ZXP13-Z_5
 41
0.9
  0
TEXT
  8
ETC
  6
CONTINUOUS
 62
    61
 10
567.67377745661088
 20
863.08184272389872
 30
0.0
 40
64.0
  1
換気扇
 41
0.9
  0
TEXT
  8
ETC
  6
CONTINUOUS
 62
    61
 10
618.37517570516684
 20
754.93306983767343
 30
0.0
 40
40.0
  1
VD-23ZXP13-Z
 41
0.9
  0
TEXT
  8
ETC
  6
CONTINUOUS
 62
    61
 10
618.37517570516684
 20
688.93306983767343
 30
0.0
 40
40.0
  1
VD-23ZNP13-Z
 41
0.9
  0
LINE
  8
NOTE
  6
CONTINUOUS
 62
     4
 10
149.99999999999989
 20
-20.000002210361341
 30
0.0
 11
149.99999999999989
 21
19.999997789638659
 31
0.0
  0
LINE
  8
NOTE
  6
CONTINUOUS
 62
     4
 10
240.0
 20
-19.999999911585519
 30
0.0
 11
240.0
 21
20.000000088414481
 31
0.0
  0
LINE
  8
NOTE
  6
CONTINUOUS
 62
     4
 10
124.6855078735026
 20
278.15016102194022
 30
0.0
 11
164.68550787350259
 21
278.15016102194022
 31
0.0
  0
LINE
  8
NOTE
  6
CONTINUOUS
 62
     4
 10
144.68550787350259
 20
258.15016102194022
 30
0.0
 11
144.68550787350259
 21
298.15016102194022
 31
0.0
  0
LINE
  8
NOTE
  6
CONTINUOUS
 62
     4
 10
-150.0
 20
-20.000000110518041
 30
0.0
 11
-150.0
 21
19.999999889481959
 31
0.0
  0
LINE
  8
NOTE
  6
CONTINUOUS
 62
     4
 10
-240.0
 20
-20.0
 30
0.0
 11
-240.0
 21
20.0
 31
0.0
  0
LINE
  8
NOTE
  6
CONTINUOUS
 62
     4
 10
-155.96556898725191
 20
140.41211387267899
 30
0.0
 11
-280.50374277501493
 21
357.56296165379513
 31
0.0
  0
LINE
  8
NOTE
  6
CONTINUOUS
 62
     4
 10
-280.50374277501493
 20
357.56296165379513
 30
0.0
 11
-502.70536053985597
 21
357.56296165379513
 31
0.0
  0
TEXT
  8
NOTE
  6
CONTINUOUS
 62
     4
 10
-490.7929586208827
 20
386.5159433785177
 30
0.0
 40
64.0
  1
AH 4
 41
0.9
 72
     2
 11
-294.40438719231128
 21
386.5159433785177
 31
0.0
  0
CIRCLE
  8
FIX
  6
CONTINUOUS
 62
    11
 10
-240.0
 20
0.0
 30
0.0
 40
5.0
  0
CIRCLE
  8
FIX
  6
CONTINUOUS
 62
    11
 10
-150.0
 20
-0.0000001105181582
 30
0.0
 40
5.0
  0
CIRCLE
  8
FIX
  6
CONTINUOUS
 62
    11
 10
149.99999999999989
 20
-0.0000022103613446
 30
0.0
 40
5.0
  0
CIRCLE
  8
FIX
  6
CONTINUOUS
 62
    11
 10
240.0
 20
0.0000000884143674
 30
0.0
 40
5.0
  0
TEXT
  8
NOTE
  6
CONTINUOUS
 62
     4
 10
361.74058389126412
 20
183.10555132314971
 30
0.0
 40
64.0
  1
EA
 41
0.9
  0
TEXT
  8
NOTE
  6
CONTINUOUS
 62
     4
 10
-702.75561875553933
 20
-162.30992226959279
 30
0.0
 40
64.0
  1
8-φ5×8
 41
0.9
 72
     2
 11
-345.08704732696788
 21
-162.30992226959279
 31
0.0
  0
TEXT
  8
NOTE
  6
CONTINUOUS
 62
     4
 10
395.00994283097037
 20
555.78919800042513
 30
0.0
 40
64.0
  1
EL
 41
0.9
  0
LINE
  8
BASIS
  6
DASHDOT
 62
     6
 10
-265.00000000000091
 20
-0.0000005857457381
 30
0.0
 11
265.00000000000091
 21
0.0000005857457381
 31
0.0
  0
LINE
  8
SIZE
  6
CONTINUOUS
 62
    30
 10
24.433568086759809
 20
328.05006336569068
 30
0.0
 11
1079.500346683541
 21
328.05006336569039
 31
0.0
  0
LINE
  8
SIZE
  6
CONTINUOUS
 62
    30
 10
285.00000000000091
 20
0.0000005857457381
 30
0.0
 11
1079.500346683541
 21
0.0000005857455108
 31
0.0
  0
LINE
  8
SIZE
  6
CONTINUOUS
 62
    30
 10
1059.500346683541
 20
316.05006336569039
 30
0.0
 11
1059.500346683541
 21
12.000000585745511
 31
0.0
  0
CIRCLE
  8
SIZE
  6
CONTINUOUS
 62
    30
 10
1059.500346683541
 20
328.05006336569039
 30
0.0
 40
6.0
  0
LINE
  8
SIZE
  6
CONTINUOUS
 62
    30
 10
1059.500346683541
 20
328.05006336569039
 30
0.0
 11
1059.500346683541
 21
316.05006336569039
 31
0.0
  0
CIRCLE
  8
SIZE
  6
CONTINUOUS
 62
    30
 10
1059.500346683541
 20
0.0000005857455108
 30
0.0
 40
6.0
  0
LINE
  8
SIZE
  6
CONTINUOUS
 62
    30
 10
1059.500346683541
 20
0.0000005857455108
 30
0.0
 11
1059.500346683541
 21
12.000000585745511
 31
0.0
  0
TEXT
  8
SIZE
  6
CONTINUOUS
 62
    30
 10
1034.500346683541
 20
85.160913973507704
 30
0.0
 40
64.0
  1
328
 50
90.0
 41
0.9
 72
     1
 11
1034.500346683541
 21
159.21805683065051
 31
0.0
  0
POINT
  8
DEFPOINTS
  6
CONTINUOUS
 62
    30
 10
4.4335680867598057
 20
328.05006336569068
 30
0.0
  0
POINT
  8
DEFPOINTS
  6
CONTINUOUS
 62
    30
 10
265.00000000000091
 20
0.0000005857457381
 30
0.0
  0
POINT
  8
DEFPOINTS
  6
CONTINUOUS
 62
    30
 10
1059.500346683541
 20
0.0000005857455108
 30
0.0
  0
LINE
  8
SIZE
  6
CONTINUOUS
 62
    30
 10
285.00000000000091
 20
0.0000005857457381
 30
0.0
 11
431.74217819996738
 21
0.0000005857457381
 31
0.0
  0
LINE
  8
SIZE
  6
CONTINUOUS
 62
    30
 10
237.78443788024649
 20
-8.0000000000002274
 30
0.0
 11
431.74217819996738
 21
-8.0000000000003411
 31
0.0
  0
LINE
  8
SIZE
  6
CONTINUOUS
 62
    30
 10
411.74217819996738
 20
12.00000058574574
 30
0.0
 11
411.74217819996738
 21
24.000000585745742
 31
0.0
  0
LINE
  8
SIZE
  6
CONTINUOUS
 62
    30
 10
411.74217819996738
 20
-20.000000000000231
 30
0.0
 11
411.74217819996738
 21
-143.71428571428601
 31
0.0
  0
LINE
  8
SIZE
  6
CONTINUOUS
 62
    30
 10
411.74217819996738
 20
0.0000005857457381
 30
0.0
 11
411.74217819996738
 21
-8.0000000000002274
 31
0.0
  0
CIRCLE
  8
SIZE
  6
CONTINUOUS
 62
    30
 10
411.74217819996738
 20
0.0000005857457381
 30
0.0
 40
6.0
  0
LINE
  8
SIZE
  6
CONTINUOUS
 62
    30
 10
411.74217819996738
 20
0.0000005857457381
 30
0.0
 11
411.74217819996738
 21
12.00000058574574
 31
0.0
  0
CIRCLE
  8
SIZE
  6
CONTINUOUS
 62
    30
 10
411.74217819996738
 20
-8.0000000000002274
 30
0.0
 40
6.0
  0
LINE
  8
SIZE
  6
CONTINUOUS
 62
    30
 10
411.74217819996738
 20
-8.0000000000002274
 30
0.0
 11
411.74217819996738
 21
-20.000000000000341
 31
0.0
  0
TEXT
  8
SIZE
  6
CONTINUOUS
 62
    30
 10
386.74217819996738
 20
-118.71428571428601
 30
0.0
 40
64.0
  1
8
 50
90.0
 41
0.9
 72
     1
 11
386.74217819996738
 21
-99.514285714285961
 31
0.0
  0
POINT
  8
DEFPOINTS
  6
CONTINUOUS
 62
    30
 10
265.00000000000091
 20
0.0000005857457381
 30
0.0
  0
POINT
  8
DEFPOINTS
  6
CONTINUOUS
 62
    30
 10
217.78443788024649
 20
-8.0000000000002274
 30
0.0
  0
POINT
  8
DEFPOINTS
  6
CONTINUOUS
 62
    30
 10
411.74217819996738
 20
-8.0000000000002274
 30
0.0
  0
LINE
  8
NOTE
  6
CONTINUOUS
 62
     4
 10
-240.9323237645352
 20
-6.1412923467363498
 30
0.0
 11
-240.0
 21
0.0
 31
0.0
  0
LINE
  8
NOTE
  6
CONTINUOUS
 62
     4
 10
-240.0
 20
0.0
 30
0.0
 11
-243.87806955022671
 21
-4.8523474580459833
 31
0.0
  0
LINE
  8
NOTE
  6
CONTINUOUS
 62
     4
 10
-240.0
 20
0.0
 30
0.0
 11
-244.81039331476191
 21
-10.99363980478233
 31
0.0
  0
LINE
  8
NOTE
  6
CONTINUOUS
 62
     4
 10
-244.81039331476191
 20
-10.99363980478233
 30
0.0
 11
-331.67143064482292
 21
-209.87364122914349
 31
0.0
  0
LINE
  8
NOTE
  6
CONTINUOUS
 62
     4
 10
-331.67143064482292
 20
-209.87364122914349
 30
0.0
 11
-717.5628592162517
 21
-209.87364122914349
 31
0.0
  0
LINE
  8
NOTE
  6
CONTINUOUS
 62
     4
 10
147.47201340630721
 20
283.70174513871711
 30
0.0
 11
144.68550787350259
 21
278.15016102194022
 31
0.0
  0
LINE
  8
NOTE
  6
CONTINUOUS
 62
     4
 10
144.68550787350259
 20
278.15016102194022
 30
0.0
 11
149.87448965662969
 21
281.56471331241318
 31
0.0
  0
LINE
  8
NOTE
  6
CONTINUOUS
 62
     4
 10
144.68550787350259
 20
278.15016102194022
 30
0.0
 11
152.66099518943429
 21
287.11629742919013
 31
0.0
  0
LINE
  8
NOTE
  6
CONTINUOUS
 62
     4
 10
152.66099518943429
 20
287.11629742919013
 30
0.0
 11
371.22549745373908
 21
532.82907502583976
 31
0.0
  0
LINE
  8
NOTE
  6
CONTINUOUS
 62
     4
 10
371.22549745373908
 20
532.82907502583976
 30
0.0
 11
493.25406888231049
 21
532.82907502583976
 31
0.0
  0
LINE
  8
DETAIL
  6
CONTINUOUS
 62
     5
 10
-94.999999999999091
 20
57.399999999997483
 30
0.0
 11
-74.000000000000909
 21
57.399999999997483
 31
0.0
  0
LINE
  8
DETAIL
  6
CONTINUOUS
 62
     5
 10
-94.999999999999091
 20
77.399999999997249
 30
0.0
 11
-74.000000000000909
 21
77.399999999997249
 31
0.0
  0
ARC
  8
DETAIL
  6
CONTINUOUS
 62
     5
 10
-94.999999999999091
 20
67.399999999997476
 30
0.0
 40
9.9999999999999609
 50
90.0
 51
270.0
  0
LINE
  8
DETAIL
  6
CONTINUOUS
 62
     5
 10
-74.000000000000909
 20
60.399999999997483
 30
0.0
 11
-94.999999999999091
 21
60.399999999997483
 31
0.0
  0
ARC
  8
DETAIL
  6
CONTINUOUS
 62
     5
 10
-94.999999999999091
 20
67.399999999997476
 30
0.0
 40
6.9999999999999378
 50
90.0
 51
270.0
  0
LINE
  8
DETAIL
  6
CONTINUOUS
 62
     5
 10
-94.999999999999091
 20
74.399999999997476
 30
0.0
 11
-74.000000000000909
 21
74.399999999997476
 31
0.0
  0
ARC
  8
DETAIL
  6
CONTINUOUS
 62
     5
 10
-74.000000000000909
 20
67.399999999997476
 30
0.0
 40
10.00000000000006
 50
270.0
 51
90.0
  0
ARC
  8
DETAIL
  6
CONTINUOUS
 62
     5
 10
-74.000000000000909
 20
67.399999999997476
 30
0.0
 40
7.0000000000000311
 50
270.0
 51
90.0
  0
ARC
  8
DETAIL
  6
CONTINUOUS
 62
     5
 10
125.9999999999991
 20
67.399999999997476
 30
0.0
 40
10.00000000000006
 50
270.0
 51
90.0
  0
ARC
  8
DETAIL
  6
CONTINUOUS
 62
     5
 10
105.0000000000009
 20
67.399999999997476
 30
0.0
 40
9.9999999999999609
 50
90.0
 51
270.0
  0
LINE
  8
DETAIL
  6
CONTINUOUS
 62
     5
 10
105.0000000000009
 20
57.399999999997483
 30
0.0
 11
125.9999999999991
 21
57.399999999997483
 31
0.0
  0
LINE
  8
DETAIL
  6
CONTINUOUS
 62
     5
 10
105.0000000000009
 20
77.399999999997249
 30
0.0
 11
125.9999999999991
 21
77.399999999997249
 31
0.0
  0
ARC
  8
DETAIL
  6
CONTINUOUS
 62
     5
 10
125.9999999999991
 20
67.399999999997476
 30
0.0
 40
7.0000000000000311
 50
270.0
 51
90.0
  0
LINE
  8
DETAIL
  6
CONTINUOUS
 62
     5
 10
125.9999999999991
 20
60.399999999997483
 30
0.0
 11
105.0000000000009
 21
60.399999999997483
 31
0.0
  0
ARC
  8
DETAIL
  6
CONTINUOUS
 62
     5
 10
105.0000000000009
 20
67.399999999997476
 30
0.0
 40
6.9999999999999378
 50
90.0
 51
270.0
  0
LINE
  8
DETAIL
  6
CONTINUOUS
 62
     5
 10
105.0000000000009
 20
74.399999999997476
 30
0.0
 11
125.9999999999991
 21
74.399999999997476
 31
0.0
  0
ARC
  8
DETAIL
  6
CONTINUOUS
 62
     5
 10
-191.4500110507006
 20
276.90028331874902
 30
0.0
 40
1.2500000000000191
 50
90.0
 51
180.0
  0
LINE
  8
DETAIL
  6
CONTINUOUS
 62
     5
 10
-192.7000110507006
 20
271.45018566250002
 30
0.0
 11
-192.7000110507006
 21
276.90028331874902
 31
0.0
  0
ARC
  8
DETAIL
  6
CONTINUOUS
 62
     5
 10
-192.10000187754579
 20
269.30018566249998
 30
0.0
 40
0.8999999999998563
 50
90.0
 51
180.0
  0
ARC
  8
DETAIL
  6
CONTINUOUS
 62
     5
 10
-191.4500110507006
 20
271.45018566250002
 30
0.0
 40
1.2499999999999309
 50
180.0
 51
270.0
  0
LINE
  8
DETAIL
  6
CONTINUOUS
 62
     5
 10
-191.46749610334609
 20
278.15016102193982
 30
0.0
 11
188.0000018775454
 21
278.15016102194022
 31
0.0
  0
LINE
  8
DETAIL
  6
CONTINUOUS
 62
     5
 10
188.0000018775454
 20
270.20018566250002
 30
0.0
 11
-191.4500110507006
 21
270.20018566250002
 31
0.0
  0
LINE
  8
DETAIL
  6
CONTINUOUS
 62
     5
 10
-193.00000187754719
 20
50.599999999997522
 30
0.0
 11
-193.00000187753631
 21
269.30018566249998
 31
0.0
  0
LINE
  8
DETAIL
  6
CONTINUOUS
 62
     5
 10
-211.20000019073541
 20
69.599999999997294
 30
0.0
 11
-208.40000019073429
 21
69.599999999997294
 31
0.0
  0
LINE
  8
DETAIL
  6
CONTINUOUS
 62
     5
 10
-211.20000019073541
 20
69.599999999997294
 30
0.0
 11
-211.80000019073401
 21
68.999999999997385
 31
0.0
  0
LINE
  8
DETAIL
  6
CONTINUOUS
 62
     5
 10
-207.80000019073401
 20
68.999999999997385
 30
0.0
 11
-208.40000019073429
 21
69.599999999997294
 31
0.0
  0
LINE
  8
DETAIL
  6
CONTINUOUS
 62
     5
 10
-211.80000019073401
 20
56.099999999997287
 30
0.0
 11
-211.80000019073401
 21
68.999999999997385
 31
0.0
  0
LINE
  8
DETAIL
  6
CONTINUOUS
 62
     5
 10
-207.80000019073401
 20
56.099999999997287
 30
0.0
 11
-207.80000019073401
 21
68.999999999997385
 31
0.0
  0
LINE
  8
DETAIL
  6
CONTINUOUS
 62
     5
 10
211.20000019073359
 20
69.599999999997294
 30
0.0
 11
208.40000019073429
 21
69.599999999997294
 31
0.0
  0
LINE
  8
DETAIL
  6
CONTINUOUS
 62
     5
 10
211.20000019073359
 20
69.599999999997294
 30
0.0
 11
211.80000019073401
 21
68.999999999997385
 31
0.0
  0
LINE
  8
DETAIL
  6
CONTINUOUS
 62
     5
 10
207.8000001907358
 20
68.999999999997385
 30
0.0
 11
208.40000019073429
 21
69.599999999997294
 31
0.0
  0
LINE
  8
DETAIL
  6
CONTINUOUS
 62
     5
 10
211.80000019073401
 20
56.099999999997287
 30
0.0
 11
211.80000019073401
 21
68.999999999997385
 31
0.0
  0
LINE
  8
DETAIL
  6
CONTINUOUS
 62
     5
 10
207.8000001907358
 20
56.099999999997287
 30
0.0
 11
207.8000001907358
 21
68.999999999997385
 31
0.0
  0
LINE
  8
DETAIL
  6
CONTINUOUS
 62
     5
 10
255.00000000000091
 20
-3.3135268672228899
 30
0.0
 11
255.00000000000091
 21
-0.0000000000002274
 31
0.0
  0
ARC
  8
DETAIL
  6
CONTINUOUS
 62
     5
 10
220.39221894010831
 20
191.98299797218709
 30
0.0
 40
200.00000000000031
 50
269.25290458650761
 51
279.47898029036918
  0
ARC
  8
DETAIL
  6
CONTINUOUS
 62
     5
 10
253.00000000000091
 20
-3.3135268672228899
 30
0.0
 40
2.000000000000294
 50
279.47898029036918
 51
0.0
  0
LINE
  8
DETAIL
  6
CONTINUOUS
 62
     5
 10
-217.78443788021741
 20
-8.0000000000002274
 30
0.0
 11
217.78443788024649
 21
-8.0000000000002274
 31
0.0
  0
LINE
  8
DETAIL
  6
CONTINUOUS
 62
     5
 10
-255.00000000000091
 20
-3.3135268672228899
 30
0.0
 11
-255.00000000000091
 21
0.0
 31
0.0
  0
LINE
  8
DETAIL
  6
CONTINUOUS
 62
     5
 10
-255.00000000000091
 20
0.0
 30
0.0
 11
255.00000000000091
 21
0.0
 31
0.0
  0
ARC
  8
DETAIL
  6
CONTINUOUS
 62
     5
 10
-220.39221894010831
 20
191.98299797218709
 30
0.0
 40
200.00000000000051
 50
260.52101970963082
 51
270.74709541349239
  0
ARC
  8
DETAIL
  6
CONTINUOUS
 62
     5
 10
-253.00000000000091
 20
-3.3135268672228899
 30
0.0
 40
1.999999999999956
 50
180.0
 51
260.52101970963082
  0
LINE
  8
DETAIL
  6
CONTINUOUS
 62
     5
 10
193.00000187754719
 20
50.599999999997287
 30
0.0
 11
193.00000187754719
 21
52.399970233689487
 31
0.0
  0
LINE
  8
DETAIL
  6
CONTINUOUS
 62
     5
 10
194.0000018775454
 20
118.04997023368971
 30
0.0
 11
193.5000018775454
 21
118.04997023368971
 31
0.0
  0
ARC
  8
DETAIL
  6
CONTINUOUS
 62
     5
 10
197.0000018775454
 20
128.99997023368951
 30
0.0
 40
3.000000000000024
 50
90.0
 51
180.0
  0
ARC
  8
DETAIL
  6
CONTINUOUS
 62
     5
 10
298.24339529855661
 20
139.32096939964859
 30
0.0
 40
41.768550201866987
 50
154.96182754695471
 51
180.00041535189641
  0
ARC
  8
DETAIL
  6
CONTINUOUS
 62
     5
 10
268.5000018775454
 20
134.99997023368971
 30
0.0
 40
2.9999999999999369
 50
270.0
 51
297.04043027399462
  0
LINE
  8
DETAIL
  6
CONTINUOUS
 62
     5
 10
197.0000018775454
 20
131.99997023368951
 30
0.0
 11
268.5000018775454
 21
131.99997023368951
 31
0.0
  0
ARC
  8
DETAIL
  6
CONTINUOUS
 62
     5
 10
265.26475747863242
 20
139.32073032899271
 30
0.0
 40
8.7899123810768369
 50
180.00041535189641
 51
236.39614668359579
  0
LINE
  8
DETAIL
  6
CONTINUOUS
 62
     5
 10
276.30853894491611
 20
135.61737105131979
 30
0.0
 11
269.86385923079519
 21
132.32791239000619
 31
0.0
  0
ARC
  8
DETAIL
  6
CONTINUOUS
 62
     5
 10
277.89970585703941
 20
132.49997023368971
 30
0.0
 40
3.5000000000000129
 50
90.0
 51
117.0404302739946
  0
LINE
  8
DETAIL
  6
CONTINUOUS
 62
     5
 10
302.86388203411389
 20
135.99997023368951
 30
0.0
 11
277.89970585703941
 21
135.99997023368951
 31
0.0
  0
ARC
  8
DETAIL
  6
CONTINUOUS
 62
     5
 10
302.86388203411389
 20
138.49997023368971
 30
0.0
 40
2.499999999999944
 50
270.0
 51
315.00000000000921
  0
ARC
  8
DETAIL
  6
CONTINUOUS
 62
     5
 10
308.72813298178431
 20
138.0002601506819
 30
0.0
 40
2.000000000000044
 50
90.0
 51
135.00000000000921
  0
LINE
  8
DETAIL
  6
CONTINUOUS
 62
     5
 10
307.31391941941268
 20
139.41447371305469
 30
0.0
 11
304.63164898707959
 21
136.73220328072321
 31
0.0
  0
ARC
  8
DETAIL
  6
CONTINUOUS
 62
     5
 10
334.39970585703941
 20
140.50026015068161
 30
0.0
 40
0.4999999999999875
 50
270.0
 51
0.0
  0
LINE
  8
DETAIL
  6
CONTINUOUS
 62
     5
 10
308.72813298178431
 20
140.0002601506819
 30
0.0
 11
334.39970585703941
 21
140.0002601506819
 31
0.0
  0
ARC
  8
DETAIL
  6
CONTINUOUS
 62
     5
 10
142.65809938821889
 20
211.9978193172669
 30
0.0
 40
129.95421712225621
 50
334.96182754695428
 51
25.039028202259999
  0
LINE
  8
DETAIL
  6
CONTINUOUS
 62
     5
 10
334.89970585703759
 20
283.49968031669749
 30
0.0
 11
334.89970585703759
 21
140.50026015068161
 31
0.0
  0
ARC
  8
DETAIL
  6
CONTINUOUS
 62
     5
 10
334.39970585703941
 20
283.49968031669749
 30
0.0
 40
0.5000000000000813
 50
0.0
 51
90.0
  0
ARC
  8
DETAIL
  6
CONTINUOUS
 62
     5
 10
302.86388203411389
 20
285.49997023368968
 30
0.0
 40
2.4999999999997429
 50
44.999999999990777
 51
90.0
  0
LINE
  8
DETAIL
  6
CONTINUOUS
 62
     5
 10
308.72813298178431
 20
283.99968031669721
 30
0.0
 11
334.39970585703941
 21
283.99968031669721
 31
0.0
  0
ARC
  8
DETAIL
  6
CONTINUOUS
 62
     5
 10
308.72813298178431
 20
285.99968031669749
 30
0.0
 40
2.0000000000000688
 50
224.99999999999079
 51
270.0
  0
LINE
  8
DETAIL
  6
CONTINUOUS
 62
     5
 10
307.31391941941268
 20
284.58546675432422
 30
0.0
 11
304.63164898707959
 21
287.26773718665589
 31
0.0
  0
LINE
  8
DETAIL
  6
CONTINUOUS
 62
     5
 10
303.89941594004722
 20
287.21101363748238
 30
0.0
 11
303.89941594004722
 21
136.7889268298961
 31
0.0
  0
LINE
  8
DETAIL
  6
CONTINUOUS
 62
     5
 10
307.89970585703941
 20
283.64092884632458
 30
0.0
 11
307.89970585703941
 21
140.3590116210539
 31
0.0
  0
ARC
  8
DETAIL
  6
CONTINUOUS
 62
     5
 10
277.89970585703941
 20
291.49997023368968
 30
0.0
 40
3.500000000000107
 50
242.95956972600541
 51
270.0
  0
LINE
  8
DETAIL
  6
CONTINUOUS
 62
     5
 10
302.86388203411389
 20
287.99997023368968
 30
0.0
 11
277.89970585703941
 21
287.99997023368968
 31
0.0
  0
LINE
  8
DETAIL
  6
CONTINUOUS
 62
     5
 10
277.89970585703941
 20
287.99997023368968
 30
0.0
 11
277.89970585703941
 21
136.49997023368971
 31
0.0
  0
LINE
  8
DETAIL
  6
CONTINUOUS
 62
     5
 10
276.30853894491611
 20
288.38256941605891
 30
0.0
 11
269.86385923079519
 21
291.67202807737277
 31
0.0
  0
ARC
  8
DETAIL
  6
CONTINUOUS
 62
     5
 10
268.5000018775454
 20
288.99997023368951
 30
0.0
 40
2.9999999999999618
 50
62.95956972600537
 51
90.0
  0
ARC
  8
DETAIL
  6
CONTINUOUS
 62
     5
 10
265.26370375534412
 20
284.67674861098169
 30
0.0
 40
8.7899123810768369
 50
123.6046840201693
 51
180.00041535189641
  0
ARC
  8
DETAIL
  6
CONTINUOUS
 62
     5
 10
298.24234157526831
 20
284.67698768163791
 30
0.0
 40
41.768550201867043
 50
180.00041535189641
 51
205.03900315682779
  0
LINE
  8
DETAIL
  6
CONTINUOUS
 62
     5
 10
197.0000018775454
 20
291.99997023368968
 30
0.0
 11
268.5000018775454
 21
291.99997023368968
 31
0.0
  0
ARC
  8
DETAIL
  6
CONTINUOUS
 62
     5
 10
197.0000018775454
 20
294.99997023368968
 30
0.0
 40
3.000000000000024
 50
180.0
 51
270.0
  0
LINE
  8
DETAIL
  6
CONTINUOUS
 62
     5
 10
194.0000018775454
 20
302.54997023368969
 30
0.0
 11
194.0000018775454
 21
118.04997023368971
 31
0.0
  0
LINE
  8
DETAIL
  6
CONTINUOUS
 62
     5
 10
194.0000018775454
 20
302.54997023368969
 30
0.0
 11
193.5000018775454
 21
302.54997023368969
 31
0.0
  0
LINE
  8
DETAIL
  6
CONTINUOUS
 62
     5
 10
192.30000187754649
 20
130.29997023368949
 30
0.0
 11
192.30000187754649
 21
280.19937514091612
 31
0.0
  0
LINE
  8
DETAIL
  6
CONTINUOUS
 62
     5
 10
193.00000187754719
 20
130.29997023368949
 30
0.0
 11
193.00000187754719
 21
127.29997023368951
 31
0.0
  0
LINE
  8
BASIS
  6
DASHDOT
 62
     6
 10
341.45224914847398
 20
211.99997023368951
 30
0.0
 11
177.66444373085409
 21
211.99997023368951
 31
0.0
  0
LINE
  8
DETAIL
  6
CONTINUOUS
 62
     5
 10
193.00000187754719
 20
303.79997023368759
 30
0.0
 11
193.00000187754719
 21
280.19937514091612
 31
0.0
  0
ARC
  8
DETAIL
  6
CONTINUOUS
 62
     5
 10
189.75039860606279
 20
278.44937514091612
 30
0.0
 40
1.750000000000006
 50
90.0
 51
180.0
  0
LINE
  8
DETAIL
  6
CONTINUOUS
 62
     5
 10
193.5000018775454
 20
280.19937514091612
 30
0.0
 11
189.75039860606279
 21
280.19937514091612
 31
0.0
  0
ARC
  8
DETAIL
  6
CONTINUOUS
 62
     5
 10
191.90000187754501
 20
281.79937514091603
 30
0.0
 40
1.099999999999925
 50
270.0
 51
0.0
  0
ARC
  8
DETAIL
  6
CONTINUOUS
 62
     5
 10
191.90000187754501
 20
281.79937514091603
 30
0.0
 40
1.599999999999913
 50
270.0
 51
313.43253655778881
  0
LINE
  8
DETAIL
  6
CONTINUOUS
 62
     5
 10
191.90000187754501
 20
280.69937514091589
 30
0.0
 11
189.75039860606279
 21
280.69937514091589
 31
0.0
  0
ARC
  8
DETAIL
  6
CONTINUOUS
 62
     5
 10
189.75039860606279
 20
278.44937514091612
 30
0.0
 40
2.2499999999999929
 50
90.0
 51
180.0
  0
LINE
  8
DETAIL
  6
CONTINUOUS
 62
     5
 10
187.500398606061
 20
278.44937514091612
 30
0.0
 11
187.500398606061
 21
278.15016102194022
 31
0.0
  0
ARC
  8
DETAIL
  6
CONTINUOUS
 62
     5
 10
193.00000187754719
 20
303.79997023368759
 30
0.0
 40
0.4999999999999875
 50
90.0
 51
180.0
  0
ARC
  8
DETAIL
  6
CONTINUOUS
 62
     5
 10
193.00000187754719
 20
303.79997023368759
 30
0.0
 40
0.4999999999999875
 50
0.0
 51
90.0
  0
LINE
  8
DETAIL
  6
CONTINUOUS
 62
     5
 10
192.5000018775454
 20
303.79997023368759
 30
0.0
 11
192.5000018775454
 21
301.29997023368759
 31
0.0
  0
LINE
  8
DETAIL
  6
CONTINUOUS
 62
     5
 10
193.00000187754719
 20
301.29997023368759
 30
0.0
 11
192.5000018775454
 21
301.29997023368759
 31
0.0
  0
ARC
  8
DETAIL
  6
CONTINUOUS
 62
     5
 10
225.451803918867
 20
193.60722698747429
 30
0.0
 40
5.0000000000001306
 50
140.10000000000309
 51
162.99999999999821
  0
LINE
  8
DETAIL
  6
CONTINUOUS
 62
     5
 10
209.35134030889549
 20
198.10576633418651
 30
0.0
 11
208.94880378560899
 21
190.42491191154491
 31
0.0
  0
ARC
  8
DETAIL
  6
CONTINUOUS
 62
     5
 10
222.0513498715309
 20
205.13001816353599
 30
0.0
 40
4.9999999999998694
 50
320.10000000000309
 51
126.100000000013
  0
LINE
  8
DETAIL
  6
CONTINUOUS
 62
     5
 10
221.61597815979169
 20
196.8144751453203
 30
0.0
 11
225.88717563060621
 21
201.92277000569001
 31
0.0
  0
LINE
  8
DETAIL
  6
CONTINUOUS
 62
     5
 10
212.89079856002809
 20
204.63822554087409
 30
0.0
 11
219.1053680847626
 21
209.16996758302611
 31
0.0
  0
ARC
  8
DETAIL
  6
CONTINUOUS
 62
     5
 10
215.5000018775454
 20
198.9993751409161
 30
0.0
 40
4.2499999999999378
 50
106.64912784401901
 51
196.45087215597371
  0
LINE
  8
DETAIL
  6
CONTINUOUS
 62
     5
 10
214.2823345096576
 20
203.07120349942721
 30
0.0
 11
212.94720090567259
 21
203.79461401014939
 31
0.0
  0
LINE
  8
DETAIL
  6
CONTINUOUS
 62
     5
 10
211.42398451328791
 20
197.79580443411851
 30
0.0
 11
210.08885090930471
 21
198.5192149448408
 31
0.0
  0
ARC
  8
DETAIL
  6
CONTINUOUS
 62
     5
 10
209.85065507627311
 20
198.07959835606519
 30
0.0
 40
0.4999999999998813
 50
61.54999999997797
 51
177.00000000002049
  0
ARC
  8
DETAIL
  6
CONTINUOUS
 62
     5
 10
213.18539673870239
 20
204.234230598925
 30
0.0
 40
0.49999999999985
 50
126.0999999999804
 51
241.55000000000709
  0
ARC
  8
DETAIL
  6
CONTINUOUS
 62
     5
 10
213.9419514593819
 20
190.16323213032999
 30
0.0
 40
5.0000000000000568
 50
177.00000000000091
 51
342.99999999999818
  0
LINE
  8
DETAIL
  6
CONTINUOUS
 62
     5
 10
220.67028013905201
 20
195.0690855110881
 30
0.0
 11
218.72347523919689
 21
188.70137360671649
 31
0.0
  0
ARC
  8
DETAIL
  6
CONTINUOUS
 62
     5
 10
230.451803918867
 20
258.60722698747418
 30
0.0
 40
5.0000000000001883
 50
140.10000000000309
 51
162.99999999999821
  0
LINE
  8
DETAIL
  6
CONTINUOUS
 62
     5
 10
214.35134030889549
 20
263.10576633418651
 30
0.0
 11
213.94880378560899
 21
255.4249119115448
 31
0.0
  0
ARC
  8
DETAIL
  6
CONTINUOUS
 62
     5
 10
227.05134987152911
 20
270.13001816353591
 30
0.0
 40
5.0000000000000364
 50
320.10000000000309
 51
126.100000000013
  0
LINE
  8
DETAIL
  6
CONTINUOUS
 62
     5
 10
226.61597815979169
 20
261.81447514532027
 30
0.0
 11
230.88717563060621
 21
266.92277000568993
 31
0.0
  0
LINE
  8
DETAIL
  6
CONTINUOUS
 62
     5
 10
217.8907985600263
 20
269.63822554087409
 30
0.0
 11
224.10536808476451
 21
274.16996758302588
 31
0.0
  0
ARC
  8
DETAIL
  6
CONTINUOUS
 62
     5
 10
220.50000187754719
 20
263.99937514091562
 30
0.0
 40
4.2500000000000187
 50
106.64912784401901
 51
196.45087215596689
  0
LINE
  8
DETAIL
  6
CONTINUOUS
 62
     5
 10
219.28233450965581
 20
268.07120349942687
 30
0.0
 11
217.94720090567259
 21
268.79461401014942
 31
0.0
  0
LINE
  8
DETAIL
  6
CONTINUOUS
 62
     5
 10
216.42398451328791
 20
262.79580443411851
 30
0.0
 11
215.08885090930471
 21
263.51921494484083
 31
0.0
  0
ARC
  8
DETAIL
  6
CONTINUOUS
 62
     5
 10
214.85065507627311
 20
263.07959835606522
 30
0.0
 40
0.4999999999999187
 50
61.550000000007067
 51
177.00000000000091
  0
ARC
  8
DETAIL
  6
CONTINUOUS
 62
     5
 10
218.18539673870421
 20
269.23423059892531
 30
0.0
 40
0.49999999999985
 50
126.0999999999804
 51
241.55000000000709
  0
ARC
  8
DETAIL
  6
CONTINUOUS
 62
     5
 10
218.9419514593819
 20
255.16323213032999
 30
0.0
 40
5.0000000000000568
 50
177.00000000000091
 51
342.99999999999818
  0
LINE
  8
DETAIL
  6
CONTINUOUS
 62
     5
 10
225.67028013905201
 20
260.06908551108808
 30
0.0
 11
223.72347523919689
 21
253.70137360671649
 31
0.0
  0
ARC
  8
DETAIL
  6
CONTINUOUS
 62
     5
 10
181.0000018775454
 20
55.399970233689707
 30
0.0
 40
2.9999999999999001
 50
180.00007194435619
 51
270.0
  0
ARC
  8
DETAIL
  6
CONTINUOUS
 62
     5
 10
181.0000018775454
 20
124.29997023368971
 30
0.0
 40
2.999999999999905
 50
90.0
 51
180.0
  0
ARC
  8
DETAIL
  6
CONTINUOUS
 62
     5
 10
191.0000018775454
 20
133.29997023368969
 30
0.0
 40
2.9999999999999938
 50
180.00007194435619
 51
270.0
  0
LINE
  8
DETAIL
  6
CONTINUOUS
 62
     5
 10
188.0000018775454
 20
278.44937514091612
 30
0.0
 11
188.0000018775454
 21
133.29997023368969
 31
0.0
  0
LINE
  8
DETAIL
  6
CONTINUOUS
 62
     5
 10
193.5000018775454
 20
130.29997023368949
 30
0.0
 11
191.0000018775454
 21
130.29997023368949
 31
0.0
  0
LINE
  8
DETAIL
  6
CONTINUOUS
 62
     5
 10
193.5000018775454
 20
127.29997023368951
 30
0.0
 11
181.0000018775454
 21
127.29997023368951
 31
0.0
  0
LINE
  8
DETAIL
  6
CONTINUOUS
 62
     5
 10
178.0000018775454
 20
124.29997023368971
 30
0.0
 11
178.0000018775454
 21
55.399970233689707
 31
0.0
  0
LINE
  8
DETAIL
  6
CONTINUOUS
 62
     5
 10
193.5000018775454
 20
52.399970233689487
 30
0.0
 11
181.0000018775454
 21
52.399970233689487
 31
0.0
  0
ARC
  8
DETAIL
  6
CONTINUOUS
 62
     5
 10
194.49998661875631
 20
72.935157001267612
 30
0.0
 40
0.9999999999998812
 50
180.00007194435619
 51
236.30968142430669
  0
ARC
  8
DETAIL
  6
CONTINUOUS
 62
     5
 10
193.49998661875819
 20
68.794440448533237
 30
0.0
 40
2.9999999999999192
 50
359.9999813306647
 51
56.310082584226059
  0
LINE
  8
DETAIL
  6
CONTINUOUS
 62
     5
 10
196.50000187754719
 20
68.794440448533237
 30
0.0
 11
196.50000187754719
 21
66.00557631279105
 31
0.0
  0
LINE
  8
DETAIL
  6
CONTINUOUS
 62
     5
 10
195.1641360338499
 20
63.509437773161949
 30
0.0
 11
193.94527332102459
 21
62.696837164366677
 31
0.0
  0
LINE
  8
DETAIL
  6
CONTINUOUS
 62
     5
 10
195.16407451845319
 20
71.290576160101068
 30
0.0
 11
193.94528190594701
 21
72.103089318506932
 31
0.0
  0
ARC
  8
DETAIL
  6
CONTINUOUS
 62
     5
 10
194.49998661875631
 20
72.935157001267612
 30
0.0
 40
0.9999999999998812
 50
180.00007194435619
 51
236.30968142430669
  0
ARC
  8
DETAIL
  6
CONTINUOUS
 62
     5
 10
193.49998661875819
 20
66.00557631279105
 30
0.0
 40
3.0000000000000631
 50
303.69108219039828
 51
359.9999813306647
  0
ARC
  8
DETAIL
  6
CONTINUOUS
 62
     5
 10
194.49998661875631
 20
61.864783466111589
 30
0.0
 40
0.9999999999998248
 50
123.69105646349171
 51
180.0
  0
LINE
  8
DETAIL
  6
CONTINUOUS
 62
     5
 10
193.5000018775454
 20
50.599999999997287
 30
0.0
 11
193.5000018775454
 21
303.79997023368759
 31
0.0
  0
LINE
  8
DETAIL
  6
CONTINUOUS
 62
     5
 10
-151.99946489927149
 20
59.450032215690157
 30
0.0
 11
-151.99946489927149
 21
51.599999999996612
 31
0.0
  0
LINE
  8
DETAIL
  6
CONTINUOUS
 62
     5
 10
-151.99946489927149
 20
59.450032215690157
 30
0.0
 11
-151.4994648992697
 21
59.950032215690378
 31
0.0
  0
LINE
  8
DETAIL
  6
CONTINUOUS
 62
     5
 10
-147.99946489927149
 20
59.450032215690157
 30
0.0
 11
-147.99946489927149
 21
51.599999999996612
 31
0.0
  0
LINE
  8
DETAIL
  6
CONTINUOUS
 62
     5
 10
-148.49946489927149
 20
59.950032215690378
 30
0.0
 11
-147.99946489927149
 21
59.450032215690157
 31
0.0
  0
LINE
  8
DETAIL
  6
CONTINUOUS
 62
     5
 10
-148.49946489927149
 20
59.950032215690378
 30
0.0
 11
-151.4994648992697
 21
59.950032215690378
 31
0.0
  0
LINE
  8
DETAIL
  6
CONTINUOUS
 62
     5
 10
148.0005351007303
 20
59.450032215690157
 30
0.0
 11
148.0005351007303
 21
51.599999999996612
 31
0.0
  0
LINE
  8
DETAIL
  6
CONTINUOUS
 62
     5
 10
148.0005351007303
 20
59.450032215690157
 30
0.0
 11
148.5005351007303
 21
59.950032215690378
 31
0.0
  0
LINE
  8
DETAIL
  6
CONTINUOUS
 62
     5
 10
152.0005351007303
 20
59.450032215690157
 30
0.0
 11
152.0005351007303
 21
51.599999999996612
 31
0.0
  0
LINE
  8
DETAIL
  6
CONTINUOUS
 62
     5
 10
151.5005351007303
 20
59.950032215690378
 30
0.0
 11
152.0005351007303
 21
59.450032215690157
 31
0.0
  0
LINE
  8
DETAIL
  6
CONTINUOUS
 62
     5
 10
151.5005351007303
 20
59.950032215690378
 30
0.0
 11
148.5005351007303
 21
59.950032215690378
 31
0.0
  0
LINE
  8
DETAIL
  6
CONTINUOUS
 62
     5
 10
-207.99999999999909
 20
43.399999999997704
 30
0.0
 11
-221.99999999999909
 21
43.399999999997704
 31
0.0
  0
LINE
  8
DETAIL
  6
CONTINUOUS
 62
     5
 10
-207.99999999999909
 20
4.7999999999974534
 30
0.0
 11
-221.99999999999909
 21
4.7999999999974534
 31
0.0
  0
ARC
  8
DETAIL
  6
CONTINUOUS
 62
     5
 10
-226.3000030517571
 20
48.799999665348878
 30
0.0
 40
1.200000000000025
 50
120.0000000000296
 51
180.0
  0
LINE
  8
DETAIL
  6
CONTINUOUS
 62
     5
 10
-227.50000305175789
 20
0.0000003065298415
 30
0.0
 11
-227.50000305175789
 21
48.799999665348878
 31
0.0
  0
LINE
  8
DETAIL
  6
CONTINUOUS
 62
     5
 10
-199.5000030517576
 20
49.999999999997613
 30
0.0
 11
-199.5000030517576
 21
50.599999999997522
 31
0.0
  0
ARC
  8
DETAIL
  6
CONTINUOUS
 62
     5
 10
-199.5000030517576
 20
49.999999999997613
 30
0.0
 40
0.5999999999998438
 50
0.0
 51
90.0
  0
ARC
  8
DETAIL
  6
CONTINUOUS
 62
     5
 10
-222.4000030517573
 20
50.299999999997567
 30
0.0
 40
0.3000000000000125
 50
270.0
 51
0.0
  0
LINE
  8
DETAIL
  6
CONTINUOUS
 62
     5
 10
-212.49999999999909
 20
56.099999999997287
 30
0.0
 11
-207.0999999999996
 21
56.099999999997287
 31
0.0
  0
ARC
  8
DETAIL
  6
CONTINUOUS
 62
     5
 10
-206.0999999999996
 20
52.79999999999734
 30
0.0
 40
0.9999999999999812
 50
180.0
 51
270.0
  0
ARC
  8
DETAIL
  6
CONTINUOUS
 62
     5
 10
-213.49999999999909
 20
52.79999999999734
 30
0.0
 40
0.9999999999999812
 50
270.0
 51
0.0
  0
ARC
  8
DETAIL
  6
CONTINUOUS
 62
     5
 10
-221.80000305175869
 20
50.299999999997567
 30
0.0
 40
0.299999999999925
 50
90.0
 51
180.0
  0
LINE
  8
DETAIL
  6
CONTINUOUS
 62
     5
 10
-199.5000030517576
 20
50.599999999997522
 30
0.0
 11
-221.80000305175869
 21
50.599999999997287
 31
0.0
  0
LINE
  8
DETAIL
  6
CONTINUOUS
 62
     5
 10
-215.80000000000021
 20
51.799999999997567
 30
0.0
 11
-203.80000000000021
 21
51.799999999997567
 31
0.0
  0
LINE
  8
DETAIL
  6
CONTINUOUS
 62
     5
 10
-215.80000000000021
 20
50.599999999997287
 30
0.0
 11
-215.80000000000021
 21
51.799999999997567
 31
0.0
  0
LINE
  8
DETAIL
  6
CONTINUOUS
 62
     5
 10
-203.80000000000021
 20
50.599999999997287
 30
0.0
 11
-203.80000000000021
 21
51.799999999997567
 31
0.0
  0
LINE
  8
DETAIL
  6
CONTINUOUS
 62
     5
 10
-207.0999999999996
 20
52.79999999999734
 30
0.0
 11
-207.0999999999996
 21
56.099999999997287
 31
0.0
  0
LINE
  8
DETAIL
  6
CONTINUOUS
 62
     5
 10
-212.49999999999909
 20
52.79999999999734
 30
0.0
 11
-212.49999999999909
 21
56.099999999997287
 31
0.0
  0
LINE
  8
DETAIL
  6
CONTINUOUS
 62
     5
 10
212.49999999999909
 20
56.099999999997287
 30
0.0
 11
207.0999999999996
 21
56.099999999997287
 31
0.0
  0
ARC
  8
DETAIL
  6
CONTINUOUS
 62
     5
 10
206.0999999999996
 20
52.79999999999734
 30
0.0
 40
0.9999999999999812
 50
270.0
 51
0.0
  0
ARC
  8
DETAIL
  6
CONTINUOUS
 62
     5
 10
213.49999999999909
 20
52.79999999999734
 30
0.0
 40
0.9999999999999812
 50
180.0
 51
270.0
  0
ARC
  8
DETAIL
  6
CONTINUOUS
 62
     5
 10
221.8000030517569
 20
50.299999999997567
 30
0.0
 40
0.3000000000000125
 50
0.0
 51
90.0
  0
ARC
  8
DETAIL
  6
CONTINUOUS
 62
     5
 10
222.4000030517573
 20
50.299999999997567
 30
0.0
 40
0.3000000000000125
 50
180.0
 51
270.0
  0
LINE
  8
DETAIL
  6
CONTINUOUS
 62
     5
 10
199.5000030517576
 20
49.999999999997613
 30
0.0
 11
199.5000030517576
 21
50.599999999997522
 31
0.0
  0
LINE
  8
DETAIL
  6
CONTINUOUS
 62
     5
 10
199.5000030517576
 20
50.599999999997522
 30
0.0
 11
221.8000030517569
 21
50.599999999997287
 31
0.0
  0
LINE
  8
DETAIL
  6
CONTINUOUS
 62
     5
 10
215.80000000000021
 20
51.799999999997567
 30
0.0
 11
203.79999999999839
 21
51.799999999997567
 31
0.0
  0
LINE
  8
DETAIL
  6
CONTINUOUS
 62
     5
 10
215.80000000000021
 20
50.599999999997287
 30
0.0
 11
215.80000000000021
 21
51.799999999997567
 31
0.0
  0
LINE
  8
DETAIL
  6
CONTINUOUS
 62
     5
 10
203.79999999999839
 20
50.599999999997287
 30
0.0
 11
203.79999999999839
 21
51.799999999997567
 31
0.0
  0
LINE
  8
DETAIL
  6
CONTINUOUS
 62
     5
 10
207.0999999999996
 20
52.79999999999734
 30
0.0
 11
207.0999999999996
 21
56.099999999997287
 31
0.0
  0
LINE
  8
DETAIL
  6
CONTINUOUS
 62
     5
 10
212.49999999999909
 20
52.79999999999734
 30
0.0
 11
212.49999999999909
 21
56.099999999997287
 31
0.0
  0
ARC
  8
DETAIL
  6
CONTINUOUS
 62
     5
 10
199.5000030517576
 20
49.999999999997613
 30
0.0
 40
0.6000000000000251
 50
90.0
 51
180.0
  0
ARC
  8
DETAIL
  6
CONTINUOUS
 62
     5
 10
226.3000030517569
 20
48.800000427449852
 30
0.0
 40
1.2000000000000439
 50
0.0
 51
59.999999999970377
  0
LINE
  8
DETAIL
  6
CONTINUOUS
 62
     5
 10
207.99999999999909
 20
43.399999999997704
 30
0.0
 11
221.99999999999909
 21
43.399999999997704
 31
0.0
  0
LINE
  8
DETAIL
  6
CONTINUOUS
 62
     5
 10
207.99999999999909
 20
4.7999999999974534
 30
0.0
 11
221.99999999999909
 21
4.7999999999974534
 31
0.0
  0
LINE
  8
DETAIL
  6
CONTINUOUS
 62
     5
 10
227.50000305175789
 20
0.0000010686309224
 30
0.0
 11
227.50000305175789
 21
48.800000427449852
 31
0.0
  0
LINE
  8
DETAIL
  6
CONTINUOUS
 62
     5
 10
-210.00000000000091
 20
43.999999999997392
 30
0.0
 11
-219.99999999999909
 21
43.999999999997392
 31
0.0
  0
ARC
  8
DETAIL
  6
CONTINUOUS
 62
     5
 10
-214.99999999999909
 20
44.899999999997483
 30
0.0
 40
1.500000000000056
 50
0.0
 51
90.0
  0
ARC
  8
DETAIL
  6
CONTINUOUS
 62
     5
 10
-214.99999999999909
 20
44.899999999997483
 30
0.0
 40
1.4999999999999689
 50
90.0
 51
180.0
  0
LINE
  8
DETAIL
  6
CONTINUOUS
 62
     5
 10
-214.99999999999909
 20
44.399999999997249
 30
0.0
 11
-213.49999999999909
 21
44.899999999997483
 31
0.0
  0
LINE
  8
DETAIL
  6
CONTINUOUS
 62
     5
 10
-216.49999999999909
 20
44.899999999997483
 30
0.0
 11
-214.99999999999909
 21
44.399999999997249
 31
0.0
  0
LINE
  8
DETAIL
  6
CONTINUOUS
 62
     5
 10
-216.49999999999909
 20
3.2999999999976808
 30
0.0
 11
-214.99999999999909
 21
3.7999999999976808
 31
0.0
  0
ARC
  8
DETAIL
  6
CONTINUOUS
 62
     5
 10
-214.99999999999909
 20
3.2999999999976808
 30
0.0
 40
1.499999999999881
 50
180.0
 51
270.0
  0
LINE
  8
DETAIL
  6
CONTINUOUS
 62
     5
 10
-214.99999999999909
 20
3.7999999999976808
 30
0.0
 11
-213.49999999999909
 21
3.2999999999976808
 31
0.0
  0
ARC
  8
DETAIL
  6
CONTINUOUS
 62
     5
 10
-214.99999999999909
 20
3.2999999999976808
 30
0.0
 40
1.4999999999999689
 50
270.0
 51
0.0
  0
LINE
  8
DETAIL
  6
CONTINUOUS
 62
     5
 10
-210.00000000000091
 20
4.1999999999977717
 30
0.0
 11
-219.99999999999909
 21
4.1999999999977717
 31
0.0
  0
ARC
  8
DETAIL
  6
CONTINUOUS
 62
     5
 10
-220.99999999999909
 20
4.1999999999977717
 30
0.0
 40
1.0000000000001561
 50
180.0
 51
0.0
  0
ARC
  8
DETAIL
  6
CONTINUOUS
 62
     5
 10
-209.00000000000091
 20
4.1999999999977717
 30
0.0
 40
0.9999999999999812
 50
180.0
 51
0.0
  0
ARC
  8
DETAIL
  6
CONTINUOUS
 62
     5
 10
-209.00000000000091
 20
43.999999999997392
 30
0.0
 40
0.9999999999999812
 50
0.0
 51
180.0
  0
ARC
  8
DETAIL
  6
CONTINUOUS
 62
     5
 10
-220.99999999999909
 20
43.999999999997392
 30
0.0
 40
0.9999999999999812
 50
0.0
 51
180.0
  0
ARC
  8
DETAIL
  6
CONTINUOUS
 62
     5
 10
-211.99999999999909
 20
39.399999999997483
 30
0.0
 40
4.0000000000000062
 50
270.0
 51
0.0
  0
ARC
  8
DETAIL
  6
CONTINUOUS
 62
     5
 10
-217.99999999999909
 20
39.399999999997483
 30
0.0
 40
4.0000000000000941
 50
180.0
 51
270.0
  0
LINE
  8
DETAIL
  6
CONTINUOUS
 62
     5
 10
-208.00000000000091
 20
43.999999999997392
 30
0.0
 11
-208.00000000000091
 21
39.399999999997483
 31
0.0
  0
LINE
  8
DETAIL
  6
CONTINUOUS
 62
     5
 10
-222.00000000000091
 20
43.999999999997392
 30
0.0
 11
-222.00000000000091
 21
39.399999999997483
 31
0.0
  0
ARC
  8
DETAIL
  6
CONTINUOUS
 62
     5
 10
-217.99999999999909
 20
8.7999999999976808
 30
0.0
 40
4.0000000000000062
 50
90.0
 51
180.0
  0
ARC
  8
DETAIL
  6
CONTINUOUS
 62
     5
 10
-211.99999999999909
 20
8.7999999999976808
 30
0.0
 40
3.999999999999913
 50
0.0
 51
90.0
  0
LINE
  8
DETAIL
  6
CONTINUOUS
 62
     5
 10
-208.00000000000091
 20
4.1999999999977717
 30
0.0
 11
-208.00000000000091
 21
8.7999999999976808
 31
0.0
  0
LINE
  8
DETAIL
  6
CONTINUOUS
 62
     5
 10
-222.00000000000091
 20
4.1999999999977717
 30
0.0
 11
-222.00000000000091
 21
8.7999999999976808
 31
0.0
  0
LINE
  8
DETAIL
  6
CONTINUOUS
 62
     5
 10
-211.99999999999909
 20
35.399999999997483
 30
0.0
 11
-217.99999999999909
 21
35.399999999997483
 31
0.0
  0
LINE
  8
DETAIL
  6
CONTINUOUS
 62
     5
 10
-211.99999999999909
 20
12.799999999997681
 30
0.0
 11
-217.99999999999909
 21
12.799999999997681
 31
0.0
  0
LINE
  8
DETAIL
  6
CONTINUOUS
 62
     5
 10
-208.00000000000091
 20
4.1999999999977717
 30
0.0
 11
-208.00000000000091
 21
8.1999999999977717
 31
0.0
  0
LINE
  8
DETAIL
  6
CONTINUOUS
 62
     5
 10
-222.00000000000091
 20
4.1999999999977717
 30
0.0
 11
-222.00000000000091
 21
8.1999999999977717
 31
0.0
  0
LINE
  8
DETAIL
  6
CONTINUOUS
 62
     5
 10
-212.50000000000091
 20
21.799999999997681
 30
0.0
 11
-212.50000000000091
 21
25.79999999999745
 31
0.0
  0
LINE
  8
DETAIL
  6
CONTINUOUS
 62
     5
 10
-212.50000000000091
 20
21.799999999997681
 30
0.0
 11
-217.50000000000091
 21
21.799999999997681
 31
0.0
  0
LINE
  8
DETAIL
  6
CONTINUOUS
 62
     5
 10
-212.50000000000091
 20
25.79999999999745
 30
0.0
 11
-217.50000000000091
 21
25.79999999999745
 31
0.0
  0
LINE
  8
DETAIL
  6
CONTINUOUS
 62
     5
 10
-217.50000000000091
 20
21.799999999997681
 30
0.0
 11
-217.50000000000091
 21
25.79999999999745
 31
0.0
  0
LINE
  8
DETAIL
  6
CONTINUOUS
 62
     5
 10
-219.99999999999909
 20
43.999999999997392
 30
0.0
 11
-219.99999999999909
 21
43.399999999997704
 31
0.0
  0
LINE
  8
DETAIL
  6
CONTINUOUS
 62
     5
 10
-210.00000000000091
 20
43.999999999997392
 30
0.0
 11
-210.00000000000091
 21
43.399999999997704
 31
0.0
  0
LINE
  8
DETAIL
  6
CONTINUOUS
 62
     5
 10
-214.99999999999909
 20
43.399999999997704
 30
0.0
 11
-214.99999999999909
 21
46.399999999997483
 31
0.0
  0
LINE
  8
DETAIL
  6
CONTINUOUS
 62
     5
 10
-213.49999999999909
 20
44.899999999997483
 30
0.0
 11
-213.49999999999909
 21
43.399999999997704
 31
0.0
  0
LINE
  8
DETAIL
  6
CONTINUOUS
 62
     5
 10
-216.49999999999909
 20
44.899999999997483
 30
0.0
 11
-216.49999999999909
 21
43.399999999997704
 31
0.0
  0
LINE
  8
DETAIL
  6
CONTINUOUS
 62
     5
 10
-219.99999999999909
 20
4.1999999999977717
 30
0.0
 11
-219.99999999999909
 21
4.7999999999974534
 31
0.0
  0
LINE
  8
DETAIL
  6
CONTINUOUS
 62
     5
 10
-210.00000000000091
 20
4.1999999999977717
 30
0.0
 11
-210.00000000000091
 21
4.7999999999974534
 31
0.0
  0
LINE
  8
DETAIL
  6
CONTINUOUS
 62
     5
 10
-214.99999999999909
 20
4.7999999999974534
 30
0.0
 11
-214.99999999999909
 21
1.799999999997681
 31
0.0
  0
LINE
  8
DETAIL
  6
CONTINUOUS
 62
     5
 10
-213.49999999999909
 20
3.2999999999976808
 30
0.0
 11
-213.49999999999909
 21
4.7999999999974534
 31
0.0
  0
LINE
  8
DETAIL
  6
CONTINUOUS
 62
     5
 10
-216.49999999999909
 20
3.2999999999976808
 30
0.0
 11
-216.49999999999909
 21
4.7999999999974534
 31
0.0
  0
LINE
  8
DETAIL
  6
CONTINUOUS
 62
     5
 10
210.00000000000091
 20
43.999999999997392
 30
0.0
 11
219.99999999999909
 21
43.999999999997392
 31
0.0
  0
LINE
  8
DETAIL
  6
CONTINUOUS
 62
     5
 10
213.49999999999909
 20
44.899999999997483
 30
0.0
 11
213.49999999999909
 21
43.399999999997704
 31
0.0
  0
LINE
  8
DETAIL
  6
CONTINUOUS
 62
     5
 10
216.50000000000091
 20
44.899999999997483
 30
0.0
 11
216.50000000000091
 21
43.399999999997704
 31
0.0
  0
LINE
  8
DETAIL
  6
CONTINUOUS
 62
     5
 10
214.99999999999909
 20
43.399999999997704
 30
0.0
 11
214.99999999999909
 21
46.399999999997483
 31
0.0
  0
ARC
  8
DETAIL
  6
CONTINUOUS
 62
     5
 10
214.99999999999909
 20
44.899999999997483
 30
0.0
 40
1.4999999999999689
 50
90.0
 51
180.0
  0
ARC
  8
DETAIL
  6
CONTINUOUS
 62
     5
 10
214.99999999999909
 20
44.899999999997483
 30
0.0
 40
1.4999999999999689
 50
0.0
 51
90.0
  0
LINE
  8
DETAIL
  6
CONTINUOUS
 62
     5
 10
214.99999999999909
 20
44.399999999997249
 30
0.0
 11
213.49999999999909
 21
44.899999999997483
 31
0.0
  0
LINE
  8
DETAIL
  6
CONTINUOUS
 62
     5
 10
216.50000000000091
 20
44.899999999997483
 30
0.0
 11
214.99999999999909
 21
44.399999999997249
 31
0.0
  0
LINE
  8
DETAIL
  6
CONTINUOUS
 62
     5
 10
216.50000000000091
 20
3.2999999999976808
 30
0.0
 11
214.99999999999909
 21
3.7999999999976808
 31
0.0
  0
ARC
  8
DETAIL
  6
CONTINUOUS
 62
     5
 10
214.99999999999909
 20
3.2999999999976808
 30
0.0
 40
1.4999999999999689
 50
270.0
 51
0.0
  0
LINE
  8
DETAIL
  6
CONTINUOUS
 62
     5
 10
214.99999999999909
 20
3.7999999999976808
 30
0.0
 11
213.49999999999909
 21
3.2999999999976808
 31
0.0
  0
ARC
  8
DETAIL
  6
CONTINUOUS
 62
     5
 10
214.99999999999909
 20
3.2999999999976808
 30
0.0
 40
1.500000000000056
 50
180.0
 51
270.0
  0
LINE
  8
DETAIL
  6
CONTINUOUS
 62
     5
 10
214.99999999999909
 20
4.7999999999974534
 30
0.0
 11
214.99999999999909
 21
1.799999999997681
 31
0.0
  0
LINE
  8
DETAIL
  6
CONTINUOUS
 62
     5
 10
216.50000000000091
 20
3.2999999999976808
 30
0.0
 11
216.50000000000091
 21
4.7999999999974534
 31
0.0
  0
LINE
  8
DETAIL
  6
CONTINUOUS
 62
     5
 10
213.49999999999909
 20
3.2999999999976808
 30
0.0
 11
213.49999999999909
 21
4.7999999999974534
 31
0.0
  0
LINE
  8
DETAIL
  6
CONTINUOUS
 62
     5
 10
210.00000000000091
 20
4.1999999999977717
 30
0.0
 11
219.99999999999909
 21
4.1999999999977717
 31
0.0
  0
ARC
  8
DETAIL
  6
CONTINUOUS
 62
     5
 10
-153.40000000000049
 20
50.999999999997392
 30
0.0
 40
0.9999999999999812
 50
270.0
 51
0.0
  0
ARC
  8
DETAIL
  6
CONTINUOUS
 62
     5
 10
153.40000000000049
 20
50.999999999997392
 30
0.0
 40
0.9999999999999812
 50
180.0
 51
270.0
  0
LINE
  8
DETAIL
  6
CONTINUOUS
 62
     5
 10
-147.6000000000013
 20
51.599999999997522
 30
0.0
 11
-152.40000000000049
 21
51.599999999997522
 31
0.0
  0
LINE
  8
DETAIL
  6
CONTINUOUS
 62
     5
 10
147.59999999999951
 20
51.599999999997522
 30
0.0
 11
152.3999999999987
 21
51.599999999997522
 31
0.0
  0
ARC
  8
DETAIL
  6
CONTINUOUS
 62
     5
 10
-146.6000000000013
 20
50.999999999997392
 30
0.0
 40
0.9999999999999812
 50
180.0
 51
270.0
  0
ARC
  8
DETAIL
  6
CONTINUOUS
 62
     5
 10
146.59999999999951
 20
50.999999999997392
 30
0.0
 40
0.9999999999999812
 50
270.0
 51
0.0
  0
LINE
  8
DETAIL
  6
CONTINUOUS
 62
     5
 10
-152.40000000000049
 20
51.599999999997522
 30
0.0
 11
-152.40000000000049
 21
50.999999999997392
 31
0.0
  0
LINE
  8
DETAIL
  6
CONTINUOUS
 62
     5
 10
152.3999999999987
 20
51.599999999997522
 30
0.0
 11
152.3999999999987
 21
50.999999999997392
 31
0.0
  0
LINE
  8
DETAIL
  6
CONTINUOUS
 62
     5
 10
-226.90000305175931
 20
49.999999665348923
 30
0.0
 11
-226.90000305175931
 21
37.568612317505313
 31
0.0
  0
LINE
  8
DETAIL
  6
CONTINUOUS
 62
     5
 10
226.90000305175741
 20
50.000000427449891
 30
0.0
 11
226.90000305175741
 21
37.568613079606394
 31
0.0
  0
LINE
  8
DETAIL
  6
CONTINUOUS
 62
     5
 10
226.90000305175741
 20
40.96482969577869
 30
0.0
 11
226.90000305175741
 21
0.0000004274523917
 31
0.0
  0
LINE
  8
DETAIL
  6
CONTINUOUS
 62
     5
 10
-226.90000305175931
 20
37.94638797848188
 30
0.0
 11
-226.90000305175931
 21
-0.0000003346486892
 31
0.0
  0
LINE
  8
DETAIL
  6
CONTINUOUS
 62
     5
 10
-193.50000000000091
 20
49.999999999997613
 30
0.0
 11
-193.50000000000091
 21
50.599999999997522
 31
0.0
  0
ARC
  8
DETAIL
  6
CONTINUOUS
 62
     5
 10
-152.50000000000091
 20
11.29999999999745
 30
0.0
 40
6.9999999999999378
 50
90.0
 51
270.0
  0
ARC
  8
DETAIL
  6
CONTINUOUS
 62
     5
 10
152.49999999999909
 20
11.29999999999745
 30
0.0
 40
7.0000000000000311
 50
270.0
 51
90.0
  0
LINE
  8
DETAIL
  6
CONTINUOUS
 62
     5
 10
193.49999999999909
 20
49.999999999997613
 30
0.0
 11
193.49999999999909
 21
50.599999999997287
 31
0.0
  0
LINE
  8
DETAIL
  6
CONTINUOUS
 62
     5
 10
-147.50000000000091
 20
4.2999999999974534
 30
0.0
 11
-152.50000000000091
 21
4.2999999999974534
 31
0.0
  0
LINE
  8
DETAIL
  6
CONTINUOUS
 62
     5
 10
-157.50000610351799
 20
50.599999999997522
 30
0.0
 11
-193.50000000000091
 21
50.599999999997522
 31
0.0
  0
LINE
  8
DETAIL
  6
CONTINUOUS
 62
     5
 10
147.50000000000091
 20
4.2999999999974534
 30
0.0
 11
152.49999999999909
 21
4.2999999999974534
 31
0.0
  0
LINE
  8
DETAIL
  6
CONTINUOUS
 62
     5
 10
-152.50000000000091
 20
18.29999999999723
 30
0.0
 11
-147.50000000000091
 21
18.29999999999723
 31
0.0
  0
LINE
  8
DETAIL
  6
CONTINUOUS
 62
     5
 10
152.49999999999909
 20
18.299999999997681
 30
0.0
 11
147.50000000000091
 21
18.299999999997681
 31
0.0
  0
CIRCLE
  8
DETAIL
  6
CONTINUOUS
 62
     5
 10
-150.00000000000091
 20
39.399999999997483
 30
0.0
 40
2.499999999999857
  0
ARC
  8
DETAIL
  6
CONTINUOUS
 62
     5
 10
-147.50000000000091
 20
11.29999999999745
 30
0.0
 40
7.0000000000000311
 50
270.0
 51
90.0
  0
CIRCLE
  8
DETAIL
  6
CONTINUOUS
 62
     5
 10
149.99999999999909
 20
39.399999999997483
 30
0.0
 40
2.5000000000000382
  0
ARC
  8
DETAIL
  6
CONTINUOUS
 62
     5
 10
147.50000000000091
 20
11.29999999999745
 30
0.0
 40
7.0000000000000311
 50
90.0
 51
270.0
  0
LINE
  8
DETAIL
  6
CONTINUOUS
 62
     5
 10
157.5000061035162
 20
50.599999999997287
 30
0.0
 11
193.49999999999909
 21
50.599999999997287
 31
0.0
  0
LINE
  8
DETAIL
  6
CONTINUOUS
 62
     5
 10
142.4999938964838
 20
50.599999999997287
 30
0.0
 11
-142.49999389648559
 21
50.599999999997522
 31
0.0
  0
LINE
  8
DETAIL
  6
CONTINUOUS
 62
     5
 10
-226.90000305175931
 20
49.999999665348923
 30
0.0
 11
226.90000305175741
 21
50.000000427449891
 31
0.0
  0
LINE
  8
DETAIL
  6
CONTINUOUS
 62
     5
 10
-142.49999389648559
 20
50.599999999997522
 30
0.0
 11
-142.49999389648559
 21
49.999999999997613
 31
0.0
  0
LINE
  8
DETAIL
  6
CONTINUOUS
 62
     5
 10
142.4999938964838
 20
50.599999999997287
 30
0.0
 11
142.4999938964838
 21
49.999999999997613
 31
0.0
  0
LINE
  8
DETAIL
  6
CONTINUOUS
 62
     5
 10
-157.50000610351799
 20
49.999999999997613
 30
0.0
 11
-157.50000610351799
 21
50.599999999997522
 31
0.0
  0
LINE
  8
DETAIL
  6
CONTINUOUS
 62
     5
 10
-147.6000000000013
 20
51.599999999997522
 30
0.0
 11
-147.6000000000013
 21
50.999999999997392
 31
0.0
  0
LINE
  8
DETAIL
  6
CONTINUOUS
 62
     5
 10
157.5000061035162
 20
49.999999999997613
 30
0.0
 11
157.5000061035162
 21
50.599999999997287
 31
0.0
  0
LINE
  8
DETAIL
  6
CONTINUOUS
 62
     5
 10
147.59999999999951
 20
51.599999999997522
 30
0.0
 11
147.59999999999951
 21
50.999999999997392
 31
0.0
  0
ARC
  8
DETAIL
  6
CONTINUOUS
 62
     5
 10
221.00000000000091
 20
4.1999999999977717
 30
0.0
 40
0.9999999999999812
 50
180.0
 51
0.0
  0
ARC
  8
DETAIL
  6
CONTINUOUS
 62
     5
 10
208.99999999999909
 20
4.1999999999977717
 30
0.0
 40
0.9999999999999812
 50
180.0
 51
0.0
  0
ARC
  8
DETAIL
  6
CONTINUOUS
 62
     5
 10
208.99999999999909
 20
43.999999999997392
 30
0.0
 40
0.9999999999999812
 50
0.0
 51
180.0
  0
ARC
  8
DETAIL
  6
CONTINUOUS
 62
     5
 10
221.00000000000091
 20
43.999999999997392
 30
0.0
 40
0.9999999999999812
 50
0.0
 51
180.0
  0
ARC
  8
DETAIL
  6
CONTINUOUS
 62
     5
 10
211.99999999999909
 20
39.399999999997483
 30
0.0
 40
4.0000000000000062
 50
180.0
 51
270.0
  0
ARC
  8
DETAIL
  6
CONTINUOUS
 62
     5
 10
218.00000000000091
 20
39.399999999997483
 30
0.0
 40
4.0000000000000062
 50
270.0
 51
0.0
  0
LINE
  8
DETAIL
  6
CONTINUOUS
 62
     5
 10
207.99999999999909
 20
43.999999999997392
 30
0.0
 11
207.99999999999909
 21
39.399999999997483
 31
0.0
  0
LINE
  8
DETAIL
  6
CONTINUOUS
 62
     5
 10
221.99999999999909
 20
43.999999999997392
 30
0.0
 11
221.99999999999909
 21
39.399999999997483
 31
0.0
  0
ARC
  8
DETAIL
  6
CONTINUOUS
 62
     5
 10
218.00000000000091
 20
8.7999999999976808
 30
0.0
 40
4.0000000000000062
 50
0.0
 51
90.0
  0
ARC
  8
DETAIL
  6
CONTINUOUS
 62
     5
 10
211.99999999999909
 20
8.7999999999976808
 30
0.0
 40
4.0000000000000062
 50
90.0
 51
180.0
  0
LINE
  8
DETAIL
  6
CONTINUOUS
 62
     5
 10
207.99999999999909
 20
4.1999999999977717
 30
0.0
 11
207.99999999999909
 21
8.7999999999976808
 31
0.0
  0
LINE
  8
DETAIL
  6
CONTINUOUS
 62
     5
 10
221.99999999999909
 20
4.1999999999977717
 30
0.0
 11
221.99999999999909
 21
8.7999999999976808
 31
0.0
  0
LINE
  8
DETAIL
  6
CONTINUOUS
 62
     5
 10
210.00000000000091
 20
4.1999999999977717
 30
0.0
 11
210.00000000000091
 21
4.7999999999974534
 31
0.0
  0
LINE
  8
DETAIL
  6
CONTINUOUS
 62
     5
 10
219.99999999999909
 20
4.1999999999977717
 30
0.0
 11
219.99999999999909
 21
4.7999999999974534
 31
0.0
  0
LINE
  8
DETAIL
  6
CONTINUOUS
 62
     5
 10
211.99999999999909
 20
35.399999999997483
 30
0.0
 11
218.00000000000091
 21
35.399999999997483
 31
0.0
  0
LINE
  8
DETAIL
  6
CONTINUOUS
 62
     5
 10
211.99999999999909
 20
12.799999999997681
 30
0.0
 11
218.00000000000091
 21
12.799999999997681
 31
0.0
  0
LINE
  8
DETAIL
  6
CONTINUOUS
 62
     5
 10
207.99999999999909
 20
4.1999999999977717
 30
0.0
 11
207.99999999999909
 21
8.1999999999977717
 31
0.0
  0
LINE
  8
DETAIL
  6
CONTINUOUS
 62
     5
 10
221.99999999999909
 20
4.1999999999977717
 30
0.0
 11
221.99999999999909
 21
8.1999999999977717
 31
0.0
  0
LINE
  8
DETAIL
  6
CONTINUOUS
 62
     5
 10
210.00000000000091
 20
43.999999999997392
 30
0.0
 11
210.00000000000091
 21
43.399999999997704
 31
0.0
  0
LINE
  8
DETAIL
  6
CONTINUOUS
 62
     5
 10
219.99999999999909
 20
43.999999999997392
 30
0.0
 11
219.99999999999909
 21
43.399999999997704
 31
0.0
  0
LINE
  8
DETAIL
  6
CONTINUOUS
 62
     5
 10
212.49999999999909
 20
21.799999999997681
 30
0.0
 11
212.49999999999909
 21
25.79999999999745
 31
0.0
  0
LINE
  8
DETAIL
  6
CONTINUOUS
 62
     5
 10
212.49999999999909
 20
21.799999999997681
 30
0.0
 11
217.50000000000091
 21
21.799999999997681
 31
0.0
  0
LINE
  8
DETAIL
  6
CONTINUOUS
 62
     5
 10
212.49999999999909
 20
25.79999999999745
 30
0.0
 11
217.50000000000091
 21
25.79999999999745
 31
0.0
  0
LINE
  8
DETAIL
  6
CONTINUOUS
 62
     5
 10
217.50000000000091
 20
21.799999999997681
 30
0.0
 11
217.50000000000091
 21
25.79999999999745
 31
0.0
  0
LINE
  8
DETAIL
  6
CONTINUOUS
 62
     5
 10
-54.800000000000182
 20
290.01245479629779
 30
0.0
 11
-53.799999999998363
 21
291.01245479629779
 31
0.0
  0
LINE
  8
DETAIL
  6
CONTINUOUS
 62
     5
 10
-54.800000000000182
 20
278.15016102194022
 30
0.0
 11
-54.800000000000182
 21
290.01245479629779
 31
0.0
  0
LINE
  8
DETAIL
  6
CONTINUOUS
 62
     5
 10
-53.800000000000182
 20
291.01245479629779
 30
0.0
 11
-53.800000000000182
 21
321.85006336569018
 31
0.0
  0
ARC
  8
DETAIL
  6
CONTINUOUS
 62
     5
 10
-48.199999999999818
 20
321.85006336569018
 30
0.0
 40
5.5999999999999188
 50
90.0
 51
180.0
  0
ARC
  8
DETAIL
  6
CONTINUOUS
 62
     5
 10
-13.833568086761259
 20
326.05006336569068
 30
0.0
 40
1.999999999999956
 50
90.0
 51
135.57299599919079
  0
ARC
  8
DETAIL
  6
CONTINUOUS
 62
     5
 10
4.4335680867598057
 20
326.05006336569068
 30
0.0
 40
2.0000000000000631
 50
44.427004000790802
 51
90.0
  0
LINE
  8
DETAIL
  6
CONTINUOUS
 62
     5
 10
4.4335680867598057
 20
328.05006336569068
 30
0.0
 11
-13.833568086761259
 21
328.05006336569068
 31
0.0
  0
ARC
  8
DETAIL
  6
CONTINUOUS
 62
     5
 10
38.800000000000182
 20
321.85006336569018
 30
0.0
 40
5.6000000000000938
 50
0.0
 51
90.0
  0
LINE
  8
DETAIL
  6
CONTINUOUS
 62
     5
 10
44.400000000000553
 20
291.01245479629779
 30
0.0
 11
44.400000000000553
 21
321.85006336569018
 31
0.0
  0
LINE
  8
DETAIL
  6
CONTINUOUS
 62
     5
 10
45.400000000000553
 20
278.15016102194022
 30
0.0
 11
45.400000000000553
 21
290.01245479629779
 31
0.0
  0
LINE
  8
DETAIL
  6
CONTINUOUS
 62
     5
 10
45.400000000000553
 20
290.01245479629779
 30
0.0
 11
44.400000000000553
 21
291.01245479629779
 31
0.0
  0
LINE
  8
DETAIL
  6
CONTINUOUS
 62
     5
 10
-54.800000000000182
 20
290.01245479629779
 30
0.0
 11
45.400000000000553
 21
290.01245479629779
 31
0.0
  0
LINE
  8
DETAIL
  6
CONTINUOUS
 62
     5
 10
-53.800000000000182
 20
291.01245479629779
 30
0.0
 11
44.400000000000553
 21
291.01245479629779
 31
0.0
  0
LINE
  8
DETAIL
  6
CONTINUOUS
 62
     5
 10
-48.199999999999818
 20
327.45006336569031
 30
0.0
 11
38.800000000000182
 21
327.45006336569031
 31
0.0
  0
ARC
  8
OUTLINE
  6
CONTINUOUS
 62
     3
 10
-191.4500110507006
 20
276.90028331874902
 30
0.0
 40
1.2500000000000191
 50
90.0
 51
180.0
  0
LINE
  8
OUTLINE
  6
CONTINUOUS
 62
     3
 10
-192.7000110507006
 20
271.45018566250002
 30
0.0
 11
-192.7000110507006
 21
276.90028331874902
 31
0.0
  0
ARC
  8
OUTLINE
  6
CONTINUOUS
 62
     3
 10
-192.10000187754579
 20
269.30018566249998
 30
0.0
 40
0.8999999999998563
 50
90.0
 51
180.0
  0
ARC
  8
OUTLINE
  6
CONTINUOUS
 62
     3
 10
-191.4500110507006
 20
271.45018566250002
 30
0.0
 40
1.2499999999999309
 50
180.0
 51
270.0
  0
LINE
  8
OUTLINE
  6
CONTINUOUS
 62
     3
 10
-191.46749610334609
 20
278.15016102193982
 30
0.0
 11
188.0000018775454
 21
278.15016102194022
 31
0.0
  0
LINE
  8
OUTLINE
  6
CONTINUOUS
 62
     3
 10
-193.00000187754719
 20
50.599999999997522
 30
0.0
 11
-193.00000187753631
 21
269.30018566249998
 31
0.0
  0
LINE
  8
OUTLINE
  6
CONTINUOUS
 62
     3
 10
255.00000000000091
 20
-3.3135268672228899
 30
0.0
 11
255.00000000000091
 21
-0.0000000000002274
 31
0.0
  0
ARC
  8
OUTLINE
  6
CONTINUOUS
 62
     3
 10
220.39221894010831
 20
191.98299797218709
 30
0.0
 40
200.00000000000031
 50
269.25290458650761
 51
279.47898029036918
  0
ARC
  8
OUTLINE
  6
CONTINUOUS
 62
     3
 10
253.00000000000091
 20
-3.3135268672228899
 30
0.0
 40
2.000000000000294
 50
279.47898029036918
 51
0.0
  0
LINE
  8
OUTLINE
  6
CONTINUOUS
 62
     3
 10
-217.78443788021741
 20
-8.0000000000002274
 30
0.0
 11
217.78443788024649
 21
-8.0000000000002274
 31
0.0
  0
LINE
  8
OUTLINE
  6
CONTINUOUS
 62
     3
 10
-255.00000000000091
 20
-3.3135268672228899
 30
0.0
 11
-255.00000000000091
 21
0.0
 31
0.0
  0
LINE
  8
OUTLINE
  6
CONTINUOUS
 62
     3
 10
-255.00000000000091
 20
0.0
 30
0.0
 11
255.00000000000091
 21
0.0
 31
0.0
  0
ARC
  8
OUTLINE
  6
CONTINUOUS
 62
     3
 10
-220.39221894010831
 20
191.98299797218709
 30
0.0
 40
200.00000000000051
 50
260.52101970963082
 51
270.74709541349239
  0
ARC
  8
OUTLINE
  6
CONTINUOUS
 62
     3
 10
-253.00000000000091
 20
-3.3135268672228899
 30
0.0
 40
1.999999999999956
 50
180.0
 51
260.52101970963082
  0
LINE
  8
OUTLINE
  6
CONTINUOUS
 62
     3
 10
194.0000018775454
 20
118.04997023368971
 30
0.0
 11
193.5000018775454
 21
118.04997023368971
 31
0.0
  0
ARC
  8
OUTLINE
  6
CONTINUOUS
 62
     3
 10
197.0000018775454
 20
128.99997023368951
 30
0.0
 40
3.000000000000024
 50
90.0
 51
180.0
  0
ARC
  8
OUTLINE
  6
CONTINUOUS
 62
     3
 10
268.5000018775454
 20
134.99997023368971
 30
0.0
 40
2.9999999999999369
 50
270.0
 51
297.04043027399462
  0
LINE
  8
OUTLINE
  6
CONTINUOUS
 62
     3
 10
197.0000018775454
 20
131.99997023368951
 30
0.0
 11
268.5000018775454
 21
131.99997023368951
 31
0.0
  0
LINE
  8
OUTLINE
  6
CONTINUOUS
 62
     3
 10
276.30853894491611
 20
135.61737105131979
 30
0.0
 11
269.86385923079519
 21
132.32791239000619
 31
0.0
  0
ARC
  8
OUTLINE
  6
CONTINUOUS
 62
     3
 10
277.89970585703941
 20
132.49997023368971
 30
0.0
 40
3.5000000000000129
 50
90.0
 51
117.0404302739946
  0
LINE
  8
OUTLINE
  6
CONTINUOUS
 62
     3
 10
302.86388203411389
 20
135.99997023368951
 30
0.0
 11
277.89970585703941
 21
135.99997023368951
 31
0.0
  0
ARC
  8
OUTLINE
  6
CONTINUOUS
 62
     3
 10
302.86388203411389
 20
138.49997023368971
 30
0.0
 40
2.499999999999944
 50
270.0
 51
315.00000000000921
  0
ARC
  8
OUTLINE
  6
CONTINUOUS
 62
     3
 10
308.72813298178431
 20
138.0002601506819
 30
0.0
 40
2.000000000000044
 50
90.0
 51
135.00000000000921
  0
LINE
  8
OUTLINE
  6
CONTINUOUS
 62
     3
 10
307.31391941941268
 20
139.41447371305469
 30
0.0
 11
304.63164898707959
 21
136.73220328072321
 31
0.0
  0
ARC
  8
OUTLINE
  6
CONTINUOUS
 62
     3
 10
334.39970585703941
 20
140.50026015068161
 30
0.0
 40
0.4999999999999875
 50
270.0
 51
0.0
  0
LINE
  8
OUTLINE
  6
CONTINUOUS
 62
     3
 10
308.72813298178431
 20
140.0002601506819
 30
0.0
 11
334.39970585703941
 21
140.0002601506819
 31
0.0
  0
LINE
  8
OUTLINE
  6
CONTINUOUS
 62
     3
 10
334.89970585703759
 20
283.49968031669749
 30
0.0
 11
334.89970585703759
 21
140.50026015068161
 31
0.0
  0
ARC
  8
OUTLINE
  6
CONTINUOUS
 62
     3
 10
334.39970585703941
 20
283.49968031669749
 30
0.0
 40
0.5000000000000813
 50
0.0
 51
90.0
  0
ARC
  8
OUTLINE
  6
CONTINUOUS
 62
     3
 10
302.86388203411389
 20
285.49997023368968
 30
0.0
 40
2.4999999999997429
 50
44.999999999990777
 51
90.0
  0
LINE
  8
OUTLINE
  6
CONTINUOUS
 62
     3
 10
308.72813298178431
 20
283.99968031669721
 30
0.0
 11
334.39970585703941
 21
283.99968031669721
 31
0.0
  0
ARC
  8
OUTLINE
  6
CONTINUOUS
 62
     3
 10
308.72813298178431
 20
285.99968031669749
 30
0.0
 40
2.0000000000000688
 50
224.99999999999079
 51
270.0
  0
LINE
  8
OUTLINE
  6
CONTINUOUS
 62
     3
 10
307.31391941941268
 20
284.58546675432422
 30
0.0
 11
304.63164898707959
 21
287.26773718665589
 31
0.0
  0
ARC
  8
OUTLINE
  6
CONTINUOUS
 62
     3
 10
277.89970585703941
 20
291.49997023368968
 30
0.0
 40
3.500000000000107
 50
242.95956972600541
 51
270.0
  0
LINE
  8
OUTLINE
  6
CONTINUOUS
 62
     3
 10
302.86388203411389
 20
287.99997023368968
 30
0.0
 11
277.89970585703941
 21
287.99997023368968
 31
0.0
  0
LINE
  8
OUTLINE
  6
CONTINUOUS
 62
     3
 10
276.30853894491611
 20
288.38256941605891
 30
0.0
 11
269.86385923079519
 21
291.67202807737277
 31
0.0
  0
ARC
  8
OUTLINE
  6
CONTINUOUS
 62
     3
 10
268.5000018775454
 20
288.99997023368951
 30
0.0
 40
2.9999999999999618
 50
62.95956972600537
 51
90.0
  0
LINE
  8
OUTLINE
  6
CONTINUOUS
 62
     3
 10
197.0000018775454
 20
291.99997023368968
 30
0.0
 11
268.5000018775454
 21
291.99997023368968
 31
0.0
  0
ARC
  8
OUTLINE
  6
CONTINUOUS
 62
     3
 10
197.0000018775454
 20
294.99997023368968
 30
0.0
 40
3.000000000000024
 50
180.0
 51
270.0
  0
LINE
  8
OUTLINE
  6
CONTINUOUS
 62
     3
 10
194.0000018775454
 20
302.54997023368969
 30
0.0
 11
194.0000018775454
 21
118.04997023368971
 31
0.0
  0
LINE
  8
OUTLINE
  6
CONTINUOUS
 62
     3
 10
194.0000018775454
 20
302.54997023368969
 30
0.0
 11
193.5000018775454
 21
302.54997023368969
 31
0.0
  0
LINE
  8
OUTLINE
  6
CONTINUOUS
 62
     3
 10
193.00000187754719
 20
303.79997023368759
 30
0.0
 11
193.00000187754719
 21
280.19937514091612
 31
0.0
  0
ARC
  8
OUTLINE
  6
CONTINUOUS
 62
     3
 10
191.90000187754501
 20
281.79937514091603
 30
0.0
 40
1.099999999999925
 50
270.0
 51
0.0
  0
LINE
  8
OUTLINE
  6
CONTINUOUS
 62
     3
 10
191.90000187754501
 20
280.69937514091589
 30
0.0
 11
189.75039860606279
 21
280.69937514091589
 31
0.0
  0
ARC
  8
OUTLINE
  6
CONTINUOUS
 62
     3
 10
189.75039860606279
 20
278.44937514091612
 30
0.0
 40
2.2499999999999929
 50
90.0
 51
180.0
  0
LINE
  8
OUTLINE
  6
CONTINUOUS
 62
     3
 10
187.500398606061
 20
278.44937514091612
 30
0.0
 11
187.500398606061
 21
278.15016102194022
 31
0.0
  0
ARC
  8
OUTLINE
  6
CONTINUOUS
 62
     3
 10
193.00000187754719
 20
303.79997023368759
 30
0.0
 40
0.4999999999999875
 50
90.0
 51
180.0
  0
ARC
  8
OUTLINE
  6
CONTINUOUS
 62
     3
 10
193.00000187754719
 20
303.79997023368759
 30
0.0
 40
0.4999999999999875
 50
0.0
 51
90.0
  0
LINE
  8
OUTLINE
  6
CONTINUOUS
 62
     3
 10
192.5000018775454
 20
303.79997023368759
 30
0.0
 11
192.5000018775454
 21
301.29997023368759
 31
0.0
  0
LINE
  8
OUTLINE
  6
CONTINUOUS
 62
     3
 10
193.00000187754719
 20
301.29997023368759
 30
0.0
 11
192.5000018775454
 21
301.29997023368759
 31
0.0
  0
LINE
  8
OUTLINE
  6
CONTINUOUS
 62
     3
 10
193.5000018775454
 20
50.599999999997287
 30
0.0
 11
193.5000018775454
 21
303.79997023368759
 31
0.0
  0
ARC
  8
OUTLINE
  6
CONTINUOUS
 62
     3
 10
-226.3000030517571
 20
48.799999665348878
 30
0.0
 40
1.200000000000025
 50
120.0000000000296
 51
180.0
  0
LINE
  8
OUTLINE
  6
CONTINUOUS
 62
     3
 10
-227.50000305175789
 20
0.0000003065298415
 30
0.0
 11
-227.50000305175789
 21
48.799999665348878
 31
0.0
  0
ARC
  8
OUTLINE
  6
CONTINUOUS
 62
     3
 10
226.3000030517569
 20
48.800000427449852
 30
0.0
 40
1.2000000000000439
 50
0.0
 51
59.999999999970377
  0
LINE
  8
OUTLINE
  6
CONTINUOUS
 62
     3
 10
227.50000305175789
 20
0.0000010686309224
 30
0.0
 11
227.50000305175789
 21
48.800000427449852
 31
0.0
  0
LINE
  8
OUTLINE
  6
CONTINUOUS
 62
     3
 10
-193.50000000000091
 20
49.999999999997613
 30
0.0
 11
-193.50000000000091
 21
50.599999999997522
 31
0.0
  0
LINE
  8
OUTLINE
  6
CONTINUOUS
 62
     3
 10
193.49999999999909
 20
49.999999999997613
 30
0.0
 11
193.49999999999909
 21
50.599999999997287
 31
0.0
  0
LINE
  8
OUTLINE
  6
CONTINUOUS
 62
     3
 10
-157.50000610351799
 20
50.599999999997522
 30
0.0
 11
-193.50000000000091
 21
50.599999999997522
 31
0.0
  0
LINE
  8
OUTLINE
  6
CONTINUOUS
 62
     3
 10
-226.90000305175931
 20
49.999999665348923
 30
0.0
 11
226.90000305175741
 21
50.000000427449891
 31
0.0
  0
LINE
  8
OUTLINE
  6
CONTINUOUS
 62
     3
 10
-54.800000000000182
 20
290.01245479629779
 30
0.0
 11
-53.799999999998363
 21
291.01245479629779
 31
0.0
  0
LINE
  8
OUTLINE
  6
CONTINUOUS
 62
     3
 10
-54.800000000000182
 20
278.15016102194022
 30
0.0
 11
-54.800000000000182
 21
290.01245479629779
 31
0.0
  0
LINE
  8
OUTLINE
  6
CONTINUOUS
 62
     3
 10
-53.800000000000182
 20
291.01245479629779
 30
0.0
 11
-53.800000000000182
 21
321.85006336569018
 31
0.0
  0
ARC
  8
OUTLINE
  6
CONTINUOUS
 62
     3
 10
-48.199999999999818
 20
321.85006336569018
 30
0.0
 40
5.5999999999999188
 50
90.0
 51
180.0
  0
ARC
  8
OUTLINE
  6
CONTINUOUS
 62
     3
 10
-13.833568086761259
 20
326.05006336569068
 30
0.0
 40
1.999999999999956
 50
90.0
 51
135.57299599917241
  0
ARC
  8
OUTLINE
  6
CONTINUOUS
 62
     3
 10
4.4335680867598057
 20
326.05006336569068
 30
0.0
 40
2.0000000000000631
 50
44.427004000790802
 51
90.0
  0
LINE
  8
OUTLINE
  6
CONTINUOUS
 62
     3
 10
4.4335680867598057
 20
328.05006336569068
 30
0.0
 11
-13.833568086761259
 21
328.05006336569068
 31
0.0
  0
ARC
  8
OUTLINE
  6
CONTINUOUS
 62
     3
 10
38.800000000000182
 20
321.85006336569018
 30
0.0
 40
5.6000000000000938
 50
0.0
 51
90.0
  0
LINE
  8
OUTLINE
  6
CONTINUOUS
 62
     3
 10
44.400000000000553
 20
291.01245479629779
 30
0.0
 11
44.400000000000553
 21
321.85006336569018
 31
0.0
  0
LINE
  8
OUTLINE
  6
CONTINUOUS
 62
     3
 10
45.400000000000553
 20
278.15016102194022
 30
0.0
 11
45.400000000000553
 21
290.01245479629779
 31
0.0
  0
LINE
  8
OUTLINE
  6
CONTINUOUS
 62
     3
 10
45.400000000000553
 20
290.01245479629779
 30
0.0
 11
44.400000000000553
 21
291.01245479629779
 31
0.0
  0
LINE
  8
OUTLINE
  6
CONTINUOUS
 62
     3
 10
-48.199999999999818
 20
327.45006336569031
 30
0.0
 11
38.800000000000182
 21
327.45006336569031
 31
0.0
  0
LINE
  8
NOTE
  6
CONTINUOUS
 62
     4
 10
-130.00000000000011
 20
130.00000065986799
 30
0.0
 11
-170.00000000000011
 21
130.00000065986799
 31
0.0
  0
LINE
  8
DETAIL
  6
CONTINUOUS
 62
     5
 10
-130.00000000000011
 20
50.600000019081683
 30
0.0
 11
-130.00000000000011
 21
130.00000065986799
 31
0.0
  0
LINE
  8
NOTE
  6
CONTINUOUS
 62
     4
 10
-150.00000000000011
 20
110.00000065986789
 30
0.0
 11
-150.00000000000011
 21
150.00000065986799
 31
0.0
  0
LINE
  8
DETAIL
  6
CONTINUOUS
 62
     5
 10
-170.00000000000011
 20
130.00000065986799
 30
0.0
 11
-170.00000000000011
 21
50.600000019081683
 31
0.0
  0
LINE
  8
NOTE
  6
CONTINUOUS
 62
     4
 10
-150.00000000000011
 20
119.0000006597797
 30
0.0
 11
-150.00000000000011
 21
140.00000065994769
 31
0.0
  0
LINE
  8
NOTE
  6
CONTINUOUS
 62
     4
 10
-154.37774980164559
 20
134.40682207928381
 30
0.0
 11
-150.00000551276321
 21
130.00000301887769
 31
0.0
  0
LINE
  8
NOTE
  6
CONTINUOUS
 62
     4
 10
-150.00000551276321
 20
130.00000301887769
 30
0.0
 11
-151.58782469836959
 21
136.00529481227301
 31
0.0
  0
LINE
  8
NOTE
  6
CONTINUOUS
 62
     4
 10
-150.00000551276321
 20
130.00000301887769
 30
0.0
 11
-155.96556898725191
 21
140.4121138726789
 31
0.0
  0
CIRCLE
  8
FIX
  6
CONTINUOUS
 62
    11
 10
-150.00000000000011
 20
130.00000065986799
 30
0.0
 40
5.0
  0
LINE
  8
NOTE
  6
CONTINUOUS
 62
     4
 10
-150.00000000000099
 20
117.8000006597797
 30
0.0
 11
-150.00000000000099
 21
138.8000006599477
 31
0.0
  0
ARC
  8
DETAIL
  6
CONTINUOUS
 62
     5
 10
-159.00000000007381
 20
123.0015261436108
 30
0.0
 40
2.0000000000159881
 50
180.0
 51
270.0
  0
LINE
  8
DETAIL
  6
CONTINUOUS
 62
     5
 10
-140.99999999992829
 20
121.0015261435946
 30
0.0
 11
-159.00000000007381
 21
121.0015261435946
 31
0.0
  0
LINE
  8
DETAIL
  6
CONTINUOUS
 62
     5
 10
-161.00000000009021
 20
129.00152614365879
 30
0.0
 11
-161.00000000009021
 21
123.0015261436108
 31
0.0
  0
ARC
  8
DETAIL
  6
CONTINUOUS
 62
     5
 10
-140.99999999992829
 20
123.0015261436108
 30
0.0
 40
2.0000000000160001
 50
270.0
 51
0.0
  0
LINE
  8
DETAIL
  6
CONTINUOUS
 62
     5
 10
-138.99999999991189
 20
129.00152614365879
 30
0.0
 11
-138.99999999991189
 21
123.0015261436108
 31
0.0
  0
LINE
  8
DETAIL
  6
CONTINUOUS
 62
     5
 10
-140.4999999999246
 20
131.80000065989179
 30
0.0
 11
-140.4999999999246
 21
134.8000006599157
 31
0.0
  0
LINE
  8
DETAIL
  6
CONTINUOUS
 62
     5
 10
-142.499999999941
 20
129.0000006598691
 30
0.0
 11
-142.499999999941
 21
131.80000065989179
 31
0.0
  0
LINE
  8
DETAIL
  6
CONTINUOUS
 62
     5
 10
-157.50000000006091
 20
129.0000006598691
 30
0.0
 11
-157.50000000006091
 21
131.80000065989179
 31
0.0
  0
LINE
  8
DETAIL
  6
CONTINUOUS
 62
     5
 10
-159.50000000007739
 20
134.8000006599157
 30
0.0
 11
-140.4999999999246
 21
134.8000006599157
 31
0.0
  0
LINE
  8
DETAIL
  6
CONTINUOUS
 62
     5
 10
-159.50000000007739
 20
134.8000006599157
 30
0.0
 11
-159.50000000007739
 21
131.80000065989179
 31
0.0
  0
LINE
  8
DETAIL
  6
CONTINUOUS
 62
     5
 10
-159.50000000007739
 20
131.80000065989179
 30
0.0
 11
-140.4999999999246
 21
131.80000065989179
 31
0.0
  0
LINE
  8
DETAIL
  6
CONTINUOUS
 62
     5
 10
-130.00000298193311
 20
130.00000118776231
 30
0.0
 11
-170.00000298193311
 21
130.00000118776231
 31
0.0
  0
LINE
  8
DETAIL
  6
CONTINUOUS
 62
     5
 10
-161.00000000009021
 20
129.00152614365879
 30
0.0
 11
-138.99999999991189
 21
129.00152614365879
 31
0.0
  0
LINE
  8
NOTE
  6
CONTINUOUS
 62
     4
 10
130.0000000000008
 20
130.00000065986799
 30
0.0
 11
170.0000000000008
 21
130.00000065986799
 31
0.0
  0
LINE
  8
DETAIL
  6
CONTINUOUS
 62
     5
 10
130.0000000000008
 20
50.600000019081683
 30
0.0
 11
130.0000000000008
 21
130.00000065986799
 31
0.0
  0
LINE
  8
NOTE
  6
CONTINUOUS
 62
     4
 10
150.0000000000008
 20
110.00000065986789
 30
0.0
 11
150.0000000000008
 21
150.00000065986799
 31
0.0
  0
LINE
  8
DETAIL
  6
CONTINUOUS
 62
     5
 10
170.0000000000008
 20
130.00000065986799
 30
0.0
 11
170.0000000000008
 21
50.600000019081683
 31
0.0
  0
LINE
  8
NOTE
  6
CONTINUOUS
 62
     4
 10
150.0000000000008
 20
119.0000006597797
 30
0.0
 11
150.0000000000008
 21
140.00000065994769
 31
0.0
  0
CIRCLE
  8
FIX
  6
CONTINUOUS
 62
    11
 10
150.0000000000008
 20
130.00000065986799
 30
0.0
 40
5.0
  0
LINE
  8
NOTE
  6
CONTINUOUS
 62
     4
 10
150.00000000000171
 20
117.8000006597797
 30
0.0
 11
150.00000000000171
 21
138.8000006599477
 31
0.0
  0
ARC
  8
DETAIL
  6
CONTINUOUS
 62
     5
 10
159.00000000007449
 20
123.0015261436108
 30
0.0
 40
2.0000000000159881
 50
270.0
 51
0.0
  0
LINE
  8
DETAIL
  6
CONTINUOUS
 62
     5
 10
140.9999999999288
 20
121.0015261435946
 30
0.0
 11
159.00000000007449
 21
121.0015261435946
 31
0.0
  0
LINE
  8
DETAIL
  6
CONTINUOUS
 62
     5
 10
161.00000000009081
 20
129.00152614365879
 30
0.0
 11
161.00000000009081
 21
123.0015261436108
 31
0.0
  0
ARC
  8
DETAIL
  6
CONTINUOUS
 62
     5
 10
140.9999999999288
 20
123.0015261436108
 30
0.0
 40
2.0000000000160001
 50
180.0
 51
270.0
  0
LINE
  8
DETAIL
  6
CONTINUOUS
 62
     5
 10
138.9999999999126
 20
129.00152614365879
 30
0.0
 11
138.9999999999126
 21
123.0015261436108
 31
0.0
  0
LINE
  8
DETAIL
  6
CONTINUOUS
 62
     5
 10
140.49999999992531
 20
131.80000065989179
 30
0.0
 11
140.49999999992531
 21
134.8000006599157
 31
0.0
  0
LINE
  8
DETAIL
  6
CONTINUOUS
 62
     5
 10
142.49999999994171
 20
129.0000006598691
 30
0.0
 11
142.49999999994171
 21
131.80000065989179
 31
0.0
  0
LINE
  8
DETAIL
  6
CONTINUOUS
 62
     5
 10
157.50000000006159
 20
129.0000006598691
 30
0.0
 11
157.50000000006159
 21
131.80000065989179
 31
0.0
  0
LINE
  8
DETAIL
  6
CONTINUOUS
 62
     5
 10
159.5000000000781
 20
134.8000006599157
 30
0.0
 11
140.49999999992531
 21
134.8000006599157
 31
0.0
  0
LINE
  8
DETAIL
  6
CONTINUOUS
 62
     5
 10
159.5000000000781
 20
134.8000006599157
 30
0.0
 11
159.5000000000781
 21
131.80000065989179
 31
0.0
  0
LINE
  8
DETAIL
  6
CONTINUOUS
 62
     5
 10
159.5000000000781
 20
131.80000065989179
 30
0.0
 11
140.49999999992531
 21
131.80000065989179
 31
0.0
  0
LINE
  8
DETAIL
  6
CONTINUOUS
 62
     5
 10
130.00000298193379
 20
130.00000118776231
 30
0.0
 11
170.00000298193379
 21
130.00000118776231
 31
0.0
  0
LINE
  8
DETAIL
  6
CONTINUOUS
 62
     5
 10
161.00000000009081
 20
129.00152614365879
 30
0.0
 11
138.9999999999126
 21
129.00152614365879
 31
0.0
  0
LINE
  8
SIZE
  6
CONTINUOUS
 62
    30
 10
-53.800000000000182
 20
341.85006336569018
 30
0.0
 11
-53.800000000000182
 21
473.08238388072641
 31
0.0
  0
LINE
  8
SIZE
  6
CONTINUOUS
 62
    30
 10
44.400000000000553
 20
341.85006336569018
 30
0.0
 11
44.400000000000553
 21
473.08238388072641
 31
0.0
  0
LINE
  8
SIZE
  6
CONTINUOUS
 62
    30
 10
-65.800000000000182
 20
453.08238388072641
 30
0.0
 11
-77.800000000000182
 21
453.08238388072641
 31
0.0
  0
LINE
  8
SIZE
  6
CONTINUOUS
 62
    30
 10
56.400000000000553
 20
453.08238388072641
 30
0.0
 11
68.400000000000546
 21
453.08238388072641
 31
0.0
  0
LINE
  8
SIZE
  6
CONTINUOUS
 62
    30
 10
-53.800000000000182
 20
453.08238388072641
 30
0.0
 11
44.400000000000553
 21
453.08238388072641
 31
0.0
  0
CIRCLE
  8
SIZE
  6
CONTINUOUS
 62
    30
 10
-53.800000000000182
 20
453.08238388072641
 30
0.0
 40
6.0
  0
LINE
  8
SIZE
  6
CONTINUOUS
 62
    30
 10
-53.800000000000182
 20
453.08238388072641
 30
0.0
 11
-65.800000000000182
 21
453.08238388072641
 31
0.0
  0
CIRCLE
  8
SIZE
  6
CONTINUOUS
 62
    30
 10
44.400000000000553
 20
453.08238388072641
 30
0.0
 40
6.0
  0
LINE
  8
SIZE
  6
CONTINUOUS
 62
    30
 10
44.400000000000553
 20
453.08238388072641
 30
0.0
 11
56.400000000000553
 21
453.08238388072641
 31
0.0
  0
TEXT
  8
SIZE
  6
CONTINUOUS
 62
    30
 10
-91.648571428571259
 20
488.74905054739293
 30
0.0
 40
64.0
  1
φ98
 41
0.9
 72
     1
 11
-4.6999999999998181
 21
488.74905054739293
 31
0.0
  0
POINT
  8
DEFPOINTS
  6
CONTINUOUS
 62
    30
 10
-53.800000000000182
 20
321.85006336569018
 30
0.0
  0
POINT
  8
DEFPOINTS
  6
CONTINUOUS
 62
    30
 10
44.400000000000553
 20
321.85006336569018
 30
0.0
  0
POINT
  8
DEFPOINTS
  6
CONTINUOUS
 62
    30
 10
44.400000000000553
 20
453.08238388072641
 30
0.0
  0
LINE
  8
SIZE
  6
CONTINUOUS
 62
    30
 10
150.0000000000008
 20
170.00000065986799
 30
0.0
 11
150.0000000000008
 21
680.87146614193216
 31
0.0
  0
LINE
  8
SIZE
  6
CONTINUOUS
 62
    30
 10
-150.00000000000011
 20
170.00000065986799
 30
0.0
 11
-150.00000000000011
 21
680.87146614193216
 31
0.0
  0
LINE
  8
SIZE
  6
CONTINUOUS
 62
    30
 10
138.0000000000008
 20
660.87146614193216
 30
0.0
 11
-138.00000000000011
 21
660.87146614193216
 31
0.0
  0
CIRCLE
  8
SIZE
  6
CONTINUOUS
 62
    30
 10
150.0000000000008
 20
660.87146614193216
 30
0.0
 40
6.0
  0
LINE
  8
SIZE
  6
CONTINUOUS
 62
    30
 10
150.0000000000008
 20
660.87146614193216
 30
0.0
 11
138.0000000000008
 21
660.87146614193216
 31
0.0
  0
CIRCLE
  8
SIZE
  6
CONTINUOUS
 62
    30
 10
-150.00000000000011
 20
660.87146614193216
 30
0.0
 40
6.0
  0
LINE
  8
SIZE
  6
CONTINUOUS
 62
    30
 10
-150.00000000000011
 20
660.87146614193216
 30
0.0
 11
-138.00000000000011
 21
660.87146614193216
 31
0.0
  0
TEXT
  8
SIZE
  6
CONTINUOUS
 62
    30
 10
-74.057142857142509
 20
685.87146614193216
 30
0.0
 40
64.0
  1
300
 41
0.9
 72
     1
 11
0.0000000000003411
 21
685.87146614193216
 31
0.0
  0
POINT
  8
DEFPOINTS
  6
CONTINUOUS
 62
    30
 10
150.0000000000008
 20
150.00000065986799
 30
0.0
  0
POINT
  8
DEFPOINTS
  6
CONTINUOUS
 62
    30
 10
-150.00000000000011
 20
150.00000065986799
 30
0.0
  0
POINT
  8
DEFPOINTS
  6
CONTINUOUS
 62
    30
 10
-150.00000000000011
 20
660.87146614193216
 30
0.0
  0
LINE
  8
SIZE
  6
CONTINUOUS
 62
    30
 10
-193.00000187753631
 20
289.30018566249993
 30
0.0
 11
-193.00000187753631
 21
956.2364892032856
 31
0.0
  0
LINE
  8
SIZE
  6
CONTINUOUS
 62
    30
 10
193.00000187754719
 20
323.79997023368759
 30
0.0
 11
193.00000187754719
 21
956.2364892032856
 31
0.0
  0
LINE
  8
SIZE
  6
CONTINUOUS
 62
    30
 10
-181.00000187753631
 20
936.2364892032856
 30
0.0
 11
181.00000187754719
 21
936.2364892032856
 31
0.0
  0
CIRCLE
  8
SIZE
  6
CONTINUOUS
 62
    30
 10
-193.00000187753631
 20
936.2364892032856
 30
0.0
 40
6.0
  0
LINE
  8
SIZE
  6
CONTINUOUS
 62
    30
 10
-193.00000187753631
 20
936.2364892032856
 30
0.0
 11
-181.00000187753631
 21
936.2364892032856
 31
0.0
  0
CIRCLE
  8
SIZE
  6
CONTINUOUS
 62
    30
 10
193.00000187754719
 20
936.2364892032856
 30
0.0
 40
6.0
  0
LINE
  8
SIZE
  6
CONTINUOUS
 62
    30
 10
193.00000187754719
 20
936.2364892032856
 30
0.0
 11
181.00000187754719
 21
936.2364892032856
 31
0.0
  0
TEXT
  8
SIZE
  6
CONTINUOUS
 62
    30
 10
-109.1657142857088
 20
961.2364892032856
 30
0.0
 40
64.0
  1
□386
 41
0.9
 72
     1
 11
0.000000000005457
 21
961.2364892032856
 31
0.0
  0
POINT
  8
DEFPOINTS
  6
CONTINUOUS
 62
    30
 10
-193.00000187753631
 20
269.30018566249998
 30
0.0
  0
POINT
  8
DEFPOINTS
  6
CONTINUOUS
 62
    30
 10
193.00000187754719
 20
303.79997023368759
 30
0.0
  0
POINT
  8
DEFPOINTS
  6
CONTINUOUS
 62
    30
 10
193.00000187754719
 20
936.2364892032856
 30
0.0
  0
LINE
  8
SIZE
  6
CONTINUOUS
 62
    30
 10
193.00000187754719
 20
324.29997023368759
 30
0.0
 11
193.00000187754719
 21
957.93648920328565
 31
0.0
  0
LINE
  8
SIZE
  6
CONTINUOUS
 62
    30
 10
334.89970585703759
 20
303.49968031669749
 30
0.0
 11
334.89970585703759
 21
957.93648920328565
 31
0.0
  0
LINE
  8
SIZE
  6
CONTINUOUS
 62
    30
 10
181.00000187754719
 20
937.93648920328565
 30
0.0
 11
169.00000187754719
 21
937.93648920328565
 31
0.0
  0
LINE
  8
SIZE
  6
CONTINUOUS
 62
    30
 10
346.89970585703759
 20
937.93648920328565
 30
0.0
 11
358.89970585703759
 21
937.93648920328565
 31
0.0
  0
LINE
  8
SIZE
  6
CONTINUOUS
 62
    30
 10
193.00000187754719
 20
937.93648920328565
 30
0.0
 11
334.89970585703759
 21
937.93648920328565
 31
0.0
  0
CIRCLE
  8
SIZE
  6
CONTINUOUS
 62
    30
 10
193.00000187754719
 20
937.93648920328565
 30
0.0
 40
6.0
  0
LINE
  8
SIZE
  6
CONTINUOUS
 62
    30
 10
193.00000187754719
 20
937.93648920328565
 30
0.0
 11
181.00000187754719
 21
937.93648920328565
 31
0.0
  0
CIRCLE
  8
SIZE
  6
CONTINUOUS
 62
    30
 10
334.89970585703759
 20
937.93648920328565
 30
0.0
 40
6.0
  0
LINE
  8
SIZE
  6
CONTINUOUS
 62
    30
 10
334.89970585703759
 20
937.93648920328565
 30
0.0
 11
346.89970585703759
 21
937.93648920328565
 31
0.0
  0
TEXT
  8
SIZE
  6
CONTINUOUS
 62
    30
 10
195.37842529586379
 20
962.93648920328565
 30
0.0
 40
64.0
  1
142
 41
0.9
 72
     1
 11
263.9498538672924
 21
962.93648920328565
 31
0.0
  0
POINT
  8
DEFPOINTS
  6
CONTINUOUS
 62
    30
 10
193.00000187754719
 20
304.29997023368759
 30
0.0
  0
POINT
  8
DEFPOINTS
  6
CONTINUOUS
 62
    30
 10
334.89970585703759
 20
283.49968031669749
 30
0.0
  0
POINT
  8
DEFPOINTS
  6
CONTINUOUS
 62
    30
 10
334.89970585703759
 20
937.93648920328565
 30
0.0
  0
LINE
  8
SIZE
  6
CONTINUOUS
 62
    30
 10
334.89970585703759
 20
303.49968031669749
 30
0.0
 11
334.89970585703759
 21
694.6623518472154
 31
0.0
  0
LINE
  8
SIZE
  6
CONTINUOUS
 62
    30
 10
307.89970585703941
 20
303.64092884632458
 30
0.0
 11
307.89970585703941
 21
694.6623518472154
 31
0.0
  0
LINE
  8
SIZE
  6
CONTINUOUS
 62
    30
 10
295.89970585703941
 20
674.66235184721518
 30
0.0
 11
283.89970585703941
 21
674.66235184721518
 31
0.0
  0
LINE
  8
SIZE
  6
CONTINUOUS
 62
    30
 10
346.89970585703759
 20
674.66235184721518
 30
0.0
 11
512.71360307542091
 21
674.66235184721518
 31
0.0
  0
LINE
  8
SIZE
  6
CONTINUOUS
 62
    30
 10
307.89970585703941
 20
674.66235184721518
 30
0.0
 11
334.89970585703759
 21
674.66235184721518
 31
0.0
  0
CIRCLE
  8
SIZE
  6
CONTINUOUS
 62
    30
 10
307.89970585703941
 20
674.66235184721518
 30
0.0
 40
6.0
  0
LINE
  8
SIZE
  6
CONTINUOUS
 62
    30
 10
307.89970585703941
 20
674.66235184721518
 30
0.0
 11
295.89970585703941
 21
674.66235184721518
 31
0.0
  0
CIRCLE
  8
SIZE
  6
CONTINUOUS
 62
    30
 10
334.89970585703759
 20
674.66235184721518
 30
0.0
 40
6.0
  0
LINE
  8
SIZE
  6
CONTINUOUS
 62
    30
 10
334.89970585703759
 20
674.66235184721518
 30
0.0
 11
346.89970585703759
 21
674.66235184721518
 31
0.0
  0
TEXT
  8
SIZE
  6
CONTINUOUS
 62
    30
 10
394.4564602182781
 20
699.6623518472154
 30
0.0
 40
64.0
  1
27
 41
0.9
 72
     1
 11
441.08503164684947
 21
699.6623518472154
 31
0.0
  0
POINT
  8
DEFPOINTS
  6
CONTINUOUS
 62
    30
 10
334.89970585703759
 20
283.49968031669749
 30
0.0
  0
POINT
  8
DEFPOINTS
  6
CONTINUOUS
 62
    30
 10
307.89970585703941
 20
283.64092884632458
 30
0.0
  0
POINT
  8
DEFPOINTS
  6
CONTINUOUS
 62
    30
 10
307.89970585703941
 20
674.66235184721518
 30
0.0
  0
LINE
  8
SIZE
  6
CONTINUOUS
 62
    30
 10
334.89970585703759
 20
303.49968031669749
 30
0.0
 11
334.89970585703759
 21
834.56909918298811
 31
0.0
  0
LINE
  8
SIZE
  6
CONTINUOUS
 62
    30
 10
277.89970585703941
 20
307.99997023368968
 30
0.0
 11
277.89970585703952
 21
834.56909918298811
 31
0.0
  0
LINE
  8
SIZE
  6
CONTINUOUS
 62
    30
 10
265.89970585703952
 20
814.56909918298811
 30
0.0
 11
253.89970585703941
 21
814.56909918298811
 31
0.0
  0
LINE
  8
SIZE
  6
CONTINUOUS
 62
    30
 10
346.89970585703759
 20
814.56909918298811
 30
0.0
 11
509.88924606955152
 21
814.56909918298811
 31
0.0
  0
LINE
  8
SIZE
  6
CONTINUOUS
 62
    30
 10
277.89970585703952
 20
814.56909918298811
 30
0.0
 11
334.89970585703759
 21
814.56909918298811
 31
0.0
  0
CIRCLE
  8
SIZE
  6
CONTINUOUS
 62
    30
 10
277.89970585703952
 20
814.56909918298811
 30
0.0
 40
6.0
  0
LINE
  8
SIZE
  6
CONTINUOUS
 62
    30
 10
277.89970585703952
 20
814.56909918298811
 30
0.0
 11
265.89970585703952
 21
814.56909918298811
 31
0.0
  0
CIRCLE
  8
SIZE
  6
CONTINUOUS
 62
    30
 10
334.89970585703759
 20
814.56909918298811
 30
0.0
 40
6.0
  0
LINE
  8
SIZE
  6
CONTINUOUS
 62
    30
 10
334.89970585703759
 20
814.56909918298811
 30
0.0
 11
346.89970585703759
 21
814.56909918298811
 31
0.0
  0
TEXT
  8
SIZE
  6
CONTINUOUS
 62
    30
 10
391.63210321240871
 20
839.56909918298811
 30
0.0
 40
64.0
  1
57
 41
0.9
 72
     1
 11
438.26067464098008
 21
839.56909918298811
 31
0.0
  0
POINT
  8
DEFPOINTS
  6
CONTINUOUS
 62
    30
 10
334.89970585703759
 20
283.49968031669749
 30
0.0
  0
POINT
  8
DEFPOINTS
  6
CONTINUOUS
 62
    30
 10
277.89970585703941
 20
287.99997023368968
 30
0.0
  0
POINT
  8
DEFPOINTS
  6
CONTINUOUS
 62
    30
 10
277.89970585703952
 20
814.56909918298811
 30
0.0
  0
LINE
  8
SIZE
  6
CONTINUOUS
 62
    30
 10
354.39970585703941
 20
283.99968031669721
 30
0.0
 11
788.48929407244304
 21
283.99968031669721
 31
0.0
  0
LINE
  8
SIZE
  6
CONTINUOUS
 62
    30
 10
354.39970585703941
 20
140.0002601506819
 30
0.0
 11
788.48929407244304
 21
140.00026015068181
 31
0.0
  0
LINE
  8
SIZE
  6
CONTINUOUS
 62
    30
 10
768.48929407244304
 20
152.00026015068181
 30
0.0
 11
768.48929407244304
 21
271.99968031669721
 31
0.0
  0
LINE
  8
SIZE
  6
CONTINUOUS
 62
    30
 10
768.48929407244304
 20
283.99968031669721
 30
0.0
 11
768.48929407244304
 21
599.50393598787127
 31
0.0
  0
CIRCLE
  8
SIZE
  6
CONTINUOUS
 62
    30
 10
768.48929407244304
 20
140.00026015068181
 30
0.0
 40
6.0
  0
LINE
  8
SIZE
  6
CONTINUOUS
 62
    30
 10
768.48929407244304
 20
140.00026015068181
 30
0.0
 11
768.48929407244304
 21
152.00026015068181
 31
0.0
  0
CIRCLE
  8
SIZE
  6
CONTINUOUS
 62
    30
 10
768.48929407244304
 20
283.99968031669721
 30
0.0
 40
6.0
  0
LINE
  8
SIZE
  6
CONTINUOUS
 62
    30
 10
768.48929407244304
 20
283.99968031669721
 30
0.0
 11
768.48929407244304
 21
271.99968031669721
 31
0.0
  0
TEXT
  8
SIZE
  6
CONTINUOUS
 62
    30
 10
732.82262740577653
 20
364.12679313072852
 30
0.0
 40
64.0
  1
φ144
 50
90.0
 41
0.9
 72
     1
 11
732.82262740577653
 21
474.38965027358557
 31
0.0
  0
POINT
  8
DEFPOINTS
  6
CONTINUOUS
 62
    30
 10
334.39970585703941
 20
283.99968031669721
 30
0.0
  0
POINT
  8
DEFPOINTS
  6
CONTINUOUS
 62
    30
 10
334.39970585703941
 20
140.0002601506819
 30
0.0
  0
POINT
  8
DEFPOINTS
  6
CONTINUOUS
 62
    30
 10
768.48929407244304
 20
140.00026015068181
 30
0.0
  0
LINE
  8
SIZE
  6
CONTINUOUS
 62
    30
 10
322.86388203411389
 20
287.99997023368968
 30
0.0
 11
931.9120019665379
 21
287.99997023368951
 31
0.0
  0
LINE
  8
SIZE
  6
CONTINUOUS
 62
    30
 10
322.86388203411389
 20
135.9999702336894
 30
0.0
 11
931.9120019665379
 21
135.99997023368931
 31
0.0
  0
LINE
  8
SIZE
  6
CONTINUOUS
 62
    30
 10
911.9120019665379
 20
147.99997023368931
 30
0.0
 11
911.9120019665379
 21
275.99997023368951
 31
0.0
  0
LINE
  8
SIZE
  6
CONTINUOUS
 62
    30
 10
911.9120019665379
 20
287.99997023368951
 30
0.0
 11
911.9120019665379
 21
600.35584849259817
 31
0.0
  0
CIRCLE
  8
SIZE
  6
CONTINUOUS
 62
    30
 10
911.9120019665379
 20
135.99997023368931
 30
0.0
 40
6.0
  0
LINE
  8
SIZE
  6
CONTINUOUS
 62
    30
 10
911.9120019665379
 20
135.99997023368931
 30
0.0
 11
911.9120019665379
 21
147.99997023368931
 31
0.0
  0
CIRCLE
  8
SIZE
  6
CONTINUOUS
 62
    30
 10
911.9120019665379
 20
287.99997023368951
 30
0.0
 40
6.0
  0
LINE
  8
SIZE
  6
CONTINUOUS
 62
    30
 10
911.9120019665379
 20
287.99997023368951
 30
0.0
 11
911.9120019665379
 21
275.99997023368951
 31
0.0
  0
TEXT
  8
SIZE
  6
CONTINUOUS
 62
    30
 10
876.24533529987139
 20
367.7215627783126
 30
0.0
 40
64.0
  1
φ152
 50
90.0
 41
0.9
 72
     1
 11
876.24533529987139
 21
476.61299134974121
 31
0.0
  0
POINT
  8
DEFPOINTS
  6
CONTINUOUS
 62
    30
 10
302.86388203411389
 20
287.99997023368968
 30
0.0
  0
POINT
  8
DEFPOINTS
  6
CONTINUOUS
 62
    30
 10
302.86388203411389
 20
135.99997023368951
 30
0.0
  0
POINT
  8
DEFPOINTS
  6
CONTINUOUS
 62
    30
 10
911.9120019665379
 20
135.99997023368931
 30
0.0
  0
LINE
  8
SIZE
  6
CONTINUOUS
 62
    30
 10
361.45224914847398
 20
211.99997023368951
 30
0.0
 11
653.1353145459716
 21
211.9999702336894
 31
0.0
  0
LINE
  8
SIZE
  6
CONTINUOUS
 62
    30
 10
285.00000000000091
 20
0.0000005857457381
 30
0.0
 11
653.1353145459716
 21
0.0000005857456244
 31
0.0
  0
LINE
  8
SIZE
  6
CONTINUOUS
 62
    30
 10
633.1353145459716
 20
199.9999702336894
 30
0.0
 11
633.1353145459716
 21
12.000000585745619
 31
0.0
  0
LINE
  8
SIZE
  6
CONTINUOUS
 62
    30
 10
633.1353145459716
 20
0.0000005857456244
 30
0.0
 11
633.1353145459716
 21
-199.14285655711149
 31
0.0
  0
CIRCLE
  8
SIZE
  6
CONTINUOUS
 62
    30
 10
633.1353145459716
 20
211.9999702336894
 30
0.0
 40
6.0
  0
LINE
  8
SIZE
  6
CONTINUOUS
 62
    30
 10
633.1353145459716
 20
211.9999702336894
 30
0.0
 11
633.1353145459716
 21
199.9999702336894
 31
0.0
  0
CIRCLE
  8
SIZE
  6
CONTINUOUS
 62
    30
 10
633.1353145459716
 20
0.0000005857456244
 30
0.0
 40
6.0
  0
LINE
  8
SIZE
  6
CONTINUOUS
 62
    30
 10
633.1353145459716
 20
0.0000005857456244
 30
0.0
 11
633.1353145459716
 21
12.000000585745619
 31
0.0
  0
TEXT
  8
SIZE
  6
CONTINUOUS
 62
    30
 10
608.1353145459716
 20
-174.1428565571114
 30
0.0
 40
64.0
  1
212
 50
90.0
 41
0.9
 72
     1
 11
608.1353145459716
 21
-105.5714279856828
 31
0.0
  0
POINT
  8
DEFPOINTS
  6
CONTINUOUS
 62
    30
 10
341.45224914847398
 20
211.99997023368951
 30
0.0
  0
POINT
  8
DEFPOINTS
  6
CONTINUOUS
 62
    30
 10
265.00000000000091
 20
0.0000005857457381
 30
0.0
  0
POINT
  8
DEFPOINTS
  6
CONTINUOUS
 62
    30
 10
633.1353145459716
 20
0.0000005857456244
 30
0.0
  0
LINE
  8
SIZE
  6
CONTINUOUS
 62
    30
 10
285.00000000000091
 20
0.0000005857457381
 30
0.0
 11
538.08443376352625
 21
0.0000005857456244
 31
0.0
  0
LINE
  8
SIZE
  6
CONTINUOUS
 62
    30
 10
246.90000305175741
 20
50.000000427449891
 30
0.0
 11
538.08443376352625
 21
50.000000427449891
 31
0.0
  0
LINE
  8
SIZE
  6
CONTINUOUS
 62
    30
 10
518.08443376352625
 20
62.000000427449891
 30
0.0
 11
518.08443376352625
 21
74.000000427449891
 31
0.0
  0
LINE
  8
SIZE
  6
CONTINUOUS
 62
    30
 10
518.08443376352625
 20
-11.999999414254381
 30
0.0
 11
518.08443376352625
 21
-167.25714227139721
 31
0.0
  0
LINE
  8
SIZE
  6
CONTINUOUS
 62
    30
 10
518.08443376352625
 20
50.000000427449891
 30
0.0
 11
518.08443376352625
 21
0.0000005857456244
 31
0.0
  0
CIRCLE
  8
SIZE
  6
CONTINUOUS
 62
    30
 10
518.08443376352625
 20
50.000000427449891
 30
0.0
 40
6.0
  0
LINE
  8
SIZE
  6
CONTINUOUS
 62
    30
 10
518.08443376352625
 20
50.000000427449891
 30
0.0
 11
518.08443376352625
 21
62.000000427449891
 31
0.0
  0
CIRCLE
  8
SIZE
  6
CONTINUOUS
 62
    30
 10
518.08443376352625
 20
0.0000005857456244
 30
0.0
 40
6.0
  0
LINE
  8
SIZE
  6
CONTINUOUS
 62
    30
 10
518.08443376352625
 20
0.0000005857456244
 30
0.0
 11
518.08443376352625
 21
-11.999999414254381
 31
0.0
  0
TEXT
  8
SIZE
  6
CONTINUOUS
 62
    30
 10
493.08443376352619
 20
-142.2571422713971
 30
0.0
 40
64.0
  1
50
 50
90.0
 41
0.9
 72
     1
 11
493.08443376352619
 21
-95.628570842825638
 31
0.0
  0
POINT
  8
DEFPOINTS
  6
CONTINUOUS
 62
    30
 10
265.00000000000091
 20
0.0000005857457381
 30
0.0
  0
POINT
  8
DEFPOINTS
  6
CONTINUOUS
 62
    30
 10
226.90000305175741
 20
50.000000427449891
 30
0.0
  0
POINT
  8
DEFPOINTS
  6
CONTINUOUS
 62
    30
 10
518.08443376352625
 20
50.000000427449891
 30
0.0
  0
LINE
  8
SIZE
  6
CONTINUOUS
 62
    30
 10
255.00000000000091
 20
-23.31352686722289
 30
0.0
 11
255.00000000000091
 21
-617.74755221391365
 31
0.0
  0
LINE
  8
SIZE
  6
CONTINUOUS
 62
    30
 10
-255.00000000000091
 20
-23.31352686722289
 30
0.0
 11
-255.00000000000091
 21
-617.74755221391365
 31
0.0
  0
LINE
  8
SIZE
  6
CONTINUOUS
 62
    30
 10
243.00000000000091
 20
-597.74755221391365
 30
0.0
 11
-243.00000000000091
 21
-597.74755221391365
 31
0.0
  0
CIRCLE
  8
SIZE
  6
CONTINUOUS
 62
    30
 10
255.00000000000091
 20
-597.74755221391365
 30
0.0
 40
6.0
  0
LINE
  8
SIZE
  6
CONTINUOUS
 62
    30
 10
255.00000000000091
 20
-597.74755221391365
 30
0.0
 11
243.00000000000091
 21
-597.74755221391365
 31
0.0
  0
CIRCLE
  8
SIZE
  6
CONTINUOUS
 62
    30
 10
-255.00000000000091
 20
-597.74755221391365
 30
0.0
 40
6.0
  0
LINE
  8
SIZE
  6
CONTINUOUS
 62
    30
 10
-255.00000000000091
 20
-597.74755221391365
 30
0.0
 11
-243.00000000000091
 21
-597.74755221391365
 31
0.0
  0
TEXT
  8
SIZE
  6
CONTINUOUS
 62
    30
 10
-99.910839029602926
 20
-572.74755221391365
 30
0.0
 40
64.0
  1
□510
 41
0.9
 72
     1
 11
5.1405895418256478
 21
-572.74755221391365
 31
0.0
  0
POINT
  8
DEFPOINTS
  6
CONTINUOUS
 62
    30
 10
255.00000000000091
 20
-3.3135268672228899
 30
0.0
  0
POINT
  8
DEFPOINTS
  6
CONTINUOUS
 62
    30
 10
-255.00000000000091
 20
-3.3135268672228899
 30
0.0
  0
POINT
  8
DEFPOINTS
  6
CONTINUOUS
 62
    30
 10
-255.00000000000091
 20
-597.74755221391365
 30
0.0
  0
LINE
  8
SIZE
  6
CONTINUOUS
 62
    30
 10
227.50000305175789
 20
-19.999999572547608
 30
0.0
 11
227.5000030517576
 21
-363.9468693030085
 31
0.0
  0
LINE
  8
SIZE
  6
CONTINUOUS
 62
    30
 10
-227.50000305175789
 20
-20.00000050285723
 30
0.0
 11
-227.50000305175789
 21
-363.9468693030085
 31
0.0
  0
LINE
  8
SIZE
  6
CONTINUOUS
 62
    30
 10
215.5000030517576
 20
-343.9468693030085
 30
0.0
 11
-215.50000305175789
 21
-343.9468693030085
 31
0.0
  0
CIRCLE
  8
SIZE
  6
CONTINUOUS
 62
    30
 10
227.5000030517576
 20
-343.9468693030085
 30
0.0
 40
6.0
  0
LINE
  8
SIZE
  6
CONTINUOUS
 62
    30
 10
227.5000030517576
 20
-343.9468693030085
 30
0.0
 11
215.5000030517576
 21
-343.9468693030085
 31
0.0
  0
CIRCLE
  8
SIZE
  6
CONTINUOUS
 62
    30
 10
-227.50000305175789
 20
-343.9468693030085
 30
0.0
 40
6.0
  0
LINE
  8
SIZE
  6
CONTINUOUS
 62
    30
 10
-227.50000305175789
 20
-343.9468693030085
 30
0.0
 11
-215.50000305175789
 21
-343.9468693030085
 31
0.0
  0
TEXT
  8
SIZE
  6
CONTINUOUS
 62
    30
 10
-117.33287072949081
 20
-318.9468693030085
 30
0.0
 40
64.0
  1
□455
 41
0.9
 72
     1
 11
-6.7957278723479249
 21
-318.9468693030085
 31
0.0
  0
POINT
  8
DEFPOINTS
  6
CONTINUOUS
 62
    30
 10
227.50000305175789
 20
0.0000004274523917
 30
0.0
  0
POINT
  8
DEFPOINTS
  6
CONTINUOUS
 62
    30
 10
-227.50000305175789
 20
-0.0000005028572332
 30
0.0
  0
POINT
  8
DEFPOINTS
  6
CONTINUOUS
 62
    30
 10
-227.50000305175789
 20
-343.9468693030085
 30
0.0
  0
LINE
  8
SIZE
  6
CONTINUOUS
 62
    30
 10
149.99999999999989
 20
-40.000002210361338
 30
0.0
 11
149.99999999999989
 21
-243.35294119168111
 31
0.0
  0
LINE
  8
SIZE
  6
CONTINUOUS
 62
    30
 10
-150.0
 20
-40.000000110518037
 30
0.0
 11
-150.0
 21
-243.35294119168111
 31
0.0
  0
LINE
  8
SIZE
  6
CONTINUOUS
 62
    30
 10
137.99999999999989
 20
-223.35294119168111
 30
0.0
 11
-138.0
 21
-223.35294119168111
 31
0.0
  0
CIRCLE
  8
SIZE
  6
CONTINUOUS
 62
    30
 10
149.99999999999989
 20
-223.35294119168111
 30
0.0
 40
6.0
  0
LINE
  8
SIZE
  6
CONTINUOUS
 62
    30
 10
149.99999999999989
 20
-223.35294119168111
 30
0.0
 11
137.99999999999989
 21
-223.35294119168111
 31
0.0
  0
CIRCLE
  8
SIZE
  6
CONTINUOUS
 62
    30
 10
-150.0
 20
-223.35294119168111
 30
0.0
 40
6.0
  0
LINE
  8
SIZE
  6
CONTINUOUS
 62
    30
 10
-150.0
 20
-223.35294119168111
 30
0.0
 11
-138.0
 21
-223.35294119168111
 31
0.0
  0
TEXT
  8
SIZE
  6
CONTINUOUS
 62
    30
 10
-74.05714285714285
 20
-198.35294119168111
 30
0.0
 40
64.0
  1
300
 41
0.9
 72
     1
 11
0.0
 21
-198.35294119168111
 31
0.0
  0
POINT
  8
DEFPOINTS
  6
CONTINUOUS
 62
    30
 10
149.99999999999989
 20
-20.000002210361341
 30
0.0
  0
POINT
  8
DEFPOINTS
  6
CONTINUOUS
 62
    30
 10
-150.0
 20
-20.000000110518041
 30
0.0
  0
POINT
  8
DEFPOINTS
  6
CONTINUOUS
 62
    30
 10
-150.0
 20
-223.35294119168111
 30
0.0
  0
LINE
  8
SIZE
  6
CONTINUOUS
 62
    30
 10
240.0
 20
-39.999999911585519
 30
0.0
 11
240.0
 21
-495.23055914875198
 31
0.0
  0
LINE
  8
SIZE
  6
CONTINUOUS
 62
    30
 10
-240.0
 20
-40.0
 30
0.0
 11
-240.0
 21
-495.23055914875198
 31
0.0
  0
LINE
  8
SIZE
  6
CONTINUOUS
 62
    30
 10
228.0
 20
-475.23055914875198
 30
0.0
 11
-228.0
 21
-475.23055914875198
 31
0.0
  0
CIRCLE
  8
SIZE
  6
CONTINUOUS
 62
    30
 10
240.0
 20
-475.23055914875198
 30
0.0
 40
6.0
  0
LINE
  8
SIZE
  6
CONTINUOUS
 62
    30
 10
240.0
 20
-475.23055914875198
 30
0.0
 11
228.0
 21
-475.23055914875198
 31
0.0
  0
CIRCLE
  8
SIZE
  6
CONTINUOUS
 62
    30
 10
-240.0
 20
-475.23055914875198
 30
0.0
 40
6.0
  0
LINE
  8
SIZE
  6
CONTINUOUS
 62
    30
 10
-240.0
 20
-475.23055914875198
 30
0.0
 11
-228.0
 21
-475.23055914875198
 31
0.0
  0
TEXT
  8
SIZE
  6
CONTINUOUS
 62
    30
 10
-72.64506238841831
 20
-450.23055914875198
 30
0.0
 40
64.0
  1
480
 41
0.9
 72
     1
 11
1.412080468724525
 21
-450.23055914875198
 31
0.0
  0
POINT
  8
DEFPOINTS
  6
CONTINUOUS
 62
    30
 10
240.0
 20
-19.999999911585519
 30
0.0
  0
POINT
  8
DEFPOINTS
  6
CONTINUOUS
 62
    30
 10
-240.0
 20
-20.0
 30
0.0
  0
POINT
  8
DEFPOINTS
  6
CONTINUOUS
 62
    30
 10
-240.0
 20
-475.23055914875198
 30
0.0
  0
LINE
  8
SIZE
  6
CONTINUOUS
 62
    30
 10
-190.00000298193311
 20
130.00000118776231
 30
0.0
 11
-399.71182999583908
 21
130.00000118776259
 31
0.0
  0
LINE
  8
SIZE
  6
CONTINUOUS
 62
    30
 10
-285.00000000000091
 20
-0.0000005857457381
 30
0.0
 11
-399.71182999583931
 21
-0.0000005857457381
 31
0.0
  0
LINE
  8
SIZE
  6
CONTINUOUS
 62
    30
 10
-379.71182999583931
 20
118.00000118776261
 30
0.0
 11
-379.71182999583931
 21
11.99999941425426
 31
0.0
  0
CIRCLE
  8
SIZE
  6
CONTINUOUS
 62
    30
 10
-379.71182999583908
 20
130.00000118776259
 30
0.0
 40
6.0
  0
LINE
  8
SIZE
  6
CONTINUOUS
 62
    30
 10
-379.71182999583908
 20
130.00000118776259
 30
0.0
 11
-379.71182999583908
 21
118.00000118776261
 31
0.0
  0
CIRCLE
  8
SIZE
  6
CONTINUOUS
 62
    30
 10
-379.71182999583931
 20
-0.0000005857457381
 30
0.0
 40
6.0
  0
LINE
  8
SIZE
  6
CONTINUOUS
 62
    30
 10
-379.71182999583931
 20
-0.0000005857457381
 30
0.0
 11
-379.71182999583931
 21
11.99999941425426
 31
0.0
  0
TEXT
  8
SIZE
  6
CONTINUOUS
 62
    30
 10
-404.71182999583931
 20
-3.5714282704202698
 30
0.0
 40
64.0
  1
130
 50
90.0
 41
0.9
 72
     1
 11
-404.71182999583931
 21
65.000000301008299
 31
0.0
  0
POINT
  8
DEFPOINTS
  6
CONTINUOUS
 62
    30
 10
-170.00000298193311
 20
130.00000118776231
 30
0.0
  0
POINT
  8
DEFPOINTS
  6
CONTINUOUS
 62
    30
 10
-265.00000000000091
 20
-0.0000005857457381
 30
0.0
  0
POINT
  8
DEFPOINTS
  6
CONTINUOUS
 62
    30
 10
-379.71182999583931
 20
-0.0000005857457381
 30
0.0
  0
CIRCLE
  8
ARRANGE
  6
CONTINUOUS
 62
     1
 10
0.0
 20
0.0
 30
0.0
 40
40.0
  0
POINT
  8
ARRANGE
  6
CONTINUOUS
 62
     1
 10
0.0
 20
0.0
 30
0.0
  0
ENDSEC
  0
EOF
