  0
SECTION
  2
HEADER
  9
$ACADVER
  1
AC1009
  9
$INSBASE
 10
0.0
 20
0.0
 30
0.0
  9
$EXTMIN
 10
-1198.9748070000001
 20
-1125.277595
 30
0.0
  9
$EXTMAX
 10
1305.829955142857
 20
989.94181300000059
 30
50.0
  9
$LIMMIN
 10
-2970.0
 20
-2100.0
  9
$LIMMAX
 10
2970.0
 20
2100.0
  9
$ORTHOMODE
 70
     1
  9
$REGENMODE
 70
     1
  9
$FILLMODE
 70
     1
  9
$QTEXTMODE
 70
     0
  9
$MIRRTEXT
 70
     0
  9
$DRAGMODE
 70
     2
  9
$LTSCALE
 40
20.0
  9
$OSMODE
 70
    37
  9
$ATTMODE
 70
     1
  9
$TEXTSIZE
 40
64.0
  9
$TRACEWID
 40
0.05
  9
$TEXTSTYLE
  7
STANDARD
  9
$CLAYER
  8
SIZE
  9
$CELTYPE
  6
CONTINUOUS
  9
$CECOLOR
 62
     7
  9
$DIMSCALE
 40
1.0
  9
$DIMASZ
 40
12.0
  9
$DIMEXO
 40
20.0
  9
$DIMDLI
 40
200.0
  9
$DIMRND
 40
0.0
  9
$DIMDLE
 40
0.0
  9
$DIMEXE
 40
20.0
  9
$DIMTP
 40
0.0
  9
$DIMTM
 40
0.0
  9
$DIMTXT
 40
64.0
  9
$DIMCEN
 40
0.09
  9
$DIMTSZ
 40
0.0
  9
$DIMTOL
 70
     0
  9
$DIMLIM
 70
     0
  9
$DIMTIH
 70
     0
  9
$DIMTOH
 70
     0
  9
$DIMSE1
 70
     0
  9
$DIMSE2
 70
     0
  9
$DIMTAD
 70
     1
  9
$DIMZIN
 70
     8
  9
$DIMBLK
  1
DOT1
  9
$DIMASO
 70
     1
  9
$DIMSHO
 70
     0
  9
$DIMPOST
  1

  9
$DIMAPOST
  1

  9
$DIMALT
 70
     0
  9
$DIMALTD
 70
     2
  9
$DIMALTF
 40
25.399999999999999
  9
$DIMLFAC
 40
1.0
  9
$DIMTOFL
 70
     1
  9
$DIMTVP
 40
0.0
  9
$DIMTIX
 70
     1
  9
$DIMSOXD
 70
     0
  9
$DIMSAH
 70
     1
  9
$DIMBLK1
  1
ORIGIN
  9
$DIMBLK2
  1
ORIGIN
  9
$DIMSTYLE
  2
STANDARD
  9
$DIMCLRD
 70
     7
  9
$DIMCLRE
 70
     7
  9
$DIMCLRT
 70
     7
  9
$DIMTFAC
 40
1.0
  9
$DIMGAP
 40
25.0
  9
$LUNITS
 70
     2
  9
$LUPREC
 70
     4
  9
$SKETCHINC
 40
0.1
  9
$FILLETRAD
 40
3.0
  9
$AUNITS
 70
     1
  9
$AUPREC
 70
     3
  9
$MENU
  1
ACAD
  9
$ELEVATION
 40
0.0
  9
$PELEVATION
 40
0.0
  9
$THICKNESS
 40
50.0
  9
$LIMCHECK
 70
     0
  9
$BLIPMODE
 70
     0
  9
$CHAMFERA
 40
0.0
  9
$CHAMFERB
 40
0.0
  9
$SKPOLY
 70
     0
  9
$TDCREATE
 40
2453019.6230103699
  9
$TDUPDATE
 40
2455629.649497604
  9
$TDINDWG
 40
1.6418700231000001
  9
$TDUSRTIMER
 40
1.6418700231000001
  9
$USRTIMER
 70
     1
  9
$ANGBASE
 50
0.0
  9
$ANGDIR
 70
     0
  9
$PDMODE
 70
     3
  9
$PDSIZE
 40
-2.0
  9
$PLINEWID
 40
0.0
  9
$COORDS
 70
     1
  9
$SPLFRAME
 70
     0
  9
$SPLINETYPE
 70
     6
  9
$SPLINESEGS
 70
     8
  9
$ATTDIA
 70
     0
  9
$ATTREQ
 70
     1
  9
$HANDLING
 70
 22529
  9
$HANDSEED
  5
1C4
  9
$SURFTAB1
 70
     6
  9
$SURFTAB2
 70
     6
  9
$SURFTYPE
 70
     6
  9
$SURFU
 70
     6
  9
$SURFV
 70
     6
  9
$UCSNAME
  2

  9
$UCSORG
 10
0.0
 20
0.0
 30
0.0
  9
$UCSXDIR
 10
1.0
 20
0.0
 30
0.0
  9
$UCSYDIR
 10
0.0
 20
1.0
 30
0.0
  9
$PUCSNAME
  2

  9
$PUCSORG
 10
0.0
 20
0.0
 30
0.0
  9
$PUCSXDIR
 10
1.0
 20
0.0
 30
0.0
  9
$PUCSYDIR
 10
0.0
 20
1.0
 30
0.0
  9
$USERI1
 70
     0
  9
$USERI2
 70
     0
  9
$USERI3
 70
     0
  9
$USERI4
 70
     0
  9
$USERI5
 70
     0
  9
$USERR1
 40
20.0
  9
$USERR2
 40
0.0
  9
$USERR3
 40
0.0
  9
$USERR4
 40
0.0
  9
$USERR5
 40
0.0
  9
$WORLDVIEW
 70
     1
  9
$SHADEDGE
 70
     3
  9
$SHADEDIF
 70
    70
  9
$TILEMODE
 70
     1
  9
$MAXACTVP
 70
    48
  9
$PLIMCHECK
 70
     0
  9
$PEXTMIN
 10
-1.0000000000000000E+020
 20
-1.0000000000000000E+020
 30
-1.0000000000000000E+020
  9
$PEXTMAX
 10
1.0000000000000000E+020
 20
1.0000000000000000E+020
 30
1.0000000000000000E+020
  9
$PLIMMIN
 10
0.0
 20
0.0
  9
$PLIMMAX
 10
12.0
 20
9.0
  9
$UNITMODE
 70
     0
  9
$VISRETAIN
 70
     0
  9
$PLINEGEN
 70
     0
  9
$PSLTSCALE
 70
     0
  0
ENDSEC
  0
SECTION
  2
TABLES
  0
TABLE
  2
VPORT
 70
     2
  0
VPORT
  2
*ACTIVE
 70
     0
 10
0.0
 20
0.0
 11
1.0
 21
1.0
 12
53.475965999999971
 22
13.99189445773208
 13
0.0
 23
0.0
 14
1.0
 24
1.0
 15
0.0
 25
0.0
 16
0.0
 26
0.0
 36
1.0
 17
0.0
 27
0.0
 37
0.0
 40
2295.662857915464
 41
1.513819095477386
 42
50.0
 43
0.0
 44
0.0
 50
0.0
 51
0.0
 71
     0
 72
  1000
 73
     1
 74
     0
 75
     0
 76
     0
 77
     0
 78
     0
  0
ENDTAB
  0
TABLE
  2
LTYPE
 70
     3
  0
LTYPE
  2
CONTINUOUS
 70
     0
  3
Ä└É³
 72
    65
 73
     0
 40
0.0
  0
LTYPE
  2
DASHDOT
 70
     0
  3
____ _ ____ _ ____ _ ____ _ ____ _ ____ _ ____
 72
    65
 73
     4
 40
5.5
 49
4.0
 49
-0.6
 49
0.3
 49
-0.6
  0
LTYPE
  2
DASHED
 70
     0
  3
-- -- -- -- -- -- -- -- -- -- -- -- -- -- --
 72
    65
 73
     2
 40
0.75
 49
0.5
 49
-0.25
  0
ENDTAB
  0
TABLE
  2
LAYER
 70
    12
  0
LAYER
  2
0
 70
     0
 62
     7
  6
CONTINUOUS
  0
LAYER
  2
SIZE
 70
     0
 62
    30
  6
CONTINUOUS
  0
LAYER
  2
DEFPOINTS
 70
     0
 62
     7
  6
CONTINUOUS
  0
LAYER
  2
ETC
 70
     0
 62
    61
  6
CONTINUOUS
  0
LAYER
  2
OUTLINE
 70
     0
 62
     3
  6
CONTINUOUS
  0
LAYER
  2
BASIS
 70
     0
 62
     6
  6
DASHDOT
  0
LAYER
  2
DETAIL
 70
     0
 62
     5
  6
CONTINUOUS
  0
LAYER
  2
ARRANGE
 70
     0
 62
     1
  6
CONTINUOUS
  0
LAYER
  2
FIX
 70
     0
 62
    11
  6
CONTINUOUS
  0
LAYER
  2
NOTE
 70
     0
 62
     4
  6
CONTINUOUS
  0
LAYER
  2
SERVICESPACE
 70
     0
 62
     2
  6
DASHDOT
  0
LAYER
  2
SYMBOLLINE
 70
     0
 62
    15
  6
CONTINUOUS
  0
ENDTAB
  0
TABLE
  2
STYLE
 70
     1
  0
STYLE
  2
STANDARD
 70
     0
 40
64.0
 41
0.9
 50
0.0
 71
     0
 42
64.0
  3
SIMPLEX.shx
  4
BIGFONT.shx
  0
ENDTAB
  0
TABLE
  2
VIEW
 70
     1
  0
VIEW
  2
ALL
 70
     0
 40
4282.6198080000004
 10
0.0
 20
41.309904000000003
 41
5940.0
 11
0.0
 21
0.0
 31
1.0
 12
0.0
 22
0.0
 32
0.0
 42
50.0
 43
0.0
 44
0.0
 50
0.0
 71
     0
  0
ENDTAB
  0
TABLE
  2
UCS
 70
     0
  0
ENDTAB
  0
TABLE
  2
APPID
 70
    15
  0
APPID
  2
ACAD
 70
     0
  0
APPID
  2
AUTOCAD_POSTSCRIPT_FIGURE
 70
     0
  0
APPID
  2
ACAD_EXEMPT_FROM_CAD_STANDARDS
 70
     0
  0
APPID
  2
ACAD_PSEXT
 70
     0
  0
APPID
  2
ACAUTHENVIRON
 70
     0
  0
APPID
  2
GENIUS_GENOENT_13
 70
     0
  0
APPID
  2
GENIUS_GENCFG_13
 70
     0
  0
APPID
  2
GENIUS_GENCFG0_13
 70
     0
  0
APPID
  2
GENIUS_GENCFG1_13
 70
     0
  0
APPID
  2
GENIUS_GENCFG2_13
 70
     0
  0
APPID
  2
GENIUS_GENCFG3_13
 70
     0
  0
APPID
  2
GENIUS_GENCFG4_13
 70
     0
  0
APPID
  2
GENIUS_GEVCFG0_13
 70
     0
  0
APPID
  2
CONTENTBLOCKICON
 70
     0
  0
APPID
  2
CONTENTBLOCKDESCRIPTION
 70
     0
  0
ENDTAB
  0
TABLE
  2
DIMSTYLE
 70
     1
  0
DIMSTYLE
  2
STANDARD
 70
     0
  3

  4

  5

  6

  7

 40
1.0
 41
0.18
 42
0.0625
 43
0.38
 44
0.18
 45
0.0
 46
0.0
 47
0.0
 48
0.0
140
0.18
141
0.09
142
0.0
143
25.399999999999999
144
1.0
145
0.0
146
1.0
147
0.09
 71
     0
 72
     0
 73
     1
 74
     1
 75
     0
 76
     0
 77
     0
 78
     0
170
     0
171
     2
172
     0
173
     0
174
     0
175
     0
176
     7
177
     7
178
     7
  0
ENDTAB
  0
ENDSEC
  0
SECTION
  2
BLOCKS
  0
BLOCK
  8
0
  2
$MODEL_SPACE
 70
     0
 10
0.0
 20
0.0
 30
0.0
  3
$MODEL_SPACE
  1

  0
ENDBLK
  5
20
  8
0
  0
BLOCK
 67
     1
  8
0
  2
$PAPER_SPACE
 70
     0
 10
0.0
 20
0.0
 30
0.0
  3
$PAPER_SPACE
  1

  0
ENDBLK
  5
1C
 67
     1
  8
0
  0
BLOCK
  8
0
  2
DOT1
 70
     0
 10
0.0
 20
0.0
 30
0.0
  3
DOT1
  1

  0
CIRCLE
  5
44
  8
SIZE
  6
CONTINUOUS
 62
     7
 10
0.0
 20
0.0
 30
0.0
 40
3.0
  0
ENDBLK
  5
45
  8
0
  0
BLOCK
  8
0
  2
_ORIGIN
 70
     0
 10
0.0
 20
0.0
 30
0.0
  3
_ORIGIN
  1

  0
CIRCLE
  5
48
  8
0
  6
CONTINUOUS
 62
     7
 10
0.0
 20
0.0
 30
0.0
 40
0.5
  0
LINE
  5
49
  8
0
  6
CONTINUOUS
 62
     7
 10
0.0
 20
0.0
 30
0.0
 11
-1.0
 21
0.0
 31
0.0
  0
ENDBLK
  5
4A
  8
0
  0
ENDSEC
  0
SECTION
  2
ENTITIES
  0
TEXT
  5
4B
  8
ETC
  6
CONTINUOUS
 62
    61
 10
573.48709799999995
 20
925.94181300000002
 30
0.0
 40
64.0
  1
VD-23ZXP9-W_1
 41
0.9
  0
TEXT
  5
4C
  8
ETC
  6
CONTINUOUS
 62
    61
 10
569.30110400000001
 20
807.98650299999974
 30
0.0
 40
64.0
  1
èÀïCÉ¯
 41
0.9
  0
TEXT
  5
4D
  8
ETC
  6
CONTINUOUS
 62
    61
 10
619.90860699999985
 20
700.15072299999986
 30
0.0
 40
40.0
  1
VD-23ZXP9-W
 41
0.9
  0
LINE
  5
4E
  8
OUTLINE
  6
CONTINUOUS
 62
     3
 10
-217.0
 20
235.0
 30
0.0
 11
217.0
 21
235.0
 31
0.0
  0
LINE
  5
4F
  8
OUTLINE
  6
CONTINUOUS
 62
     3
 10
-30.5
 20
-235.0
 30
0.0
 11
217.0
 21
-235.0
 31
0.0
  0
POINT
  5
50
  8
ARRANGE
  6
CONTINUOUS
 62
     1
 10
0.0
 20
0.0
 30
0.0
  0
CIRCLE
  5
51
  8
ARRANGE
  6
CONTINUOUS
 62
     1
 10
0.0
 20
0.0
 30
0.0
 40
40.0
  0
LINE
  5
52
  8
DETAIL
  6
CONTINUOUS
 62
     5
 10
-219.0
 20
219.0
 30
0.0
 11
219.0
 21
219.0
 31
0.0
  0
LINE
  5
53
  8
DETAIL
  6
CONTINUOUS
 62
     5
 10
-30.5
 20
-219.0
 30
0.0
 11
219.0
 21
-219.0
 31
0.0
  0
CIRCLE
  5
54
  8
DETAIL
  6
CONTINUOUS
 62
     5
 10
37.5
 20
4.0
 30
0.0
 40
49.0
  0
TEXT
  5
55
  8
SIZE
  6
CONTINUOUS
 62
    30
 10
-110.5371428571428
 20
877.83625300000006
 30
0.0
 40
64.0
  1
üá470
 41
0.9
 72
     1
 11
0.0
 21
877.83625300000006
 31
0.0
  0
LINE
  5
56
  8
SIZE
  6
CONTINUOUS
 62
    30
 10
223.0
 20
852.83625300000006
 30
0.0
 11
-223.0
 21
852.83625300000006
 31
0.0
  0
LINE
  5
57
  8
DETAIL
  6
CONTINUOUS
 62
     5
 10
-217.0
 20
235.0
 30
0.0
 11
217.0
 21
235.0
 31
0.0
  0
LINE
  5
58
  8
DETAIL
  6
CONTINUOUS
 62
     5
 10
-30.5
 20
-235.0
 30
0.0
 11
217.0
 21
-235.0
 31
0.0
  0
TEXT
  5
59
  8
SIZE
  6
CONTINUOUS
 62
    30
 10
-74.05714285714285
 20
753.04355199999998
 30
0.0
 40
64.0
  1
438
 41
0.9
 72
     1
 11
0.0
 21
753.04355199999998
 31
0.0
  0
LINE
  5
5A
  8
SIZE
  6
CONTINUOUS
 62
    30
 10
207.0
 20
728.04355199999998
 30
0.0
 11
-207.0
 21
728.04355199999998
 31
0.0
  0
TEXT
  5
5B
  8
SIZE
  6
CONTINUOUS
 62
    30
 10
-68.571428571428555
 20
617.88430300000016
 30
0.0
 40
64.0
  1
418
 41
0.9
 72
     1
 11
0.0
 21
617.88430300000016
 31
0.0
  0
LINE
  5
5C
  8
SIZE
  6
CONTINUOUS
 62
    30
 10
197.0
 20
592.88430300000016
 30
0.0
 11
-197.0
 21
592.88430300000016
 31
0.0
  0
TEXT
  5
5D
  8
SIZE
  6
CONTINUOUS
 62
    30
 10
-68.571428571428555
 20
-1080.277595
 30
0.0
 40
64.0
  1
410
 41
0.9
 72
     1
 11
0.0
 21
-1080.277595
 31
0.0
  0
LINE
  5
5E
  8
SIZE
  6
CONTINUOUS
 62
    30
 10
-193.0
 20
-1105.277595
 30
0.0
 11
193.0
 21
-1105.277595
 31
0.0
  0
TEXT
  5
5F
  8
SIZE
  6
CONTINUOUS
 62
    30
 10
-74.05714285714285
 20
-930.55059500000004
 30
0.0
 40
64.0
  1
300
 41
0.9
 72
     1
 11
0.0
 21
-930.55059500000004
 31
0.0
  0
LINE
  5
60
  8
SIZE
  6
CONTINUOUS
 62
    30
 10
-138.0
 20
-960.13859500000001
 30
0.0
 11
138.0
 21
-960.13859500000001
 31
0.0
  0
LINE
  5
61
  8
DETAIL
  6
CONTINUOUS
 62
     5
 10
-193.0
 20
-193.0
 30
0.0
 11
193.0
 21
-193.0
 31
0.0
  0
LINE
  5
62
  8
DETAIL
  6
CONTINUOUS
 62
     5
 10
-193.0
 20
193.0
 30
0.0
 11
193.0
 21
193.0
 31
0.0
  0
LINE
  5
63
  8
SIZE
  6
CONTINUOUS
 62
    30
 10
-11.5
 20
461.97251299999988
 30
0.0
 11
0.5
 21
461.97251299999988
 31
0.0
  0
TEXT
  5
64
  8
SIZE
  6
CONTINUOUS
 62
    30
 10
-58.448571428571441
 20
487.66536799999989
 30
0.0
 40
64.0
  1
âË98
 41
0.9
 72
     1
 11
28.5
 21
487.66536799999989
 31
0.0
  0
LINE
  5
65
  8
BASIS
  6
DASHDOT
 62
     6
 10
-274.0058719999999
 20
0.0
 30
0.0
 11
274.21735999999999
 21
0.0
 31
0.0
  0
LINE
  5
66
  8
OUTLINE
  6
CONTINUOUS
 62
     3
 10
-235.0
 20
-217.0
 30
0.0
 11
-235.0
 21
217.0
 31
0.0
  0
LINE
  5
67
  8
DETAIL
  6
CONTINUOUS
 62
     5
 10
-219.0
 20
-40.0
 30
0.0
 11
-219.0
 21
100.0
 31
0.0
  0
LINE
  5
68
  8
DETAIL
  6
CONTINUOUS
 62
     5
 10
-235.0
 20
-217.0
 30
0.0
 11
-235.0
 21
217.0
 31
0.0
  0
TEXT
  5
69
  8
SIZE
  6
CONTINUOUS
 62
    30
 10
-888.18115499999999
 20
-109.1657142857142
 30
0.0
 40
64.0
  1
üá386
 50
90.0
 41
0.9
 72
     1
 11
-888.18115499999999
 21
0.0
 31
0.0
  0
LINE
  5
6A
  8
SIZE
  6
CONTINUOUS
 62
    30
 10
-863.18115499999999
 20
181.0
 30
0.0
 11
-863.18115499999999
 21
-181.0
 31
0.0
  0
LINE
  5
6B
  8
SIZE
  6
CONTINUOUS
 62
    30
 10
-623.43596599999989
 20
0.0
 30
0.0
 11
-623.43596599999989
 21
12.0
 31
0.0
  0
CIRCLE
  5
6C
  8
SIZE
  6
CONTINUOUS
 62
    30
 10
-623.43596599999989
 20
0.0
 30
0.0
 40
6.0
  0
LINE
  5
6D
  8
SIZE
  6
CONTINUOUS
 62
    30
 10
-623.43596599999989
 20
0.0
 30
0.0
 11
-623.43596599999989
 21
12.0
 31
0.0
  0
CIRCLE
  5
6E
  8
SIZE
  6
CONTINUOUS
 62
    30
 10
-623.43596599999989
 20
0.0
 30
0.0
 40
6.0
  0
TEXT
  5
6F
  8
SIZE
  6
CONTINUOUS
 62
    30
 10
-651.81872799999985
 20
-3.571428571428569
 30
0.0
 40
64.0
  1
130
 50
90.0
 41
0.9
 72
     1
 11
-651.81872799999985
 21
65.0
 31
0.0
  0
LINE
  5
70
  8
DETAIL
  6
CONTINUOUS
 62
     5
 10
-193.0
 20
-193.0
 30
0.0
 11
-193.0
 21
193.0
 31
0.0
  0
LINE
  5
71
  8
BASIS
  6
DASHDOT
 62
     6
 10
0.0
 20
-276.49377600000003
 30
0.0
 11
0.0
 21
276.544464
 31
0.0
  0
LINE
  5
72
  8
OUTLINE
  6
CONTINUOUS
 62
     3
 39
50.0
 10
-217.0
 20
-235.0
 30
0.0
 11
-190.5
 21
-235.0
 31
0.0
  0
TEXT
  5
73
  8
SIZE
  6
CONTINUOUS
 62
    30
 10
-890.69699999999989
 20
-491.17499257142862
 30
0.0
 40
64.0
  1
142
 50
90.0
 41
0.9
 72
     1
 11
-890.69699999999989
 21
-422.60356400000001
 31
0.0
  0
LINE
  5
74
  8
SIZE
  6
CONTINUOUS
 62
    30
 10
-205.0
 20
-190.0
 30
0.0
 11
-205.0
 21
-1125.277595
 31
0.0
  0
LINE
  5
75
  8
SIZE
  6
CONTINUOUS
 62
    30
 10
-150.0
 20
-245.0
 30
0.0
 11
-150.0
 21
-980.13859500000001
 31
0.0
  0
LINE
  5
76
  8
SIZE
  6
CONTINUOUS
 62
    30
 10
-187.21122999999989
 20
-327.60827399999999
 30
0.0
 11
-187.21122999999989
 21
-821.86764700000003
 31
0.0
  0
LINE
  5
77
  8
SIZE
  6
CONTINUOUS
 62
    30
 10
-35.21123
 20
-327.60827399999999
 30
0.0
 11
-35.21123
 21
-821.86764700000003
 31
0.0
  0
CIRCLE
  5
78
  8
SIZE
  6
CONTINUOUS
 62
    30
 10
-183.0
 20
-660.18595500000004
 30
0.0
 40
6.0
  0
CIRCLE
  5
79
  8
SIZE
  6
CONTINUOUS
 62
    30
 10
-39.0
 20
-660.18595500000004
 30
0.0
 40
6.0
  0
LINE
  5
7A
  8
SIZE
  6
CONTINUOUS
 62
    30
 10
-183.0
 20
-355.0
 30
0.0
 11
-183.0
 21
-680.18595500000004
 31
0.0
  0
LINE
  5
7B
  8
SIZE
  6
CONTINUOUS
 62
    30
 10
-39.0
 20
-355.0
 30
0.0
 11
-39.0
 21
-680.18595500000004
 31
0.0
  0
LINE
  5
7C
  8
SIZE
  6
CONTINUOUS
 62
    30
 10
-205.0
 20
-1105.277595
 30
0.0
 11
-193.0
 21
-1105.277595
 31
0.0
  0
CIRCLE
  5
7D
  8
SIZE
  6
CONTINUOUS
 62
    30
 10
-205.0
 20
-1105.277595
 30
0.0
 40
6.0
  0
LINE
  5
7E
  8
SIZE
  6
CONTINUOUS
 62
    30
 10
-150.0
 20
-960.13859500000001
 30
0.0
 11
-138.0
 21
-960.13859500000001
 31
0.0
  0
CIRCLE
  5
7F
  8
SIZE
  6
CONTINUOUS
 62
    30
 10
-150.0
 20
-960.13859500000001
 30
0.0
 40
6.0
  0
LINE
  5
80
  8
SIZE
  6
CONTINUOUS
 62
    30
 10
-182.71122999999989
 20
-660.18595500000004
 30
0.0
 11
-445.86528299999998
 21
-660.18595500000004
 31
0.0
  0
LINE
  5
81
  8
SIZE
  6
CONTINUOUS
 62
    30
 10
-190.71123
 20
-801.86764700000003
 30
0.0
 11
-446.44879500000002
 21
-801.86764700000003
 31
0.0
  0
LINE
  5
82
  8
SIZE
  6
CONTINUOUS
 62
    30
 10
-452.32630499999988
 20
-801.86764700000003
 30
0.0
 11
-186.71123
 21
-801.86764700000003
 31
0.0
  0
LINE
  5
83
  8
SIZE
  6
CONTINUOUS
 62
    30
 10
-454.32846799999999
 20
-660.18595500000004
 30
0.0
 11
-182.5
 21
-660.18595500000004
 31
0.0
  0
TEXT
  5
84
  8
SIZE
  6
CONTINUOUS
 62
    30
 10
-438.8463055714285
 20
-776.86764700000003
 30
0.0
 40
64.0
  1
âË152
 41
0.9
 72
     1
 11
-329.95487700000001
 21
-776.86764700000003
 31
0.0
  0
LINE
  5
85
  8
SIZE
  6
CONTINUOUS
 62
    30
 10
-47.21123
 20
-801.86764700000003
 30
0.0
 11
-175.21123
 21
-801.86764700000003
 31
0.0
  0
LINE
  5
86
  8
SIZE
  6
CONTINUOUS
 62
    30
 10
-51.0
 20
-660.18595500000004
 30
0.0
 11
-171.0
 21
-660.18595500000004
 31
0.0
  0
LINE
  5
87
  8
SIZE
  6
CONTINUOUS
 62
    30
 10
-187.21122999999989
 20
-801.86764700000003
 30
0.0
 11
-175.21123
 21
-801.86764700000003
 31
0.0
  0
CIRCLE
  5
88
  8
SIZE
  6
CONTINUOUS
 62
    30
 10
-187.21122999999989
 20
-801.86764700000003
 30
0.0
 40
6.0
  0
LINE
  5
89
  8
SIZE
  6
CONTINUOUS
 62
    30
 10
-183.0
 20
-660.18595500000004
 30
0.0
 11
-171.0
 21
-660.18595500000004
 31
0.0
  0
LINE
  5
8A
  8
SIZE
  6
CONTINUOUS
 62
    30
 10
-35.21123
 20
-801.86764700000003
 30
0.0
 11
-47.21123
 21
-801.86764700000003
 31
0.0
  0
CIRCLE
  5
8B
  8
SIZE
  6
CONTINUOUS
 62
    30
 10
-35.21123
 20
-801.86764700000003
 30
0.0
 40
6.0
  0
LINE
  5
8C
  8
SIZE
  6
CONTINUOUS
 62
    30
 10
-39.0
 20
-660.18595500000004
 30
0.0
 11
-51.0
 21
-660.18595500000004
 31
0.0
  0
LINE
  5
8D
  8
SIZE
  6
CONTINUOUS
 62
    30
 10
-213.0
 20
-193.0
 30
0.0
 11
-883.18115499999988
 21
-193.0
 31
0.0
  0
LINE
  5
8E
  8
SIZE
  6
CONTINUOUS
 62
    30
 10
-249.0
 20
-70.0
 30
0.0
 11
-643.43596600000001
 21
-70.0
 31
0.0
  0
LINE
  5
8F
  8
SIZE
  6
CONTINUOUS
 62
    30
 10
-294.00587200000001
 20
0.0
 30
0.0
 11
-643.43596600000001
 21
0.0
 31
0.0
  0
LINE
  5
90
  8
SIZE
  6
CONTINUOUS
 62
    30
 10
-294.00587200000001
 20
0.0
 30
0.0
 11
-643.43596600000001
 21
0.0
 31
0.0
  0
LINE
  5
91
  8
SIZE
  6
CONTINUOUS
 62
    30
 10
-210.49999999999989
 20
-278.0
 30
0.0
 11
-767.81560300000001
 21
-278.0
 31
0.0
  0
LINE
  5
92
  8
SIZE
  6
CONTINUOUS
 62
    30
 10
-202.49999999999989
 20
-335.0
 30
0.0
 11
-767.81560300000001
 21
-335.0
 31
0.0
  0
LINE
  5
93
  8
SIZE
  6
CONTINUOUS
 62
    30
 10
-206.49999999999989
 20
-308.0
 30
0.0
 11
-639.13730399999986
 21
-308.0
 31
0.0
  0
LINE
  5
94
  8
SIZE
  6
CONTINUOUS
 62
    30
 10
-202.49999999999989
 20
-335.0
 30
0.0
 11
-639.13730399999986
 21
-335.0
 31
0.0
  0
LINE
  5
95
  8
SIZE
  6
CONTINUOUS
 62
    30
 10
-202.49999999999989
 20
-335.0
 30
0.0
 11
-883.18115499999988
 21
-335.0
 31
0.0
  0
LINE
  5
96
  8
SIZE
  6
CONTINUOUS
 62
    30
 10
-198.5
 20
-193.0
 30
0.0
 11
-883.18115499999988
 21
-193.0
 31
0.0
  0
LINE
  5
97
  8
SIZE
  6
CONTINUOUS
 62
    30
 10
-747.81560300000001
 20
-335.0
 30
0.0
 11
-747.81560300000001
 21
-278.0
 31
0.0
  0
LINE
  5
98
  8
SIZE
  6
CONTINUOUS
 62
    30
 10
-747.81560300000001
 20
-335.0
 30
0.0
 11
-747.81560300000001
 21
-278.0
 31
0.0
  0
LINE
  5
99
  8
SIZE
  6
CONTINUOUS
 62
    30
 10
-619.13730399999997
 20
-335.0
 30
0.0
 11
-619.13730399999997
 21
-308.0
 31
0.0
  0
LINE
  5
9A
  8
SIZE
  6
CONTINUOUS
 62
    30
 10
-619.13730399999997
 20
-335.0
 30
0.0
 11
-619.13730399999997
 21
-308.0
 31
0.0
  0
LINE
  5
9B
  8
SIZE
  6
CONTINUOUS
 62
    30
 10
-863.18115499999999
 20
-335.0
 30
0.0
 11
-863.18115499999999
 21
-323.0
 31
0.0
  0
LINE
  5
9C
  8
SIZE
  6
CONTINUOUS
 62
    30
 10
-863.18115499999999
 20
-317.5
 30
0.0
 11
-863.18115499999999
 21
-507.07983499999989
 31
0.0
  0
LINE
  5
9D
  8
SIZE
  6
CONTINUOUS
 62
    30
 10
-747.81560300000001
 20
-319.5
 30
0.0
 11
-747.81560300000001
 21
-468.69194499999992
 31
0.0
  0
LINE
  5
9E
  8
SIZE
  6
CONTINUOUS
 62
    30
 10
-619.13730399999997
 20
-323.49999999999989
 30
0.0
 11
-619.13730399999997
 21
-466.13275299999998
 31
0.0
  0
TEXT
  5
9F
  8
SIZE
  6
CONTINUOUS
 62
    30
 10
-647.22490900000003
 20
-454.49669242857141
 30
0.0
 40
64.0
  1
27
 50
90.0
 41
0.9
 72
     1
 11
-647.22490900000003
 21
-407.86812099999997
 31
0.0
  0
TEXT
  5
A0
  8
SIZE
  6
CONTINUOUS
 62
    30
 10
-762.07022500000005
 20
-455.28610942857142
 30
0.0
 40
64.0
  1
57
 50
90.0
 41
0.9
 72
     1
 11
-762.07022500000005
 21
-408.65753799999999
 31
0.0
  0
CIRCLE
  5
A1
  8
SIZE
  6
CONTINUOUS
 62
    30
 10
-863.18115499999999
 20
-335.0
 30
0.0
 40
6.0
  0
LINE
  5
A2
  8
SIZE
  6
CONTINUOUS
 62
    30
 10
-747.81560300000001
 20
-335.0
 30
0.0
 11
-747.81560300000001
 21
-347.0
 31
0.0
  0
CIRCLE
  5
A3
  8
SIZE
  6
CONTINUOUS
 62
    30
 10
-747.81560300000001
 20
-335.0
 30
0.0
 40
6.0
  0
LINE
  5
A4
  8
SIZE
  6
CONTINUOUS
 62
    30
 10
-747.81560300000001
 20
-347.0
 30
0.0
 11
-747.81560300000001
 21
-359.0
 31
0.0
  0
LINE
  5
A5
  8
SIZE
  6
CONTINUOUS
 62
    30
 10
-619.13730399999997
 20
-335.0
 30
0.0
 11
-619.13730399999997
 21
-347.0
 31
0.0
  0
CIRCLE
  5
A6
  8
SIZE
  6
CONTINUOUS
 62
    30
 10
-619.13730399999997
 20
-335.0
 30
0.0
 40
6.0
  0
LINE
  5
A7
  8
SIZE
  6
CONTINUOUS
 62
    30
 10
-619.13730399999997
 20
-347.0
 30
0.0
 11
-619.13730399999997
 21
-359.0
 31
0.0
  0
TEXT
  5
A8
  8
SIZE
  6
CONTINUOUS
 62
    30
 10
-651.81872799999985
 20
-171.57600942857141
 30
0.0
 40
64.0
  1
70
 50
90.0
 41
0.9
 72
     1
 11
-651.81872799999985
 21
-124.94743800000001
 31
0.0
  0
LINE
  5
A9
  8
SIZE
  6
CONTINUOUS
 62
    30
 10
-863.18115499999999
 20
-205.0
 30
0.0
 11
-863.18115499999999
 21
-323.0
 31
0.0
  0
LINE
  5
AA
  8
SIZE
  6
CONTINUOUS
 62
    30
 10
-863.18115499999999
 20
-193.0
 30
0.0
 11
-863.18115499999999
 21
-181.0
 31
0.0
  0
CIRCLE
  5
AB
  8
SIZE
  6
CONTINUOUS
 62
    30
 10
-863.18115499999999
 20
-193.0
 30
0.0
 40
6.0
  0
LINE
  5
AC
  8
SIZE
  6
CONTINUOUS
 62
    30
 10
-863.18115499999999
 20
-193.0
 30
0.0
 11
-863.18115499999999
 21
-205.0
 31
0.0
  0
CIRCLE
  5
AD
  8
SIZE
  6
CONTINUOUS
 62
    30
 10
-863.18115499999999
 20
-193.0
 30
0.0
 40
6.0
  0
CIRCLE
  5
AE
  8
SIZE
  6
CONTINUOUS
 62
    30
 10
-747.81560300000001
 20
-278.0
 30
0.0
 40
6.0
  0
LINE
  5
AF
  8
SIZE
  6
CONTINUOUS
 62
    30
 10
-623.43596599999989
 20
-72.0
 30
0.0
 11
-623.43596599999989
 21
-173.64898299999999
 31
0.0
  0
LINE
  5
B0
  8
SIZE
  6
CONTINUOUS
 62
    30
 10
-619.13730399999997
 20
-308.0
 30
0.0
 11
-619.13730399999997
 21
-296.0
 31
0.0
  0
CIRCLE
  5
B1
  8
SIZE
  6
CONTINUOUS
 62
    30
 10
-619.13730399999997
 20
-308.0
 30
0.0
 40
6.0
  0
LINE
  5
B2
  8
SIZE
  6
CONTINUOUS
 62
    30
 10
-619.13730399999997
 20
-296.0
 30
0.0
 11
-619.13730399999997
 21
-284.0
 31
0.0
  0
LINE
  5
B3
  8
SIZE
  6
CONTINUOUS
 62
    30
 10
-623.43596599999989
 20
-82.0
 30
0.0
 11
-623.43596599999989
 21
-94.0
 31
0.0
  0
LINE
  5
B4
  8
SIZE
  6
CONTINUOUS
 62
    30
 10
-623.43596599999989
 20
-70.0
 30
0.0
 11
-623.43596599999989
 21
-82.0
 31
0.0
  0
CIRCLE
  5
B5
  8
SIZE
  6
CONTINUOUS
 62
    30
 10
-623.43596599999989
 20
-70.0
 30
0.0
 40
6.0
  0
LINE
  5
B6
  8
SIZE
  6
CONTINUOUS
 62
    30
 10
-623.43596599999989
 20
0.0
 30
0.0
 11
-623.43596599999989
 21
-70.0
 31
0.0
  0
LINE
  5
B7
  8
SIZE
  6
CONTINUOUS
 62
    30
 10
-623.43596599999989
 20
0.0
 30
0.0
 11
-623.43596599999989
 21
-70.0
 31
0.0
  0
LINE
  5
B8
  8
BASIS
  6
DASHDOT
 62
     6
 10
-111.0
 20
-375.95097900000002
 30
0.0
 11
-111.0
 21
-167.098681
 31
0.0
  0
LINE
  5
B9
  8
DETAIL
  6
CONTINUOUS
 62
     5
 10
-183.0
 20
-335.0
 30
0.0
 11
-183.0
 21
-308.0
 31
0.0
  0
LINE
  5
BA
  8
DETAIL
  6
CONTINUOUS
 62
     5
 10
-39.0
 20
-335.0
 30
0.0
 11
-39.0
 21
-308.0
 31
0.0
  0
TEXT
  5
BB
  8
SIZE
  6
CONTINUOUS
 62
    30
 10
-440.84846814285697
 20
-635.18595500000004
 30
0.0
 40
64.0
  1
âË144
 41
0.9
 72
     1
 11
-330.58561099999991
 21
-635.18595500000004
 31
0.0
  0
LINE
  5
BC
  8
DETAIL
  6
CONTINUOUS
 62
     5
 10
-183.0
 20
-335.0
 30
0.0
 11
-39.0
 21
-335.0
 31
0.0
  0
TEXT
  5
BD
  8
NOTE
  6
CONTINUOUS
 62
     4
 10
-162.21950000000001
 20
-437.36048199999988
 30
0.0
 40
64.0
  1
EA
 41
0.9
  0
ARC
  5
BE
  8
OUTLINE
  6
CONTINUOUS
 62
     3
 10
-217.0
 20
-217.0
 30
0.0
 40
18.0
 50
180.0
 51
270.0
  0
ARC
  5
BF
  8
DETAIL
  6
CONTINUOUS
 62
     5
 10
-217.0
 20
-217.0
 30
0.0
 40
18.0
 50
180.0
 51
270.0
  0
LINE
  5
C0
  8
DETAIL
  6
CONTINUOUS
 62
     5
 10
-219.0
 20
-219.0
 30
0.0
 11
-219.0
 21
-100.0
 31
0.0
  0
LINE
  5
C1
  8
NOTE
  6
CONTINUOUS
 62
     4
 10
-205.0
 20
-170.0
 30
0.0
 11
-205.0
 21
-130.0
 31
0.0
  0
LINE
  5
C2
  8
OUTLINE
  6
DASHED
 62
     3
 39
50.0
 10
-190.5
 20
-235.0
 30
0.0
 11
-30.5
 21
-235.0
 31
0.0
  0
LINE
  5
C3
  8
DETAIL
  6
CONTINUOUS
 62
     5
 10
-202.49999999999989
 20
-193.0
 30
0.0
 11
-18.5
 21
-193.0
 31
0.0
  0
LINE
  5
C4
  8
DETAIL
  6
CONTINUOUS
 62
     5
 10
-202.49999999999989
 20
-196.0
 30
0.0
 11
-18.5
 21
-196.0
 31
0.0
  0
LINE
  5
C5
  8
DETAIL
  6
CONTINUOUS
 62
     5
 10
-191.0
 20
-278.0
 30
0.0
 11
-31.0
 21
-278.0
 31
0.0
  0
LINE
  5
C6
  8
DETAIL
  6
CONTINUOUS
 62
     5
 10
-187.0
 20
-308.0
 30
0.0
 11
-35.0
 21
-308.0
 31
0.0
  0
LINE
  5
C7
  8
DETAIL
  6
CONTINUOUS
 62
     5
 10
-191.0
 20
-278.0
 30
0.0
 11
-191.0
 21
-196.0
 31
0.0
  0
LINE
  5
C8
  8
DETAIL
  6
CONTINUOUS
 62
     5
 10
-187.0
 20
-308.0
 30
0.0
 11
-187.0
 21
-278.0
 31
0.0
  0
LINE
  5
C9
  8
DETAIL
  6
CONTINUOUS
 62
     5
 10
-219.0
 20
-219.0
 30
0.0
 11
-190.5
 21
-219.0
 31
0.0
  0
LINE
  5
CA
  8
DETAIL
  6
CONTINUOUS
 62
     5
 10
-217.0
 20
-235.0
 30
0.0
 11
-190.5
 21
-235.0
 31
0.0
  0
LINE
  5
CB
  8
DETAIL
  6
CONTINUOUS
 62
     5
 10
-202.49999999999989
 20
-196.0
 30
0.0
 11
-202.49999999999989
 21
-193.0
 31
0.0
  0
CIRCLE
  5
CC
  8
FIX
  6
CONTINUOUS
 62
    11
 10
-150.0
 20
-205.0
 30
0.0
 40
2.5
  0
CIRCLE
  5
CD
  8
FIX
  6
CONTINUOUS
 62
    11
 10
-150.0
 20
-205.0
 30
0.0
 40
2.5
  0
LINE
  5
CE
  8
NOTE
  6
CONTINUOUS
 62
     4
 10
-130.0
 20
-205.0
 30
0.0
 11
-170.0
 21
-205.0
 31
0.0
  0
LINE
  5
CF
  8
NOTE
  6
CONTINUOUS
 62
     4
 10
-150.0
 20
-225.0
 30
0.0
 11
-150.0
 21
-185.0
 31
0.0
  0
LINE
  5
D0
  8
DETAIL
  6
CONTINUOUS
 62
     5
 10
-31.0
 20
-278.0
 30
0.0
 11
-31.0
 21
-196.0
 31
0.0
  0
LINE
  5
D1
  8
DETAIL
  6
CONTINUOUS
 62
     5
 10
-35.0
 20
-308.0
 30
0.0
 11
-35.0
 21
-278.0
 31
0.0
  0
LINE
  5
D2
  8
DETAIL
  6
CONTINUOUS
 62
     5
 10
-18.5
 20
-196.0
 30
0.0
 11
-18.5
 21
-193.0
 31
0.0
  0
LINE
  5
D3
  8
DETAIL
  6
CONTINUOUS
 62
     5
 10
-224.25
 20
-40.0
 30
0.0
 11
-224.25
 21
-100.0
 31
0.0
  0
LINE
  5
D4
  8
NOTE
  6
CONTINUOUS
 62
     4
 10
-209.0
 20
-50.0
 30
0.0
 11
-209.0
 21
-90.0
 31
0.0
  0
LINE
  5
D5
  8
DETAIL
  6
CONTINUOUS
 62
     5
 10
-193.0
 20
-100.0
 30
0.0
 11
-224.25
 21
-100.0
 31
0.0
  0
LINE
  5
D6
  8
DETAIL
  6
CONTINUOUS
 62
     5
 10
-206.49999999999989
 20
-152.5
 30
0.0
 11
-203.5
 21
-152.5
 31
0.0
  0
LINE
  5
D7
  8
DETAIL
  6
CONTINUOUS
 62
     5
 10
-206.49999999999989
 20
-147.5
 30
0.0
 11
-203.5
 21
-147.5
 31
0.0
  0
ARC
  5
D8
  8
DETAIL
  6
CONTINUOUS
 62
     5
 10
-203.5
 20
-150.0
 30
0.0
 40
2.5
 50
270.0
 51
90.0
  0
ARC
  5
D9
  8
DETAIL
  6
CONTINUOUS
 62
     5
 10
-206.49999999999989
 20
-150.0
 30
0.0
 40
2.5
 50
90.0
 51
270.0
  0
CIRCLE
  5
DA
  8
FIX
  6
CONTINUOUS
 62
    11
 10
-205.0
 20
-150.0
 30
0.0
 40
2.5
  0
LINE
  5
DB
  8
NOTE
  6
CONTINUOUS
 62
     4
 10
-185.0
 20
-150.0
 30
0.0
 11
-225.0
 21
-150.0
 31
0.0
  0
LINE
  5
DC
  8
DETAIL
  6
CONTINUOUS
 62
     5
 10
-193.0
 20
-40.0
 30
0.0
 11
-224.25
 21
-40.0
 31
0.0
  0
LINE
  5
DD
  8
NOTE
  6
CONTINUOUS
 62
     4
 10
-189.0
 20
-70.0
 30
0.0
 11
-229.0
 21
-70.0
 31
0.0
  0
ARC
  5
DE
  8
DETAIL
  6
CONTINUOUS
 62
     5
 10
-209.0
 20
-66.5
 30
0.0
 40
7.5
 50
0.0
 51
180.0
  0
CIRCLE
  5
DF
  8
FIX
  6
CONTINUOUS
 62
    11
 10
-209.0
 20
-70.0
 30
0.0
 40
7.5
  0
ARC
  5
E0
  8
DETAIL
  6
CONTINUOUS
 62
     5
 10
-209.0
 20
-73.5
 30
0.0
 40
7.5
 50
180.0
 51
0.0
  0
LINE
  5
E1
  8
DETAIL
  6
CONTINUOUS
 62
     5
 10
-216.5
 20
-66.5
 30
0.0
 11
-216.5
 21
-73.5
 31
0.0
  0
LINE
  5
E2
  8
DETAIL
  6
CONTINUOUS
 62
     5
 10
-201.5
 20
-66.5
 30
0.0
 11
-201.5
 21
-73.5
 31
0.0
  0
LINE
  5
E3
  8
NOTE
  6
CONTINUOUS
 62
     4
 10
-1198.9748070000001
 20
395.50282499999992
 30
0.0
 11
-556.52161799999999
 21
395.50282499999992
 31
0.0
  0
TEXT
  5
E4
  8
NOTE
  6
CONTINUOUS
 62
     4
 10
-1184.8468069999999
 20
430.69469199999992
 30
0.0
 40
64.0
  1
AH 4-âË15ü~22
 41
0.9
  0
LINE
  5
E5
  8
SIZE
  6
CONTINUOUS
 62
    30
 10
-235.0
 20
237.0
 30
0.0
 11
-235.0
 21
872.83625300000006
 31
0.0
  0
LINE
  5
E6
  8
SIZE
  6
CONTINUOUS
 62
    30
 10
-219.0
 20
239.0
 30
0.0
 11
-219.0
 21
748.04355199999998
 31
0.0
  0
LINE
  5
E7
  8
NOTE
  6
CONTINUOUS
 62
     4
 10
-209.0
 20
130.0
 30
0.0
 11
-556.52161799999999
 21
395.50282499999992
 31
0.0
  0
LINE
  5
E8
  8
SIZE
  6
CONTINUOUS
 62
    30
 10
-213.0
 20
193.0
 30
0.0
 11
-883.18115499999988
 21
193.0
 31
0.0
  0
LINE
  5
E9
  8
SIZE
  6
CONTINUOUS
 62
    30
 10
-249.0
 20
130.0
 30
0.0
 11
-643.43596600000001
 21
130.0
 31
0.0
  0
LINE
  5
EA
  8
SIZE
  6
CONTINUOUS
 62
    30
 10
-863.18115499999999
 20
193.0
 30
0.0
 11
-863.18115499999999
 21
181.0
 31
0.0
  0
CIRCLE
  5
EB
  8
SIZE
  6
CONTINUOUS
 62
    30
 10
-863.18115499999999
 20
193.0
 30
0.0
 40
6.0
  0
LINE
  5
EC
  8
SIZE
  6
CONTINUOUS
 62
    30
 10
-623.43596599999989
 20
12.0
 30
0.0
 11
-623.43596599999989
 21
118.0
 31
0.0
  0
LINE
  5
ED
  8
SIZE
  6
CONTINUOUS
 62
    30
 10
-623.43596599999989
 20
12.0
 30
0.0
 11
-623.43596599999989
 21
24.0
 31
0.0
  0
LINE
  5
EE
  8
SIZE
  6
CONTINUOUS
 62
    30
 10
-623.43596599999989
 20
130.0
 30
0.0
 11
-623.43596599999989
 21
118.0
 31
0.0
  0
CIRCLE
  5
EF
  8
SIZE
  6
CONTINUOUS
 62
    30
 10
-623.43596599999989
 20
130.0
 30
0.0
 40
6.0
  0
LINE
  5
F0
  8
SIZE
  6
CONTINUOUS
 62
    30
 10
-209.0
 20
170.0
 30
0.0
 11
-209.0
 21
612.88430300000005
 31
0.0
  0
LINE
  5
F1
  8
SIZE
  6
CONTINUOUS
 62
    30
 10
-11.5
 20
24.0
 30
0.0
 11
-11.5
 21
481.97251299999999
 31
0.0
  0
ARC
  5
F2
  8
OUTLINE
  6
CONTINUOUS
 62
     3
 10
-217.0
 20
217.0
 30
0.0
 40
18.0
 50
90.0
 51
180.0
  0
ARC
  5
F3
  8
DETAIL
  6
CONTINUOUS
 62
     5
 10
-217.0
 20
217.0
 30
0.0
 40
18.0
 50
90.0
 51
180.0
  0
LINE
  5
F4
  8
NOTE
  6
CONTINUOUS
 62
     4
 10
-209.0
 20
130.0
 30
0.0
 11
-246.164591
 21
144.79165800000001
 31
0.0
  0
LINE
  5
F5
  8
NOTE
  6
CONTINUOUS
 62
     4
 10
-233.78965099999991
 20
161.392247
 30
0.0
 11
-209.0
 21
130.0
 31
0.0
  0
LINE
  5
F6
  8
DETAIL
  6
CONTINUOUS
 62
     5
 10
-219.0
 20
160.0
 30
0.0
 11
-219.0
 21
219.0
 31
0.0
  0
LINE
  5
F7
  8
NOTE
  6
CONTINUOUS
 62
     4
 10
-205.0
 20
170.0
 30
0.0
 11
-205.0
 21
130.0
 31
0.0
  0
LINE
  5
F8
  8
NOTE
  6
CONTINUOUS
 62
     4
 10
-189.0
 20
130.0
 30
0.0
 11
-229.0
 21
130.0
 31
0.0
  0
LINE
  5
F9
  8
NOTE
  6
CONTINUOUS
 62
     4
 10
-209.0
 20
150.0
 30
0.0
 11
-209.0
 21
110.0
 31
0.0
  0
LINE
  5
FA
  8
DETAIL
  6
CONTINUOUS
 62
     5
 10
-201.5
 20
133.49999999999989
 30
0.0
 11
-201.5
 21
126.5
 31
0.0
  0
ARC
  5
FB
  8
DETAIL
  6
CONTINUOUS
 62
     5
 10
-209.0
 20
133.49999999999989
 30
0.0
 40
7.5
 50
0.0
 51
180.0
  0
LINE
  5
FC
  8
DETAIL
  6
CONTINUOUS
 62
     5
 10
-216.5
 20
133.49999999999989
 30
0.0
 11
-216.5
 21
126.5
 31
0.0
  0
ARC
  5
FD
  8
DETAIL
  6
CONTINUOUS
 62
     5
 10
-209.0
 20
126.5
 30
0.0
 40
7.5
 50
180.0
 51
0.0
  0
CIRCLE
  5
FE
  8
FIX
  6
CONTINUOUS
 62
    11
 10
-209.0
 20
130.0
 30
0.0
 40
7.5
  0
LINE
  5
FF
  8
DETAIL
  6
CONTINUOUS
 62
     5
 10
-193.0
 20
100.0
 30
0.0
 11
-224.25
 21
100.0
 31
0.0
  0
LINE
  5
100
  8
DETAIL
  6
CONTINUOUS
 62
     5
 10
-224.25
 20
160.0
 30
0.0
 11
-224.25
 21
100.0
 31
0.0
  0
LINE
  5
101
  8
DETAIL
  6
CONTINUOUS
 62
     5
 10
-193.0
 20
160.0
 30
0.0
 11
-224.25
 21
160.0
 31
0.0
  0
LINE
  5
102
  8
NOTE
  6
CONTINUOUS
 62
     4
 10
-185.0
 20
150.0
 30
0.0
 11
-225.0
 21
150.0
 31
0.0
  0
CIRCLE
  5
103
  8
FIX
  6
CONTINUOUS
 62
    11
 10
-205.0
 20
150.0
 30
0.0
 40
2.5
  0
POINT
  5
104
  8
DEFPOINTS
  6
CONTINUOUS
 62
    30
 10
-11.5
 20
4.0
 30
0.0
  0
LINE
  5
105
  8
DETAIL
  6
CONTINUOUS
 62
     5
 10
-152.5
 20
206.49999999999989
 30
0.0
 11
-152.5
 21
203.5
 31
0.0
  0
LINE
  5
106
  8
DETAIL
  6
CONTINUOUS
 62
     5
 10
-147.5
 20
206.49999999999989
 30
0.0
 11
-147.5
 21
203.5
 31
0.0
  0
ARC
  5
107
  8
DETAIL
  6
CONTINUOUS
 62
     5
 10
-150.0
 20
203.5
 30
0.0
 40
2.5
 50
180.0
 51
0.0
  0
ARC
  5
108
  8
DETAIL
  6
CONTINUOUS
 62
     5
 10
-150.0
 20
206.49999999999989
 30
0.0
 40
2.5
 50
0.0
 51
180.0
  0
CIRCLE
  5
109
  8
FIX
  6
CONTINUOUS
 62
    11
 10
-150.0
 20
205.0
 30
0.0
 40
2.5
  0
LINE
  5
10A
  8
NOTE
  6
CONTINUOUS
 62
     4
 10
-170.0
 20
205.0
 30
0.0
 11
-130.0
 21
205.0
 31
0.0
  0
LINE
  5
10B
  8
NOTE
  6
CONTINUOUS
 62
     4
 10
-150.0
 20
185.0
 30
0.0
 11
-150.0
 21
225.0
 31
0.0
  0
CIRCLE
  5
10C
  8
SIZE
  6
CONTINUOUS
 62
    30
 10
-11.5
 20
461.97251299999988
 30
0.0
 40
6.0
  0
LINE
  5
10D
  8
SIZE
  6
CONTINUOUS
 62
    30
 10
-209.0
 20
592.88430300000016
 30
0.0
 11
-197.0
 21
592.88430300000016
 31
0.0
  0
CIRCLE
  5
10E
  8
SIZE
  6
CONTINUOUS
 62
    30
 10
-209.0
 20
592.88430300000016
 30
0.0
 40
6.0
  0
LINE
  5
10F
  8
SIZE
  6
CONTINUOUS
 62
    30
 10
-235.0
 20
852.83625300000006
 30
0.0
 11
-223.0
 21
852.83625300000006
 31
0.0
  0
CIRCLE
  5
110
  8
SIZE
  6
CONTINUOUS
 62
    30
 10
-235.0
 20
852.83625300000006
 30
0.0
 40
6.0
  0
LINE
  5
111
  8
SIZE
  6
CONTINUOUS
 62
    30
 10
-219.0
 20
728.04355199999998
 30
0.0
 11
-207.0
 21
728.04355199999998
 31
0.0
  0
CIRCLE
  5
112
  8
SIZE
  6
CONTINUOUS
 62
    30
 10
-219.0
 20
728.04355199999998
 30
0.0
 40
6.0
  0
LINE
  5
113
  8
OUTLINE
  6
CONTINUOUS
 62
     3
 10
235.0
 20
-217.0
 30
0.0
 11
235.0
 21
217.0
 31
0.0
  0
LINE
  5
114
  8
DETAIL
  6
CONTINUOUS
 62
     5
 10
219.0
 20
-100.0
 30
0.0
 11
219.0
 21
40.0
 31
0.0
  0
LINE
  5
115
  8
DETAIL
  6
CONTINUOUS
 62
     5
 10
235.0
 20
-217.0
 30
0.0
 11
235.0
 21
217.0
 31
0.0
  0
TEXT
  5
116
  8
SIZE
  6
CONTINUOUS
 62
    30
 10
1050.9445000000001
 20
-74.05714285714285
 30
0.0
 40
64.0
  1
438
 50
90.0
 41
0.9
 72
     1
 11
1050.9445000000001
 21
0.0
 31
0.0
  0
LINE
  5
117
  8
SIZE
  6
CONTINUOUS
 62
    30
 10
1083.4645
 20
207.0
 30
0.0
 11
1083.4645
 21
-207.0
 31
0.0
  0
TEXT
  5
118
  8
SIZE
  6
CONTINUOUS
 62
    30
 10
922.31749999999988
 20
-68.571428571428555
 30
0.0
 40
64.0
  1
410
 50
90.0
 41
0.9
 72
     1
 11
922.31749999999988
 21
0.0
 31
0.0
  0
LINE
  5
119
  8
SIZE
  6
CONTINUOUS
 62
    30
 10
947.44550000000004
 20
193.0
 30
0.0
 11
947.44550000000004
 21
-193.0
 31
0.0
  0
TEXT
  5
11A
  8
SIZE
  6
CONTINUOUS
 62
    30
 10
775.31543999999985
 20
-74.05714285714285
 30
0.0
 40
64.0
  1
300
 50
90.0
 41
0.9
 72
     1
 11
775.31543999999985
 21
0.0
 31
0.0
  0
LINE
  5
11B
  8
SIZE
  6
CONTINUOUS
 62
    30
 10
810.60177699999986
 20
138.0
 30
0.0
 11
810.60177699999986
 21
-138.0
 31
0.0
  0
CIRCLE
  5
11C
  8
SIZE
  6
CONTINUOUS
 62
    30
 10
672.28326400000003
 20
0.0
 30
0.0
 40
6.0
  0
LINE
  5
11D
  8
SIZE
  6
CONTINUOUS
 62
    30
 10
672.28326400000003
 20
0.0
 30
0.0
 11
672.28326400000003
 21
70.0
 31
0.0
  0
LINE
  5
11E
  8
SIZE
  6
CONTINUOUS
 62
    30
 10
672.28326400000003
 20
0.0
 30
0.0
 11
672.28326400000003
 21
70.0
 31
0.0
  0
CIRCLE
  5
11F
  8
SIZE
  6
CONTINUOUS
 62
    30
 10
672.28326400000003
 20
0.0
 30
0.0
 40
6.0
  0
LINE
  5
120
  8
DETAIL
  6
CONTINUOUS
 62
     5
 10
193.0
 20
-193.0
 30
0.0
 11
193.0
 21
193.0
 31
0.0
  0
LINE
  5
121
  8
SIZE
  6
CONTINUOUS
 62
    30
 10
239.0
 20
-219.0
 30
0.0
 11
1103.4645
 21
-219.0
 31
0.0
  0
LINE
  5
122
  8
SIZE
  6
CONTINUOUS
 62
    30
 10
190.0
 20
-205.0
 30
0.0
 11
967.44550000000004
 21
-205.0
 31
0.0
  0
LINE
  5
123
  8
SIZE
  6
CONTINUOUS
 62
    30
 10
245.0
 20
-150.0
 30
0.0
 11
830.60177699999986
 21
-150.0
 31
0.0
  0
LINE
  5
124
  8
SIZE
  6
CONTINUOUS
 62
    30
 10
205.0
 20
-190.0
 30
0.0
 11
205.0
 21
-1125.277595
 31
0.0
  0
LINE
  5
125
  8
SIZE
  6
CONTINUOUS
 62
    30
 10
150.0
 20
-245.0
 30
0.0
 11
150.0
 21
-980.13859500000001
 31
0.0
  0
LINE
  5
126
  8
SIZE
  6
CONTINUOUS
 62
    30
 10
205.0
 20
-1105.277595
 30
0.0
 11
193.0
 21
-1105.277595
 31
0.0
  0
CIRCLE
  5
127
  8
SIZE
  6
CONTINUOUS
 62
    30
 10
205.0
 20
-1105.277595
 30
0.0
 40
6.0
  0
LINE
  5
128
  8
SIZE
  6
CONTINUOUS
 62
    30
 10
150.0
 20
-960.13859500000001
 30
0.0
 11
138.0
 21
-960.13859500000001
 31
0.0
  0
CIRCLE
  5
129
  8
SIZE
  6
CONTINUOUS
 62
    30
 10
150.0
 20
-960.13859500000001
 30
0.0
 40
6.0
  0
LINE
  5
12A
  8
SIZE
  6
CONTINUOUS
 62
    30
 10
294.21735999999993
 20
0.0
 30
0.0
 11
692.28326400000003
 21
0.0
 31
0.0
  0
LINE
  5
12B
  8
SIZE
  6
CONTINUOUS
 62
    30
 10
249.0
 20
-130.0
 30
0.0
 11
692.28326400000003
 21
-130.0
 31
0.0
  0
LINE
  5
12C
  8
SIZE
  6
CONTINUOUS
 62
    30
 10
294.21735999999993
 20
0.0
 30
0.0
 11
692.28326400000003
 21
0.0
 31
0.0
  0
TEXT
  5
12D
  8
NOTE
  6
CONTINUOUS
 62
     4
 10
267.267155
 20
-371.54614299999992
 30
0.0
 40
64.0
  1
EL
 41
0.9
  0
LINE
  5
12E
  8
NOTE
  6
CONTINUOUS
 62
     4
 10
255.97476499999991
 20
-401.81120699999991
 30
0.0
 11
364.27947199999988
 21
-401.81120699999991
 31
0.0
  0
LINE
  5
12F
  8
NOTE
  6
CONTINUOUS
 62
     4
 10
169.0
 20
-157.0
 30
0.0
 11
255.47476499999991
 21
-401.31120700000002
 31
0.0
  0
ARC
  5
130
  8
OUTLINE
  6
CONTINUOUS
 62
     3
 10
217.0
 20
-217.0
 30
0.0
 40
18.0
 50
270.0
 51
0.0
  0
ARC
  5
131
  8
DETAIL
  6
CONTINUOUS
 62
     5
 10
217.0
 20
-217.0
 30
0.0
 40
18.0
 50
270.0
 51
0.0
  0
LINE
  5
132
  8
DETAIL
  6
CONTINUOUS
 62
     5
 10
219.0
 20
-219.0
 30
0.0
 11
219.0
 21
-160.0
 31
0.0
  0
CIRCLE
  5
133
  8
DETAIL
  6
CONTINUOUS
 62
     5
 10
169.0
 20
-157.0
 30
0.0
 40
9.5
  0
LINE
  5
134
  8
NOTE
  6
CONTINUOUS
 62
     4
 10
169.0
 20
-177.0
 30
0.0
 11
169.0
 21
-137.0
 31
0.0
  0
LINE
  5
135
  8
NOTE
  6
CONTINUOUS
 62
     4
 10
205.0
 20
-170.0
 30
0.0
 11
205.0
 21
-130.0
 31
0.0
  0
LINE
  5
136
  8
NOTE
  6
CONTINUOUS
 62
     4
 10
169.0
 20
-157.0
 30
0.0
 11
172.08811299999991
 21
-196.88061599999989
 31
0.0
  0
LINE
  5
137
  8
NOTE
  6
CONTINUOUS
 62
     4
 10
191.61469299999999
 20
-189.99357000000001
 30
0.0
 11
169.0
 21
-157.0
 31
0.0
  0
LINE
  5
138
  8
NOTE
  6
CONTINUOUS
 62
     4
 10
130.0
 20
-205.0
 30
0.0
 11
170.0
 21
-205.0
 31
0.0
  0
LINE
  5
139
  8
NOTE
  6
CONTINUOUS
 62
     4
 10
150.0
 20
-225.0
 30
0.0
 11
150.0
 21
-185.0
 31
0.0
  0
CIRCLE
  5
13A
  8
FIX
  6
CONTINUOUS
 62
    11
 10
150.0
 20
-205.0
 30
0.0
 40
2.5
  0
ARC
  5
13B
  8
DETAIL
  6
CONTINUOUS
 62
     5
 10
150.0
 20
-203.5
 30
0.0
 40
2.5
 50
0.0
 51
180.0
  0
ARC
  5
13C
  8
DETAIL
  6
CONTINUOUS
 62
     5
 10
150.0
 20
-206.49999999999989
 30
0.0
 40
2.5
 50
180.0
 51
0.0
  0
LINE
  5
13D
  8
DETAIL
  6
CONTINUOUS
 62
     5
 10
152.5
 20
-203.5
 30
0.0
 11
152.5
 21
-206.49999999999989
 31
0.0
  0
LINE
  5
13E
  8
DETAIL
  6
CONTINUOUS
 62
     5
 10
147.5
 20
-203.5
 30
0.0
 11
147.5
 21
-206.49999999999989
 31
0.0
  0
LINE
  5
13F
  8
NOTE
  6
CONTINUOUS
 62
     4
 10
149.0
 20
-157.0
 30
0.0
 11
189.0
 21
-157.0
 31
0.0
  0
LINE
  5
140
  8
DETAIL
  6
CONTINUOUS
 62
     5
 10
224.25
 20
-160.0
 30
0.0
 11
224.25
 21
-100.0
 31
0.0
  0
LINE
  5
141
  8
DETAIL
  6
CONTINUOUS
 62
     5
 10
193.0
 20
-160.0
 30
0.0
 11
224.25
 21
-160.0
 31
0.0
  0
LINE
  5
142
  8
DETAIL
  6
CONTINUOUS
 62
     5
 10
193.0
 20
-100.0
 30
0.0
 11
224.25
 21
-100.0
 31
0.0
  0
LINE
  5
143
  8
NOTE
  6
CONTINUOUS
 62
     4
 10
189.0
 20
-130.0
 30
0.0
 11
229.0
 21
-130.0
 31
0.0
  0
LINE
  5
144
  8
NOTE
  6
CONTINUOUS
 62
     4
 10
209.0
 20
-150.0
 30
0.0
 11
209.0
 21
-110.0
 31
0.0
  0
ARC
  5
145
  8
DETAIL
  6
CONTINUOUS
 62
     5
 10
209.0
 20
-133.49999999999989
 30
0.0
 40
7.5
 50
180.0
 51
0.0
  0
CIRCLE
  5
146
  8
FIX
  6
CONTINUOUS
 62
    11
 10
209.0
 20
-130.0
 30
0.0
 40
7.5
  0
ARC
  5
147
  8
DETAIL
  6
CONTINUOUS
 62
     5
 10
209.0
 20
-126.5
 30
0.0
 40
7.5
 50
0.0
 51
180.0
  0
LINE
  5
148
  8
DETAIL
  6
CONTINUOUS
 62
     5
 10
216.5
 20
-133.49999999999989
 30
0.0
 11
216.5
 21
-126.5
 31
0.0
  0
LINE
  5
149
  8
DETAIL
  6
CONTINUOUS
 62
     5
 10
201.5
 20
-133.49999999999989
 30
0.0
 11
201.5
 21
-126.5
 31
0.0
  0
LINE
  5
14A
  8
NOTE
  6
CONTINUOUS
 62
     4
 10
225.0
 20
-150.0
 30
0.0
 11
185.0
 21
-150.0
 31
0.0
  0
CIRCLE
  5
14B
  8
FIX
  6
CONTINUOUS
 62
    11
 10
205.0
 20
-150.0
 30
0.0
 40
2.5
  0
CIRCLE
  5
14C
  8
FIX
  6
CONTINUOUS
 62
    11
 10
205.0
 20
-150.0
 30
0.0
 40
2.5
  0
LINE
  5
14D
  8
SIZE
  6
CONTINUOUS
 62
    30
 10
672.28326400000003
 20
-130.0
 30
0.0
 11
672.28326400000003
 21
-384.57195100000001
 31
0.0
  0
TEXT
  5
14E
  8
SIZE
  6
CONTINUOUS
 62
    30
 10
647.28326400000003
 20
-379.70897757142848
 30
0.0
 40
64.0
  1
130
 50
90.0
 41
0.9
 72
     1
 11
647.28326400000003
 21
-311.13754899999992
 31
0.0
  0
LINE
  5
14F
  8
SIZE
  6
CONTINUOUS
 62
    30
 10
672.28326400000003
 20
-404.708977
 30
0.0
 11
672.28326400000003
 21
-130.0
 31
0.0
  0
LINE
  5
150
  8
SIZE
  6
CONTINUOUS
 62
    30
 10
672.28326400000003
 20
-12.0
 30
0.0
 11
672.28326400000003
 21
-118.0
 31
0.0
  0
LINE
  5
151
  8
SIZE
  6
CONTINUOUS
 62
    30
 10
672.28326400000003
 20
-130.0
 30
0.0
 11
672.28326400000003
 21
-118.0
 31
0.0
  0
CIRCLE
  5
152
  8
SIZE
  6
CONTINUOUS
 62
    30
 10
672.28326400000003
 20
-130.0
 30
0.0
 40
6.0
  0
LINE
  5
153
  8
SIZE
  6
CONTINUOUS
 62
    30
 10
672.28326400000003
 20
0.0
 30
0.0
 11
672.28326400000003
 21
-12.0
 31
0.0
  0
LINE
  5
154
  8
SIZE
  6
CONTINUOUS
 62
    30
 10
672.28326400000003
 20
-12.0
 30
0.0
 11
672.28326400000003
 21
-24.0
 31
0.0
  0
LINE
  5
155
  8
SIZE
  6
CONTINUOUS
 62
    30
 10
672.28326400000003
 20
0.0
 30
0.0
 11
672.28326400000003
 21
-12.0
 31
0.0
  0
CIRCLE
  5
156
  8
SIZE
  6
CONTINUOUS
 62
    30
 10
947.44550000000004
 20
-205.0
 30
0.0
 40
6.0
  0
LINE
  5
157
  8
SIZE
  6
CONTINUOUS
 62
    30
 10
947.44550000000004
 20
-205.0
 30
0.0
 11
947.44550000000004
 21
-193.0
 31
0.0
  0
LINE
  5
158
  8
SIZE
  6
CONTINUOUS
 62
    30
 10
810.60177699999986
 20
-150.0
 30
0.0
 11
810.60177699999986
 21
-138.0
 31
0.0
  0
CIRCLE
  5
159
  8
SIZE
  6
CONTINUOUS
 62
    30
 10
810.60177699999986
 20
-150.0
 30
0.0
 40
6.0
  0
LINE
  5
15A
  8
SIZE
  6
CONTINUOUS
 62
    30
 10
1083.4645
 20
-219.0
 30
0.0
 11
1083.4645
 21
-207.0
 31
0.0
  0
CIRCLE
  5
15B
  8
SIZE
  6
CONTINUOUS
 62
    30
 10
1083.4645
 20
-219.0
 30
0.0
 40
6.0
  0
LINE
  5
15C
  8
SIZE
  6
CONTINUOUS
 62
    30
 10
239.0
 20
219.0
 30
0.0
 11
1103.4645
 21
219.0
 31
0.0
  0
LINE
  5
15D
  8
SIZE
  6
CONTINUOUS
 62
    30
 10
190.0
 20
205.0
 30
0.0
 11
967.44550000000004
 21
205.0
 31
0.0
  0
LINE
  5
15E
  8
SIZE
  6
CONTINUOUS
 62
    30
 10
245.0
 20
150.0
 30
0.0
 11
830.60177699999986
 21
150.0
 31
0.0
  0
LINE
  5
15F
  8
SIZE
  6
CONTINUOUS
 62
    30
 10
235.0
 20
237.0
 30
0.0
 11
235.0
 21
872.83625300000006
 31
0.0
  0
LINE
  5
160
  8
SIZE
  6
CONTINUOUS
 62
    30
 10
219.0
 20
239.0
 30
0.0
 11
219.0
 21
748.04355199999998
 31
0.0
  0
LINE
  5
161
  8
SIZE
  6
CONTINUOUS
 62
    30
 10
249.0
 20
70.0
 30
0.0
 11
692.28326400000003
 21
70.0
 31
0.0
  0
TEXT
  5
162
  8
NOTE
  6
CONTINUOUS
 62
     4
 10
347.04780299999987
 20
479.71049399999993
 30
0.0
 40
64.0
  1
8-âË5ü~8
 41
0.9
  0
LINE
  5
163
  8
NOTE
  6
CONTINUOUS
 62
     4
 10
731.33816999999988
 20
453.17923799999988
 30
0.0
 11
334.674013
 21
453.17923799999988
 31
0.0
  0
LINE
  5
164
  8
NOTE
  6
CONTINUOUS
 62
     4
 10
150.0
 20
205.0
 30
0.0
 11
334.674013
 21
453.17923799999988
 31
0.0
  0
LINE
  5
165
  8
SIZE
  6
CONTINUOUS
 62
    30
 10
209.0
 20
110.0
 30
0.0
 11
209.0
 21
612.88430300000005
 31
0.0
  0
LINE
  5
166
  8
SIZE
  6
CONTINUOUS
 62
    30
 10
86.5
 20
24.0
 30
0.0
 11
86.5
 21
481.97251299999999
 31
0.0
  0
ARC
  5
167
  8
OUTLINE
  6
CONTINUOUS
 62
     3
 10
217.0
 20
217.0
 30
0.0
 40
18.0
 50
0.0
 51
90.0
  0
ARC
  5
168
  8
DETAIL
  6
CONTINUOUS
 62
     5
 10
217.0
 20
217.0
 30
0.0
 40
18.0
 50
0.0
 51
90.0
  0
LINE
  5
169
  8
DETAIL
  6
CONTINUOUS
 62
     5
 10
219.0
 20
100.0
 30
0.0
 11
219.0
 21
219.0
 31
0.0
  0
LINE
  5
16A
  8
NOTE
  6
CONTINUOUS
 62
     4
 10
205.0
 20
130.0
 30
0.0
 11
205.0
 21
170.0
 31
0.0
  0
LINE
  5
16B
  8
NOTE
  6
CONTINUOUS
 62
     4
 10
209.0
 20
50.0
 30
0.0
 11
209.0
 21
90.0
 31
0.0
  0
LINE
  5
16C
  8
DETAIL
  6
CONTINUOUS
 62
     5
 10
224.25
 20
40.0
 30
0.0
 11
224.25
 21
100.0
 31
0.0
  0
LINE
  5
16D
  8
DETAIL
  6
CONTINUOUS
 62
     5
 10
201.5
 20
66.5
 30
0.0
 11
201.5
 21
73.5
 31
0.0
  0
LINE
  5
16E
  8
DETAIL
  6
CONTINUOUS
 62
     5
 10
216.5
 20
66.5
 30
0.0
 11
216.5
 21
73.5
 31
0.0
  0
CIRCLE
  5
16F
  8
FIX
  6
CONTINUOUS
 62
    11
 10
209.0
 20
70.0
 30
0.0
 40
7.5
  0
ARC
  5
170
  8
DETAIL
  6
CONTINUOUS
 62
     5
 10
209.0
 20
66.5
 30
0.0
 40
7.5
 50
180.0
 51
0.0
  0
LINE
  5
171
  8
DETAIL
  6
CONTINUOUS
 62
     5
 10
193.0
 20
40.0
 30
0.0
 11
224.25
 21
40.0
 31
0.0
  0
ARC
  5
172
  8
DETAIL
  6
CONTINUOUS
 62
     5
 10
209.0
 20
73.5
 30
0.0
 40
7.5
 50
0.0
 51
180.0
  0
LINE
  5
173
  8
NOTE
  6
CONTINUOUS
 62
     4
 10
189.0
 20
70.0
 30
0.0
 11
229.0
 21
70.0
 31
0.0
  0
LINE
  5
174
  8
DETAIL
  6
CONTINUOUS
 62
     5
 10
193.0
 20
100.0
 30
0.0
 11
224.25
 21
100.0
 31
0.0
  0
LINE
  5
175
  8
DETAIL
  6
CONTINUOUS
 62
     5
 10
203.5
 20
147.5
 30
0.0
 11
206.49999999999989
 21
147.5
 31
0.0
  0
LINE
  5
176
  8
DETAIL
  6
CONTINUOUS
 62
     5
 10
203.5
 20
152.5
 30
0.0
 11
206.49999999999989
 21
152.5
 31
0.0
  0
ARC
  5
177
  8
DETAIL
  6
CONTINUOUS
 62
     5
 10
206.49999999999989
 20
150.0
 30
0.0
 40
2.5
 50
270.0
 51
90.0
  0
ARC
  5
178
  8
DETAIL
  6
CONTINUOUS
 62
     5
 10
203.5
 20
150.0
 30
0.0
 40
2.5
 50
90.0
 51
270.0
  0
CIRCLE
  5
179
  8
FIX
  6
CONTINUOUS
 62
    11
 10
205.0
 20
150.0
 30
0.0
 40
2.5
  0
LINE
  5
17A
  8
NOTE
  6
CONTINUOUS
 62
     4
 10
225.0
 20
150.0
 30
0.0
 11
185.0
 21
150.0
 31
0.0
  0
LINE
  5
17B
  8
NOTE
  6
CONTINUOUS
 62
     4
 10
150.0
 20
205.0
 30
0.0
 11
181.73539500000001
 21
229.34881300000001
 31
0.0
  0
LINE
  5
17C
  8
NOTE
  6
CONTINUOUS
 62
     4
 10
165.30925099999999
 20
241.95438799999991
 30
0.0
 11
150.0
 21
205.0
 31
0.0
  0
LINE
  5
17D
  8
NOTE
  6
CONTINUOUS
 62
     4
 10
170.0
 20
205.0
 30
0.0
 11
130.0
 21
205.0
 31
0.0
  0
LINE
  5
17E
  8
NOTE
  6
CONTINUOUS
 62
     4
 10
150.0
 20
185.0
 30
0.0
 11
150.0
 21
225.0
 31
0.0
  0
CIRCLE
  5
17F
  8
FIX
  6
CONTINUOUS
 62
    11
 10
150.0
 20
205.0
 30
0.0
 40
2.5
  0
ARC
  5
180
  8
DETAIL
  6
CONTINUOUS
 62
     5
 10
150.0
 20
206.49999999999989
 30
0.0
 40
2.5
 50
0.0
 51
180.0
  0
ARC
  5
181
  8
DETAIL
  6
CONTINUOUS
 62
     5
 10
150.0
 20
203.5
 30
0.0
 40
2.5
 50
180.0
 51
0.0
  0
LINE
  5
182
  8
DETAIL
  6
CONTINUOUS
 62
     5
 10
147.5
 20
206.49999999999989
 30
0.0
 11
147.5
 21
203.5
 31
0.0
  0
LINE
  5
183
  8
DETAIL
  6
CONTINUOUS
 62
     5
 10
152.5
 20
206.49999999999989
 30
0.0
 11
152.5
 21
203.5
 31
0.0
  0
LINE
  5
184
  8
SIZE
  6
CONTINUOUS
 62
    30
 10
74.5
 20
461.97251299999988
 30
0.0
 11
0.5
 21
461.97251299999988
 31
0.0
  0
LINE
  5
185
  8
SIZE
  6
CONTINUOUS
 62
    30
 10
86.5
 20
461.97251299999988
 30
0.0
 11
74.5
 21
461.97251299999988
 31
0.0
  0
CIRCLE
  5
186
  8
SIZE
  6
CONTINUOUS
 62
    30
 10
86.5
 20
461.97251299999988
 30
0.0
 40
6.0
  0
LINE
  5
187
  8
SIZE
  6
CONTINUOUS
 62
    30
 10
209.0
 20
592.88430300000016
 30
0.0
 11
197.0
 21
592.88430300000016
 31
0.0
  0
CIRCLE
  5
188
  8
SIZE
  6
CONTINUOUS
 62
    30
 10
209.0
 20
592.88430300000016
 30
0.0
 40
6.0
  0
LINE
  5
189
  8
SIZE
  6
CONTINUOUS
 62
    30
 10
672.28326400000003
 20
70.0
 30
0.0
 11
672.28326400000003
 21
376.21267299999988
 31
0.0
  0
TEXT
  5
18A
  8
SIZE
  6
CONTINUOUS
 62
    30
 10
647.28326400000003
 20
260.0333995714285
 30
0.0
 40
64.0
  1
70
 50
90.0
 41
0.9
 72
     1
 11
647.28326400000003
 21
306.66197099999988
 31
0.0
  0
LINE
  5
18B
  8
SIZE
  6
CONTINUOUS
 62
    30
 10
672.28326400000003
 20
378.29054300000001
 30
0.0
 11
672.28326400000003
 21
70.0
 31
0.0
  0
LINE
  5
18C
  8
SIZE
  6
CONTINUOUS
 62
    30
 10
672.28326400000003
 20
82.0
 30
0.0
 11
672.28326400000003
 21
94.0
 31
0.0
  0
LINE
  5
18D
  8
SIZE
  6
CONTINUOUS
 62
    30
 10
672.28326400000003
 20
70.0
 30
0.0
 11
672.28326400000003
 21
82.0
 31
0.0
  0
CIRCLE
  5
18E
  8
SIZE
  6
CONTINUOUS
 62
    30
 10
672.28326400000003
 20
70.0
 30
0.0
 40
6.0
  0
LINE
  5
18F
  8
SIZE
  6
CONTINUOUS
 62
    30
 10
235.0
 20
852.83625300000006
 30
0.0
 11
223.0
 21
852.83625300000006
 31
0.0
  0
CIRCLE
  5
190
  8
SIZE
  6
CONTINUOUS
 62
    30
 10
235.0
 20
852.83625300000006
 30
0.0
 40
6.0
  0
LINE
  5
191
  8
SIZE
  6
CONTINUOUS
 62
    30
 10
219.0
 20
728.04355199999998
 30
0.0
 11
207.0
 21
728.04355199999998
 31
0.0
  0
CIRCLE
  5
192
  8
SIZE
  6
CONTINUOUS
 62
    30
 10
219.0
 20
728.04355199999998
 30
0.0
 40
6.0
  0
LINE
  5
193
  8
SIZE
  6
CONTINUOUS
 62
    30
 10
810.60177699999986
 20
150.0
 30
0.0
 11
810.60177699999986
 21
138.0
 31
0.0
  0
CIRCLE
  5
194
  8
SIZE
  6
CONTINUOUS
 62
    30
 10
810.60177699999986
 20
150.0
 30
0.0
 40
6.0
  0
CIRCLE
  5
195
  8
SIZE
  6
CONTINUOUS
 62
    30
 10
947.44550000000004
 20
205.0
 30
0.0
 40
6.0
  0
LINE
  5
196
  8
SIZE
  6
CONTINUOUS
 62
    30
 10
947.44550000000004
 20
205.0
 30
0.0
 11
947.44550000000004
 21
193.0
 31
0.0
  0
LINE
  5
197
  8
SIZE
  6
CONTINUOUS
 62
    30
 10
1083.4645
 20
219.0
 30
0.0
 11
1083.4645
 21
207.0
 31
0.0
  0
CIRCLE
  5
198
  8
SIZE
  6
CONTINUOUS
 62
    30
 10
1083.4645
 20
219.0
 30
0.0
 40
6.0
  0
LINE
  5
199
  8
SIZE
  6
CONTINUOUS
 62
    30
 10
0.0
 20
-296.49377600000008
 30
0.0
 11
0.0
 21
-569.51421900000003
 31
0.0
  0
LINE
  5
19A
  8
SIZE
  6
CONTINUOUS
 62
    30
 10
169.0
 20
-197.0
 30
0.0
 11
169.0
 21
-569.51421900000003
 31
0.0
  0
LINE
  5
19B
  8
SIZE
  6
CONTINUOUS
 62
    30
 10
12.0
 20
-549.51421900000003
 30
0.0
 11
157.0
 21
-549.51421900000003
 31
0.0
  0
LINE
  5
19C
  8
SIZE
  6
CONTINUOUS
 62
    30
 10
169.0
 20
-549.51421900000003
 30
0.0
 11
377.02940999999998
 21
-549.51421900000003
 31
0.0
  0
CIRCLE
  5
19D
  8
SIZE
  6
CONTINUOUS
 62
    30
 10
0.0
 20
-549.51421900000003
 30
0.0
 40
6.0
  0
LINE
  5
19E
  8
SIZE
  6
CONTINUOUS
 62
    30
 10
0.0
 20
-549.51421900000003
 30
0.0
 11
12.0
 21
-549.51421900000003
 31
0.0
  0
CIRCLE
  5
19F
  8
SIZE
  6
CONTINUOUS
 62
    30
 10
169.0
 20
-549.51421900000003
 30
0.0
 40
6.0
  0
LINE
  5
1A0
  8
SIZE
  6
CONTINUOUS
 62
    30
 10
169.0
 20
-549.51421900000003
 30
0.0
 11
157.0
 21
-549.51421900000003
 31
0.0
  0
TEXT
  5
1A1
  8
SIZE
  6
CONTINUOUS
 62
    30
 10
217.62941000000001
 20
-524.51421900000003
 30
0.0
 40
64.0
  1
169
 41
0.9
 72
     1
 11
284.82941
 21
-524.51421900000003
 31
0.0
  0
POINT
  5
1A2
  8
DEFPOINTS
  6
CONTINUOUS
 62
    30
 10
0.0
 20
-276.49377600000003
 30
0.0
  0
POINT
  5
1A3
  8
DEFPOINTS
  6
CONTINUOUS
 62
    30
 10
169.0
 20
-177.0
 30
0.0
  0
POINT
  5
1A4
  8
DEFPOINTS
  6
CONTINUOUS
 62
    30
 10
169.0
 20
-549.51421900000003
 30
0.0
  0
LINE
  5
1A5
  8
SIZE
  6
CONTINUOUS
 62
    30
 10
294.21735999999993
 20
0.0
 30
0.0
 11
532.07040900000004
 21
0.0
 31
0.0
  0
LINE
  5
1A6
  8
SIZE
  6
CONTINUOUS
 62
    30
 10
209.0
 20
-157.0
 30
0.0
 11
532.07040900000004
 21
-157.0
 31
0.0
  0
LINE
  5
1A7
  8
SIZE
  6
CONTINUOUS
 62
    30
 10
512.07040900000004
 20
-12.0
 30
0.0
 11
512.07040900000004
 21
-145.0
 31
0.0
  0
LINE
  5
1A8
  8
SIZE
  6
CONTINUOUS
 62
    30
 10
512.07040900000004
 20
-157.0
 30
0.0
 11
512.07040900000004
 21
-449.71428600000002
 31
0.0
  0
CIRCLE
  5
1A9
  8
SIZE
  6
CONTINUOUS
 62
    30
 10
512.07040900000004
 20
0.0
 30
0.0
 40
6.0
  0
LINE
  5
1AA
  8
SIZE
  6
CONTINUOUS
 62
    30
 10
512.07040900000004
 20
0.0
 30
0.0
 11
512.07040900000004
 21
-12.0
 31
0.0
  0
CIRCLE
  5
1AB
  8
SIZE
  6
CONTINUOUS
 62
    30
 10
512.07040900000004
 20
-157.0
 30
0.0
 40
6.0
  0
LINE
  5
1AC
  8
SIZE
  6
CONTINUOUS
 62
    30
 10
512.07040900000004
 20
-157.0
 30
0.0
 11
512.07040900000004
 21
-145.0
 31
0.0
  0
TEXT
  5
1AD
  8
SIZE
  6
CONTINUOUS
 62
    30
 10
487.07040899999998
 20
-424.7142855714286
 30
0.0
 40
64.0
  1
157
 50
90.0
 41
0.9
 72
     1
 11
487.07040899999998
 21
-356.14285699999999
 31
0.0
  0
POINT
  5
1AE
  8
DEFPOINTS
  6
CONTINUOUS
 62
    30
 10
274.21735999999999
 20
0.0
 30
0.0
  0
POINT
  5
1AF
  8
DEFPOINTS
  6
CONTINUOUS
 62
    30
 10
189.0
 20
-157.0
 30
0.0
  0
POINT
  5
1B0
  8
DEFPOINTS
  6
CONTINUOUS
 62
    30
 10
512.07040900000004
 20
-157.0
 30
0.0
  0
LINE
  5
1B1
  8
SIZE
  6
CONTINUOUS
 62
    30
 10
-111.0
 20
-395.95097900000002
 30
0.0
 11
-111.0
 21
-569.51421900000003
 31
0.0
  0
LINE
  5
1B2
  8
SIZE
  6
CONTINUOUS
 62
    30
 10
0.0
 20
-296.49377600000008
 30
0.0
 11
0.0
 21
-569.51421900000003
 31
0.0
  0
LINE
  5
1B3
  8
SIZE
  6
CONTINUOUS
 62
    30
 10
-12.0
 20
-549.51421900000003
 30
0.0
 11
-99.0
 21
-549.51421900000003
 31
0.0
  0
LINE
  5
1B4
  8
SIZE
  6
CONTINUOUS
 62
    30
 10
-111.0
 20
-549.51421900000003
 30
0.0
 11
-376.10417499999988
 21
-549.51421900000003
 31
0.0
  0
CIRCLE
  5
1B5
  8
SIZE
  6
CONTINUOUS
 62
    30
 10
0.0
 20
-549.51421900000003
 30
0.0
 40
6.0
  0
LINE
  5
1B6
  8
SIZE
  6
CONTINUOUS
 62
    30
 10
0.0
 20
-549.51421900000003
 30
0.0
 11
-12.0
 21
-549.51421900000003
 31
0.0
  0
CIRCLE
  5
1B7
  8
SIZE
  6
CONTINUOUS
 62
    30
 10
-111.0
 20
-549.51421900000003
 30
0.0
 40
6.0
  0
LINE
  5
1B8
  8
SIZE
  6
CONTINUOUS
 62
    30
 10
-111.0
 20
-549.51421900000003
 30
0.0
 11
-99.0
 21
-549.51421900000003
 31
0.0
  0
TEXT
  5
1B9
  8
SIZE
  6
CONTINUOUS
 62
    30
 10
-351.10417514285712
 20
-524.51421900000003
 30
0.0
 40
64.0
  1
111
 41
0.9
 72
     1
 11
-300.36131799999993
 21
-524.51421900000003
 31
0.0
  0
POINT
  5
1BA
  8
DEFPOINTS
  6
CONTINUOUS
 62
    30
 10
-111.0
 20
-375.95097900000002
 30
0.0
  0
POINT
  5
1BB
  8
DEFPOINTS
  6
CONTINUOUS
 62
    30
 10
0.0
 20
-276.49377600000003
 30
0.0
  0
POINT
  5
1BC
  8
DEFPOINTS
  6
CONTINUOUS
 62
    30
 10
0.0
 20
-549.51421900000003
 30
0.0
  0
ENDSEC
  0
EOF
