  0
SECTION
  2
HEADER
  9
$ACADVER
  1
AC1009
  9
$DWGCODEPAGE
  3
ansi_932
  9
$INSBASE
 10
0.0
 20
0.0
 30
0.0
  9
$EXTMIN
 10
-1000.914
 20
-1022.141462
 30
0.0
  9
$EXTMAX
 10
1387.542992428572
 20
880.8593420000004
 30
50.0
  9
$LIMMIN
 10
-2970.0
 20
-2100.0
  9
$LIMMAX
 10
2970.0
 20
2100.0
  9
$ORTHOMODE
 70
     1
  9
$REGENMODE
 70
     1
  9
$FILLMODE
 70
     1
  9
$QTEXTMODE
 70
     0
  9
$MIRRTEXT
 70
     0
  9
$DRAGMODE
 70
     2
  9
$LTSCALE
 40
20.0
  9
$OSMODE
 70
    37
  9
$ATTMODE
 70
     1
  9
$TEXTSIZE
 40
64.0
  9
$TRACEWID
 40
0.05
  9
$TEXTSTYLE
  7
STANDARD
  9
$CLAYER
  8
SIZE
  9
$CELTYPE
  6
CONTINUOUS
  9
$CECOLOR
 62
     7
  9
$DIMSCALE
 40
1.0
  9
$DIMASZ
 40
12.0
  9
$DIMEXO
 40
20.0
  9
$DIMDLI
 40
200.0
  9
$DIMRND
 40
0.0
  9
$DIMDLE
 40
0.0
  9
$DIMEXE
 40
20.0
  9
$DIMTP
 40
0.0
  9
$DIMTM
 40
0.0
  9
$DIMTXT
 40
64.0
  9
$DIMCEN
 40
0.09
  9
$DIMTSZ
 40
0.0
  9
$DIMTOL
 70
     0
  9
$DIMLIM
 70
     0
  9
$DIMTIH
 70
     0
  9
$DIMTOH
 70
     0
  9
$DIMSE1
 70
     0
  9
$DIMSE2
 70
     0
  9
$DIMTAD
 70
     1
  9
$DIMZIN
 70
     8
  9
$DIMBLK
  1
DOT1
  9
$DIMASO
 70
     1
  9
$DIMSHO
 70
     0
  9
$DIMPOST
  1

  9
$DIMAPOST
  1

  9
$DIMALT
 70
     0
  9
$DIMALTD
 70
     2
  9
$DIMALTF
 40
25.4
  9
$DIMLFAC
 40
1.0
  9
$DIMTOFL
 70
     1
  9
$DIMTVP
 40
0.0
  9
$DIMTIX
 70
     1
  9
$DIMSOXD
 70
     0
  9
$DIMSAH
 70
     1
  9
$DIMBLK1
  1
ORIGIN
  9
$DIMBLK2
  1
ORIGIN
  9
$DIMSTYLE
  2
STANDARD
  9
$DIMCLRD
 70
     7
  9
$DIMCLRE
 70
     7
  9
$DIMCLRT
 70
     7
  9
$DIMTFAC
 40
1.0
  9
$DIMGAP
 40
25.0
  9
$LUNITS
 70
     2
  9
$LUPREC
 70
     4
  9
$SKETCHINC
 40
0.1
  9
$FILLETRAD
 40
3.0
  9
$AUNITS
 70
     1
  9
$AUPREC
 70
     3
  9
$MENU
  1
ACAD
  9
$ELEVATION
 40
0.0
  9
$PELEVATION
 40
0.0
  9
$THICKNESS
 40
50.0
  9
$LIMCHECK
 70
     0
  9
$CHAMFERA
 40
0.0
  9
$CHAMFERB
 40
0.0
  9
$SKPOLY
 70
     0
  9
$TDCREATE
 40
2453019.623010359
  9
$TDUPDATE
 40
2457485.599491389
  9
$TDINDWG
 40
1.6436484491
  9
$TDUSRTIMER
 40
1.6436484491
  9
$USRTIMER
 70
     1
  9
$ANGBASE
 50
0.0
  9
$ANGDIR
 70
     0
  9
$PDMODE
 70
     3
  9
$PDSIZE
 40
-2.0
  9
$PLINEWID
 40
0.0
  9
$COORDS
 70
     1
  9
$SPLFRAME
 70
     0
  9
$SPLINETYPE
 70
     6
  9
$SPLINESEGS
 70
     8
  9
$ATTDIA
 70
     0
  9
$ATTREQ
 70
     1
  9
$HANDLING
 70
     1
  9
$HANDSEED
  5
221
  9
$SURFTAB1
 70
     6
  9
$SURFTAB2
 70
     6
  9
$SURFTYPE
 70
     6
  9
$SURFU
 70
     6
  9
$SURFV
 70
     6
  9
$UCSNAME
  2

  9
$UCSORG
 10
0.0
 20
0.0
 30
0.0
  9
$UCSXDIR
 10
1.0
 20
0.0
 30
0.0
  9
$UCSYDIR
 10
0.0
 20
1.0
 30
0.0
  9
$PUCSNAME
  2

  9
$PUCSORG
 10
0.0
 20
0.0
 30
0.0
  9
$PUCSXDIR
 10
1.0
 20
0.0
 30
0.0
  9
$PUCSYDIR
 10
0.0
 20
1.0
 30
0.0
  9
$USERI1
 70
     0
  9
$USERI2
 70
     0
  9
$USERI3
 70
     0
  9
$USERI4
 70
     0
  9
$USERI5
 70
     0
  9
$USERR1
 40
20.0
  9
$USERR2
 40
0.0
  9
$USERR3
 40
0.0
  9
$USERR4
 40
0.0
  9
$USERR5
 40
0.0
  9
$WORLDVIEW
 70
     1
  9
$SHADEDGE
 70
     3
  9
$SHADEDIF
 70
    70
  9
$TILEMODE
 70
     1
  9
$MAXACTVP
 70
    48
  9
$PLIMCHECK
 70
     0
  9
$PEXTMIN
 10
-1.000000000000000E+20
 20
-1.000000000000000E+20
 30
-1.000000000000000E+20
  9
$PEXTMAX
 10
1.000000000000000E+20
 20
1.000000000000000E+20
 30
1.000000000000000E+20
  9
$PLIMMIN
 10
0.0
 20
0.0
  9
$PLIMMAX
 10
12.0
 20
9.0
  9
$UNITMODE
 70
     0
  9
$VISRETAIN
 70
     0
  9
$PLINEGEN
 70
     0
  9
$PSLTSCALE
 70
     0
  0
ENDSEC
  0
SECTION
  2
TABLES
  0
TABLE
  2
VPORT
 70
     1
  0
VPORT
  2
*ACTIVE
 70
     0
 10
0.0
 20
0.0
 11
1.0
 21
1.0
 12
193.283858
 22
2.752799261471636
 13
0.0
 23
0.0
 14
1.0
 24
1.0
 15
0.0
 25
0.0
 16
0.0
 26
0.0
 36
1.0
 17
0.0
 27
0.0
 37
0.0
 40
2065.122948522943
 41
1.513819095477386
 42
50.0
 43
0.0
 44
0.0
 50
0.0
 51
0.0
 71
     0
 72
  1000
 73
     1
 74
     0
 75
     0
 76
     0
 77
     0
 78
     0
  0
ENDTAB
  0
TABLE
  2
LTYPE
 70
     2
  0
LTYPE
  2
CONTINUOUS
 70
     0
  3
実線
 72
    65
 73
     0
 40
0.0
  0
LTYPE
  2
DASHDOT
 70
     0
  3
____ _ ____ _ ____ _ ____ _ ____ _ ____ _ ____
 72
    65
 73
     4
 40
5.5
 49
4.0
 49
-0.6
 49
0.3
 49
-0.6
  0
ENDTAB
  0
TABLE
  2
LAYER
 70
    12
  0
LAYER
  2
0
 70
     0
 62
     7
  6
CONTINUOUS
  0
LAYER
  2
SIZE
 70
     0
 62
    30
  6
CONTINUOUS
  0
LAYER
  2
DEFPOINTS
 70
     0
 62
     7
  6
CONTINUOUS
  0
LAYER
  2
ETC
 70
     0
 62
    61
  6
CONTINUOUS
  0
LAYER
  2
OUTLINE
 70
     0
 62
     3
  6
CONTINUOUS
  0
LAYER
  2
BASIS
 70
     0
 62
     6
  6
DASHDOT
  0
LAYER
  2
DETAIL
 70
     0
 62
     5
  6
CONTINUOUS
  0
LAYER
  2
ARRANGE
 70
     0
 62
     1
  6
CONTINUOUS
  0
LAYER
  2
FIX
 70
     0
 62
    11
  6
CONTINUOUS
  0
LAYER
  2
NOTE
 70
     0
 62
     4
  6
CONTINUOUS
  0
LAYER
  2
SERVICESPACE
 70
     0
 62
     2
  6
DASHDOT
  0
LAYER
  2
SYMBOLLINE
 70
     0
 62
    15
  6
CONTINUOUS
  0
ENDTAB
  0
TABLE
  2
STYLE
 70
     1
  0
STYLE
  2
STANDARD
 70
     0
 40
64.0
 41
0.9
 50
0.0
 71
     0
 42
64.0
  3
SIMPLEX.shx
  4
BIGFONT.shx
  0
ENDTAB
  0
TABLE
  2
VIEW
 70
     1
  0
VIEW
  2
ALL
 70
     0
 40
4282.619808
 10
0.0
 20
41.309904
 41
5940.0
 11
0.0
 21
0.0
 31
1.0
 12
0.0
 22
0.0
 32
0.0
 42
50.0
 43
0.0
 44
0.0
 50
0.0
 71
     0
  0
ENDTAB
  0
TABLE
  2
UCS
 70
     0
  0
ENDTAB
  0
TABLE
  2
APPID
 70
    15
  0
APPID
  2
ACAD
 70
     0
  0
APPID
  2
AUTOCAD_POSTSCRIPT_FIGURE
 70
     0
  0
APPID
  2
ACAD_EXEMPT_FROM_CAD_STAND
 70
     0
  0
APPID
  2
ACAD_PSEXT
 70
     0
  0
APPID
  2
ACAUTHENVIRON
 70
     0
  0
APPID
  2
GENIUS_GENOENT_13
 70
     0
  0
APPID
  2
GENIUS_GENCFG_13
 70
     0
  0
APPID
  2
GENIUS_GENCFG0_13
 70
     0
  0
APPID
  2
GENIUS_GENCFG1_13
 70
     0
  0
APPID
  2
GENIUS_GENCFG2_13
 70
     0
  0
APPID
  2
GENIUS_GENCFG3_13
 70
     0
  0
APPID
  2
GENIUS_GENCFG4_13
 70
     0
  0
APPID
  2
GENIUS_GEVCFG0_13
 70
     0
  0
APPID
  2
CONTENTBLOCKICON
 70
     0
  0
APPID
  2
CONTENTBLOCKDESCRIPTION
 70
     0
  0
ENDTAB
  0
TABLE
  2
DIMSTYLE
 70
     1
  0
DIMSTYLE
  2
STANDARD
 70
     0
  3

  4

  5

  6

  7

 40
1.0
 41
0.18
 42
0.0625
 43
0.38
 44
0.18
 45
0.0
 46
0.0
 47
0.0
 48
0.0
140
0.18
141
0.09
142
0.0
143
25.4
144
1.0
145
0.0
146
1.0
147
0.09
 71
     0
 72
     0
 73
     1
 74
     1
 75
     0
 76
     0
 77
     0
 78
     0
170
     0
171
     2
172
     0
173
     0
174
     0
175
     0
176
     7
177
     7
178
     7
  0
ENDTAB
  0
ENDSEC
  0
SECTION
  2
BLOCKS
  0
BLOCK
  8
0
  2
$MODEL_SPACE
 70
     0
 10
0.0
 20
0.0
 30
0.0
  3
$MODEL_SPACE
  1

  0
ENDBLK
  5
20
  8
0
  0
BLOCK
 67
     1
  8
0
  2
$PAPER_SPACE
 70
     0
 10
0.0
 20
0.0
 30
0.0
  3
$PAPER_SPACE
  1

  0
ENDBLK
  5
1C
 67
     1
  8
0
  0
BLOCK
  8
0
  2
DOT1
 70
     0
 10
0.0
 20
0.0
 30
0.0
  3
DOT1
  1

  0
CIRCLE
  5
43
  8
SIZE
  6
CONTINUOUS
 62
     7
 10
0.0
 20
0.0
 30
0.0
 40
3.0
  0
ENDBLK
  5
44
  8
0
  0
BLOCK
  8
0
  2
_ORIGIN
 70
     0
 10
0.0
 20
0.0
 30
0.0
  3
_ORIGIN
  1

  0
CIRCLE
  5
47
  8
0
  6
CONTINUOUS
 62
     7
 10
0.0
 20
0.0
 30
0.0
 40
0.5
  0
LINE
  5
48
  8
0
  6
CONTINUOUS
 62
     7
 10
0.0
 20
0.0
 30
0.0
 11
-1.0
 21
0.0
 31
0.0
  0
ENDBLK
  5
49
  8
0
  0
ENDSEC
  0
SECTION
  2
ENTITIES
  0
POINT
  5
4A
  8
ARRANGE
  6
CONTINUOUS
 62
     1
 10
0.027391
 20
0.0
 30
0.0
  0
LINE
  5
4B
  8
OUTLINE
  6
CONTINUOUS
 62
     3
 39
50.0
 10
-234.9999999999999
 20
0.0
 30
0.0
 11
235.0
 21
0.0
 31
0.0
  0
LINE
  5
4C
  8
OUTLINE
  6
CONTINUOUS
 62
     3
 10
193.0
 20
230.0
 30
0.0
 11
-193.0
 21
230.0
 31
0.0
  0
CIRCLE
  5
4D
  8
ARRANGE
  6
CONTINUOUS
 62
     1
 10
0.0
 20
0.0
 30
0.0
 40
40.0
  0
LINE
  5
4E
  8
DETAIL
  6
CONTINUOUS
 62
     5
 39
50.0
 10
-214.065301
 20
-55.0
 30
0.0
 11
214.065302
 21
-55.0
 31
0.0
  0
LINE
  5
4F
  8
DETAIL
  6
CONTINUOUS
 62
     5
 39
50.0
 10
-222.4999999999999
 20
-37.0
 30
0.0
 11
222.5
 21
-38.0
 31
0.0
  0
LINE
  5
50
  8
DETAIL
  6
CONTINUOUS
 62
     5
 39
50.0
 10
231.184199
 20
-14.0
 30
0.0
 11
-231.184198
 21
-14.0
 31
0.0
  0
LINE
  5
51
  8
DETAIL
  6
CONTINUOUS
 62
     5
 39
50.0
 10
-234.9999999999999
 20
0.0
 30
0.0
 11
235.0
 21
0.0
 31
0.0
  0
TEXT
  5
52
  8
SIZE
  6
CONTINUOUS
 62
    30
 10
-106.9714285714286
 20
-977.1414619999999
 30
0.0
 40
64.0
  1
□470
 41
0.9
 72
     1
 11
0.0
 21
-977.1414619999999
 31
0.0
  0
LINE
  5
53
  8
SIZE
  6
CONTINUOUS
 62
    30
 10
223.0
 20
-1002.141461999999
 30
0.0
 11
-223.0
 21
-1002.141461999999
 31
0.0
  0
TEXT
  5
54
  8
SIZE
  6
CONTINUOUS
 62
    30
 10
-106.9714285714286
 20
-836.017571
 30
0.0
 40
64.0
  1
□445
 41
0.9
 72
     1
 11
0.0
 21
-836.017571
 31
0.0
  0
LINE
  5
55
  8
SIZE
  6
CONTINUOUS
 62
    30
 10
-210.5
 20
-861.017571
 30
0.0
 11
210.5
 21
-861.017571
 31
0.0
  0
LINE
  5
56
  8
DETAIL
  6
CONTINUOUS
 62
     5
 10
81.527391
 20
278.0
 30
0.0
 11
-6.472609
 21
278.0
 31
0.0
  0
LINE
  5
57
  8
DETAIL
  6
CONTINUOUS
 62
     5
 10
86.527391
 20
242.0
 30
0.0
 11
-11.472609
 21
242.0
 31
0.0
  0
LINE
  5
58
  8
SIZE
  6
CONTINUOUS
 62
    30
 10
-11.472609
 20
465.678663
 30
0.0
 11
0.5273909999999999
 21
465.678663
 31
0.0
  0
LINE
  5
59
  8
DETAIL
  6
CONTINUOUS
 62
     5
 10
193.027391
 20
223.0
 30
0.0
 11
-11.972609
 21
223.0
 31
0.0
  0
TEXT
  5
5A
  8
SIZE
  6
CONTINUOUS
 62
    30
 10
-82.2583232857143
 20
724.765759
 30
0.0
 40
64.0
  1
418
 41
0.9
 72
     1
 11
0.027391
 21
724.765759
 31
0.0
  0
LINE
  5
5B
  8
SIZE
  6
CONTINUOUS
 62
    30
 10
197.027391
 20
706.72078
 30
0.0
 11
-196.972609
 21
706.72078
 31
0.0
  0
TEXT
  5
5C
  8
SIZE
  6
CONTINUOUS
 62
    30
 10
-82.2583232857143
 20
-710.959541
 30
0.0
 40
64.0
  1
410
 41
0.9
 72
     1
 11
0.027391
 21
-710.959541
 31
0.0
  0
LINE
  5
5D
  8
SIZE
  6
CONTINUOUS
 62
    30
 10
193.027391
 20
-739.158262
 30
0.0
 11
-192.972609
 21
-739.158262
 31
0.0
  0
TEXT
  5
5E
  8
SIZE
  6
CONTINUOUS
 62
    30
 10
-106.9440375714286
 20
-463.943392
 30
0.0
 40
64.0
  1
□386
 41
0.9
 72
     1
 11
0.027391
 21
-463.943392
 31
0.0
  0
LINE
  5
5F
  8
SIZE
  6
CONTINUOUS
 62
    30
 10
-180.972609
 20
-488.118152
 30
0.0
 11
181.027391
 21
-488.118152
 31
0.0
  0
TEXT
  5
60
  8
SIZE
  6
CONTINUOUS
 62
    30
 10
-82.2583232857143
 20
-332.63546
 30
0.0
 40
64.0
  1
300
 41
0.9
 72
     1
 11
0.027391
 21
-332.63546
 31
0.0
  0
LINE
  5
61
  8
SIZE
  6
CONTINUOUS
 62
    30
 10
138.027391
 20
-358.217798
 30
0.0
 11
-137.972609
 21
-358.217798
 31
0.0
  0
LINE
  5
62
  8
DETAIL
  6
CONTINUOUS
 62
     5
 10
193.027391
 20
230.0
 30
0.0
 11
-11.972609
 21
230.0
 31
0.0
  0
LINE
  5
63
  8
OUTLINE
  6
CONTINUOUS
 62
     3
 10
-193.0
 20
0.0
 30
0.0
 11
-193.0
 21
230.0
 31
0.0
  0
LINE
  5
64
  8
DETAIL
  6
CONTINUOUS
 62
     5
 10
-11.972609
 20
0.0
 30
0.0
 11
-11.972609
 21
256.0
 31
0.0
  0
LINE
  5
65
  8
SIZE
  6
CONTINUOUS
 62
    30
 10
-755.288035
 20
0.0
 30
0.0
 11
-755.288035
 21
12.0
 31
0.0
  0
CIRCLE
  5
66
  8
SIZE
  6
CONTINUOUS
 62
    30
 10
-755.288035
 20
0.0
 30
0.0
 40
6.0
  0
LINE
  5
67
  8
SIZE
  6
CONTINUOUS
 62
    30
 10
-755.288035
 20
0.0
 30
0.0
 11
-755.288035
 21
12.0
 31
0.0
  0
CIRCLE
  5
68
  8
SIZE
  6
CONTINUOUS
 62
    30
 10
-755.288035
 20
0.0
 30
0.0
 40
6.0
  0
LINE
  5
69
  8
NOTE
  6
CONTINUOUS
 62
     4
 10
-204.92926
 20
0.051444
 30
0.0
 11
-240.882063
 21
-17.481267
 31
0.0
  0
LINE
  5
6A
  8
NOTE
  6
CONTINUOUS
 62
     4
 10
-227.298945
 20
-33.108731
 30
0.0
 11
-204.92926
 21
0.051444
 31
0.0
  0
LINE
  5
6B
  8
NOTE
  6
CONTINUOUS
 62
     4
 10
-204.9537409999999
 20
0.002832
 30
0.0
 11
-607.8781019999999
 21
-360.041095
 31
0.0
  0
LINE
  5
6C
  8
NOTE
  6
CONTINUOUS
 62
     4
 10
-149.972609
 20
-20.0
 30
0.0
 11
-149.972609
 21
20.0
 31
0.0
  0
CIRCLE
  5
6D
  8
FIX
  6
CONTINUOUS
 62
    11
 10
-149.972609
 20
0.0
 30
0.0
 40
2.5
  0
CIRCLE
  5
6E
  8
FIX
  6
CONTINUOUS
 62
    11
 10
-204.972609
 20
0.0
 30
0.0
 40
2.5
  0
LINE
  5
6F
  8
NOTE
  6
CONTINUOUS
 62
     4
 10
-204.972609
 20
-20.0
 30
0.0
 11
-204.972609
 21
20.0
 31
0.0
  0
LINE
  5
70
  8
DETAIL
  6
CONTINUOUS
 62
     5
 10
-192.972609
 20
0.0
 30
0.0
 11
-192.972609
 21
80.579704
 31
0.0
  0
LINE
  5
71
  8
BASIS
  6
DASHDOT
 62
     6
 10
0.027391
 20
-72.855033
 30
0.0
 11
0.027391
 21
326.0
 31
0.0
  0
LINE
  5
72
  8
NOTE
  6
CONTINUOUS
 62
     4
 10
-607.8781019999999
 20
-360.041095
 30
0.0
 11
-1000.886609
 21
-360.041095
 31
0.0
  0
TEXT
  5
73
  8
NOTE
  6
CONTINUOUS
 62
     4
 10
-977.2228190000001
 20
-327.0768249999999
 30
0.0
 40
64.0
  1
8-φ5×8
 41
0.9
  0
LINE
  5
74
  8
SIZE
  6
CONTINUOUS
 62
    30
 10
-234.9999999999999
 20
-20.0
 30
0.0
 11
-234.9999999999999
 21
-1022.141462
 31
0.0
  0
LINE
  5
75
  8
SIZE
  6
CONTINUOUS
 62
    30
 10
-222.4999999999999
 20
-57.0
 30
0.0
 11
-222.4999999999999
 21
-881.0175709999999
 31
0.0
  0
LINE
  5
76
  8
SIZE
  6
CONTINUOUS
 62
    30
 10
-234.9999999999999
 20
-1002.141461999999
 30
0.0
 11
-223.0
 21
-1002.141461999999
 31
0.0
  0
CIRCLE
  5
77
  8
SIZE
  6
CONTINUOUS
 62
    30
 10
-234.9999999999999
 20
-1002.141461999999
 30
0.0
 40
6.0
  0
CIRCLE
  5
78
  8
SIZE
  6
CONTINUOUS
 62
    30
 10
-222.4999999999999
 20
-861.017571
 30
0.0
 40
6.0
  0
LINE
  5
79
  8
SIZE
  6
CONTINUOUS
 62
    30
 10
-222.4999999999999
 20
-861.017571
 30
0.0
 11
-210.5
 21
-861.017571
 31
0.0
  0
LINE
  5
7A
  8
SIZE
  6
CONTINUOUS
 62
    30
 10
-234.065301
 20
-55.0
 30
0.0
 11
-775.288035
 21
-55.0
 31
0.0
  0
LINE
  5
7B
  8
SIZE
  6
CONTINUOUS
 62
    30
 10
-255.0
 20
0.0
 30
0.0
 11
-775.288035
 21
0.0
 31
0.0
  0
LINE
  5
7C
  8
SIZE
  6
CONTINUOUS
 62
    30
 10
-255.0
 20
0.0
 30
0.0
 11
-775.288035
 21
0.0
 31
0.0
  0
LINE
  5
7D
  8
SIZE
  6
CONTINUOUS
 62
    30
 10
-755.288035
 20
-22.5
 30
0.0
 11
-755.288035
 21
-241.2404299999999
 31
0.0
  0
TEXT
  5
7E
  8
SIZE
  6
CONTINUOUS
 62
    30
 10
-780.2460100000001
 20
-203.0842428571429
 30
0.0
 40
64.0
  1
55
 50
90.0
 41
0.9
 72
     1
 11
-780.2460100000001
 21
-148.2271
 31
0.0
  0
CIRCLE
  5
7F
  8
SIZE
  6
CONTINUOUS
 62
    30
 10
-755.288035
 20
-55.0
 30
0.0
 40
6.0
  0
LINE
  5
80
  8
SIZE
  6
CONTINUOUS
 62
    30
 10
-755.288035
 20
-55.0
 30
0.0
 11
-755.288035
 21
-67.0
 31
0.0
  0
LINE
  5
81
  8
SIZE
  6
CONTINUOUS
 62
    30
 10
-755.288035
 20
0.0
 30
0.0
 11
-755.288035
 21
-55.0
 31
0.0
  0
LINE
  5
82
  8
SIZE
  6
CONTINUOUS
 62
    30
 10
-755.288035
 20
0.0
 30
0.0
 11
-755.288035
 21
-55.0
 31
0.0
  0
LINE
  5
83
  8
SIZE
  6
CONTINUOUS
 62
    30
 10
-755.288035
 20
-67.0
 30
0.0
 11
-755.288035
 21
-79.0
 31
0.0
  0
LINE
  5
84
  8
SIZE
  6
CONTINUOUS
 62
    30
 10
-204.972609
 20
-40.0
 30
0.0
 11
-204.972609
 21
-759.158262
 31
0.0
  0
LINE
  5
85
  8
SIZE
  6
CONTINUOUS
 62
    30
 10
-192.972609
 20
-20.0
 30
0.0
 11
-192.972609
 21
-508.118152
 31
0.0
  0
LINE
  5
86
  8
SIZE
  6
CONTINUOUS
 62
    30
 10
-149.972609
 20
-40.0
 30
0.0
 11
-149.972609
 21
-378.217798
 31
0.0
  0
CIRCLE
  5
87
  8
SIZE
  6
CONTINUOUS
 62
    30
 10
-192.972609
 20
-488.118152
 30
0.0
 40
6.0
  0
LINE
  5
88
  8
SIZE
  6
CONTINUOUS
 62
    30
 10
-204.972609
 20
-739.158262
 30
0.0
 11
-192.972609
 21
-739.158262
 31
0.0
  0
CIRCLE
  5
89
  8
SIZE
  6
CONTINUOUS
 62
    30
 10
-204.972609
 20
-739.158262
 30
0.0
 40
6.0
  0
LINE
  5
8A
  8
SIZE
  6
CONTINUOUS
 62
    30
 10
-192.972609
 20
-488.118152
 30
0.0
 11
-180.972609
 21
-488.118152
 31
0.0
  0
LINE
  5
8B
  8
SIZE
  6
CONTINUOUS
 62
    30
 10
-149.972609
 20
-358.217798
 30
0.0
 11
-137.972609
 21
-358.217798
 31
0.0
  0
CIRCLE
  5
8C
  8
SIZE
  6
CONTINUOUS
 62
    30
 10
-149.972609
 20
-358.217798
 30
0.0
 40
6.0
  0
ARC
  5
8D
  8
DETAIL
  6
CONTINUOUS
 62
     5
 10
-231.184198
 20
-11.0
 30
0.0
 40
3.0
 50
187.4999999999998
 51
270.0
  0
LINE
  5
8E
  8
DETAIL
  6
CONTINUOUS
 62
     5
 10
-234.9999999999999
 20
-1.0
 30
0.0
 11
-234.158532
 21
-11.391579
 31
0.0
  0
LINE
  5
8F
  8
DETAIL
  6
CONTINUOUS
 62
     5
 10
-234.9999999999999
 20
0.0
 30
0.0
 11
-234.9999999999999
 21
-1.0
 31
0.0
  0
LINE
  5
90
  8
SIZE
  6
CONTINUOUS
 62
    30
 10
-192.972609
 20
-20.0
 30
0.0
 11
-192.972609
 21
-252.282011
 31
0.0
  0
LINE
  5
91
  8
DETAIL
  6
CONTINUOUS
 62
     5
 10
-222.4999999999999
 20
-37.0
 30
0.0
 11
-222.4999999999999
 21
-38.0
 31
0.0
  0
LINE
  5
92
  8
DETAIL
  6
CONTINUOUS
 62
     5
 10
-221.524216
 20
-48.283963
 30
0.0
 11
-222.472609
 21
-39.260603
 31
0.0
  0
LINE
  5
93
  8
DETAIL
  6
CONTINUOUS
 62
     5
 10
-222.4999999999999
 20
-37.0
 30
0.0
 11
-222.4999999999999
 21
-38.73796099999999
 31
0.0
  0
ARC
  5
94
  8
DETAIL
  6
CONTINUOUS
 62
     5
 10
-217.5
 20
-38.73796099999999
 30
0.0
 40
5.0
 50
180.0
 51
186.0
  0
LINE
  5
95
  8
DETAIL
  6
CONTINUOUS
 62
     5
 10
-222.4999999999999
 20
-38.73796099999999
 30
0.0
 11
-222.4999999999999
 21
-39.0
 31
0.0
  0
LINE
  5
96
  8
DETAIL
  6
CONTINUOUS
 62
     5
 10
-222.472609
 20
-39.260603
 30
0.0
 11
-222.4999999999999
 21
-39.0
 31
0.0
  0
ARC
  5
97
  8
DETAIL
  6
CONTINUOUS
 62
     5
 10
-214.065301
 20
-47.5
 30
0.0
 40
7.5
 50
185.9999999999999
 51
270.0
  0
ARC
  5
98
  8
DETAIL
  6
CONTINUOUS
 62
     5
 10
-214.065301
 20
-47.5
 30
0.0
 40
7.5
 50
185.9999999999999
 51
270.0
  0
LINE
  5
99
  8
DETAIL
  6
CONTINUOUS
 62
     5
 10
-222.472609
 20
-39.260603
 30
0.0
 11
-222.4999999999999
 21
-39.0
 31
0.0
  0
LINE
  5
9A
  8
DETAIL
  6
CONTINUOUS
 62
     5
 10
-222.4999999999999
 20
-38.73796099999999
 30
0.0
 11
-222.4999999999999
 21
-39.0
 31
0.0
  0
ARC
  5
9B
  8
DETAIL
  6
CONTINUOUS
 62
     5
 10
-217.5
 20
-38.73796099999999
 30
0.0
 40
5.0
 50
180.0
 51
186.0
  0
LINE
  5
9C
  8
DETAIL
  6
CONTINUOUS
 62
     5
 10
-222.4999999999999
 20
-37.0
 30
0.0
 11
-222.4999999999999
 21
-38.73796099999999
 31
0.0
  0
LINE
  5
9D
  8
DETAIL
  6
CONTINUOUS
 62
     5
 10
-221.524216
 20
-48.283963
 30
0.0
 11
-222.472609
 21
-39.260603
 31
0.0
  0
LINE
  5
9E
  8
DETAIL
  6
CONTINUOUS
 62
     5
 10
-222.4999999999999
 20
-37.0
 30
0.0
 11
-222.4999999999999
 21
-38.0
 31
0.0
  0
LINE
  5
9F
  8
DETAIL
  6
CONTINUOUS
 62
     5
 10
-191.4999999999999
 20
-37.0
 30
0.0
 11
-191.4999999999999
 21
-14.0
 31
0.0
  0
LINE
  5
A0
  8
DETAIL
  6
CONTINUOUS
 62
     5
 10
-190.5
 20
-37.0
 30
0.0
 11
-190.5
 21
-14.0
 31
0.0
  0
LINE
  5
A1
  8
NOTE
  6
CONTINUOUS
 62
     4
 10
-184.972609
 20
0.0
 30
0.0
 11
-224.972609
 21
0.0
 31
0.0
  0
LINE
  5
A2
  8
NOTE
  6
CONTINUOUS
 62
     4
 10
-129.972609
 20
0.0
 30
0.0
 11
-169.972609
 21
0.0
 31
0.0
  0
CIRCLE
  5
A3
  8
FIX
  6
CONTINUOUS
 62
    11
 39
50.0
 10
-208.972609
 20
237.0
 30
0.0
 40
7.5
  0
LINE
  5
A4
  8
SIZE
  6
CONTINUOUS
 62
    30
 10
-208.972609
 20
274.5
 30
0.0
 11
-208.972609
 21
726.72078
 31
0.0
  0
LINE
  5
A5
  8
SIZE
  6
CONTINUOUS
 62
    30
 10
-26.472609
 20
278.0
 30
0.0
 11
-775.288035
 21
278.0
 31
0.0
  0
TEXT
  5
A6
  8
SIZE
  6
CONTINUOUS
 62
    30
 10
-788.3861800000001
 20
60.77928071428572
 30
0.0
 40
64.0
  1
278
 50
90.0
 41
0.9
 72
     1
 11
-788.3861800000001
 21
143.064995
 31
0.0
  0
LINE
  5
A7
  8
SIZE
  6
CONTINUOUS
 62
    30
 10
-755.288035
 20
12.0
 30
0.0
 11
-755.288035
 21
266.0
 31
0.0
  0
LINE
  5
A8
  8
SIZE
  6
CONTINUOUS
 62
    30
 10
-755.288035
 20
12.0
 30
0.0
 11
-755.288035
 21
24.0
 31
0.0
  0
CIRCLE
  5
A9
  8
SIZE
  6
CONTINUOUS
 62
    30
 10
-755.288035
 20
278.0
 30
0.0
 40
6.0
  0
LINE
  5
AA
  8
SIZE
  6
CONTINUOUS
 62
    30
 10
-755.288035
 20
278.0
 30
0.0
 11
-755.288035
 21
266.0
 31
0.0
  0
LINE
  5
AB
  8
SIZE
  6
CONTINUOUS
 62
    30
 10
-11.472609
 20
292.940014
 30
0.0
 11
-11.472609
 21
485.678663
 31
0.0
  0
LINE
  5
AC
  8
DETAIL
  6
CONTINUOUS
 62
     5
 10
-55.449072
 20
167.0474529999999
 30
0.0
 11
-57.09551
 21
164.0474529999999
 31
0.0
  0
LINE
  5
AD
  8
DETAIL
  6
CONTINUOUS
 62
     5
 10
-166.4961459999999
 20
167.0474529999999
 30
0.0
 11
-164.8497079999999
 21
164.0474529999999
 31
0.0
  0
LINE
  5
AE
  8
DETAIL
  6
CONTINUOUS
 62
     5
 10
-203.972604
 20
94.036535
 30
0.0
 11
-203.972609
 21
233.562459
 31
0.0
  0
LINE
  5
AF
  8
BASIS
  6
DASHDOT
 62
     6
 10
-110.972609
 20
53.19209
 30
0.0
 11
-110.972609
 21
288.485224
 31
0.0
  0
LINE
  5
B0
  8
DETAIL
  6
CONTINUOUS
 62
     5
 10
-18.472609
 20
216.9006509999999
 30
0.0
 11
-18.472609
 21
106.0993489999999
 31
0.0
  0
LINE
  5
B1
  8
DETAIL
  6
CONTINUOUS
 62
     5
 10
-33.972609
 20
112.0
 30
0.0
 11
-33.972609
 21
212.0
 31
0.0
  0
CIRCLE
  5
B2
  8
DETAIL
  6
CONTINUOUS
 62
     5
 10
-110.972609
 20
162.0
 30
0.0
 40
72.0
  0
CIRCLE
  5
B3
  8
DETAIL
  6
CONTINUOUS
 62
     5
 10
-110.972609
 20
162.0
 30
0.0
 40
76.0
  0
LINE
  5
B4
  8
DETAIL
  6
CONTINUOUS
 62
     5
 10
-187.972609
 20
112.0
 30
0.0
 11
-187.972609
 21
212.0
 31
0.0
  0
LINE
  5
B5
  8
DETAIL
  6
CONTINUOUS
 62
     5
 10
-202.4726089999999
 20
111.4999999999999
 30
0.0
 11
-202.4726089999999
 21
218.345249
 31
0.0
  0
TEXT
  5
B6
  8
NOTE
  6
CONTINUOUS
 62
     4
 10
-156.054435
 20
117.9838669999999
 30
0.0
 40
64.0
  1
EA
 41
0.9
  0
LINE
  5
B7
  8
BASIS
  6
DASHDOT
 62
     6
 10
-3.982269
 20
162.0
 30
0.0
 11
-219.4346609999999
 21
162.0
 31
0.0
  0
LINE
  5
B8
  8
DETAIL
  6
CONTINUOUS
 62
     5
 10
-57.09551
 20
164.0474529999999
 30
0.0
 11
-164.8497079999999
 21
164.0474529999999
 31
0.0
  0
LINE
  5
B9
  8
DETAIL
  6
CONTINUOUS
 62
     5
 10
-157.972609
 20
82.0
 30
0.0
 11
-63.972609
 21
82.0
 31
0.0
  0
LINE
  5
BA
  8
DETAIL
  6
CONTINUOUS
 62
     5
 10
-57.17185
 20
69.5
 30
0.0
 11
-163.7733679999999
 21
69.5
 31
0.0
  0
ARC
  5
BB
  8
DETAIL
  6
CONTINUOUS
 62
     5
 10
-188.972604
 20
94.036535
 30
0.0
 40
15.0
 50
180.0
 51
270.0
  0
LINE
  5
BC
  8
DETAIL
  6
CONTINUOUS
 62
     5
 10
-170.281282
 20
71.907434
 30
0.0
 11
-198.9805229999999
 21
98.50678300000001
 31
0.0
  0
ARC
  5
BD
  8
DETAIL
  6
CONTINUOUS
 62
     5
 10
-157.972609
 20
112.0
 30
0.0
 40
30.0
 50
180.0
 51
270.0
  0
LINE
  5
BE
  8
DETAIL
  6
CONTINUOUS
 62
     5
 10
-191.200929
 20
79.036535
 30
0.0
 11
-177.973191
 21
79.036535
 31
0.0
  0
LINE
  5
BF
  8
DETAIL
  6
CONTINUOUS
 62
     5
 10
-198.222609
 20
82.228173
 30
0.0
 11
-198.222609
 21
37.0
 31
0.0
  0
LINE
  5
C0
  8
DETAIL
  6
CONTINUOUS
 62
     5
 10
-198.222609
 20
37.0
 30
0.0
 11
-192.972609
 21
37.0
 31
0.0
  0
LINE
  5
C1
  8
DETAIL
  6
CONTINUOUS
 62
     5
 10
-194.7226089999999
 20
80.18238599999998
 30
0.0
 11
-194.7226089999999
 21
37.0
 31
0.0
  0
ARC
  5
C2
  8
DETAIL
  6
CONTINUOUS
 62
     5
 10
-163.7733679999999
 20
79.5
 30
0.0
 40
10.0
 50
229.398705
 51
270.0
  0
LINE
  5
C3
  8
DETAIL
  6
CONTINUOUS
 62
     5
 10
-202.4726089999999
 20
111.4999999999999
 30
0.0
 11
-202.4726089999999
 21
106.0993489999999
 31
0.0
  0
ARC
  5
C4
  8
DETAIL
  6
CONTINUOUS
 62
     5
 10
-192.472609
 20
106.0993489999999
 30
0.0
 40
10.0
 50
180.0
 51
229.398705
  0
LINE
  5
C5
  8
DETAIL
  6
CONTINUOUS
 62
     5
 10
-50.663936
 20
71.907434
 30
0.0
 11
-21.96469499999999
 21
98.50678300000001
 31
0.0
  0
ARC
  5
C6
  8
DETAIL
  6
CONTINUOUS
 62
     5
 10
-63.972609
 20
112.0
 30
0.0
 40
30.0
 50
270.0
 51
0.0
  0
ARC
  5
C7
  8
DETAIL
  6
CONTINUOUS
 62
     5
 10
-57.17185
 20
79.5
 30
0.0
 40
10.0
 50
270.0
 51
310.601295
  0
ARC
  5
C8
  8
DETAIL
  6
CONTINUOUS
 62
     5
 10
-28.472609
 20
106.0993489999999
 30
0.0
 40
10.0
 50
310.601295
 51
0.0
  0
LINE
  5
C9
  8
DETAIL
  6
CONTINUOUS
 62
     5
 10
-11.972609
 20
256.0
 30
0.0
 11
-185.972609
 21
256.0
 31
0.0
  0
LINE
  5
CA
  8
DETAIL
  6
CONTINUOUS
 62
     5
 10
-63.97261099999999
 20
242.0
 30
0.0
 11
-157.9726109999999
 21
242.0
 31
0.0
  0
LINE
  5
CB
  8
DETAIL
  6
CONTINUOUS
 62
     5
 10
-57.17185
 20
253.5
 30
0.0
 11
-164.04813
 21
253.5
 31
0.0
  0
ARC
  5
CC
  8
DETAIL
  6
CONTINUOUS
 62
     5
 10
-181.223666
 20
233.413963
 30
0.0
 40
22.75271
 50
96.93933100000001
 51
181.0424949999999
  0
LINE
  5
CD
  8
DETAIL
  6
CONTINUOUS
 62
     5
 10
-170.556044
 20
251.092566
 30
0.0
 11
-199.2552849999999
 21
224.4932169999999
 31
0.0
  0
ARC
  5
CE
  8
DETAIL
  6
CONTINUOUS
 62
     5
 10
-157.972609
 20
212.0
 30
0.0
 40
30.0
 50
90.0
 51
180.0
  0
LINE
  5
CF
  8
NOTE
  6
CONTINUOUS
 62
     4
 10
-208.972609
 20
218.0
 30
0.0
 11
-208.972609
 21
258.0
 31
0.0
  0
LINE
  5
D0
  8
DETAIL
  6
CONTINUOUS
 62
     5
 10
-182.7954689999999
 20
167.0474529999999
 30
0.0
 11
-166.4961459999999
 21
167.0474529999999
 31
0.0
  0
ARC
  5
D1
  8
DETAIL
  6
CONTINUOUS
 62
     5
 10
-192.554178
 20
217.0706049999999
 30
0.0
 40
10.0
 50
132.075612
 51
172.6769070000001
  0
LINE
  5
D2
  8
NOTE
  6
CONTINUOUS
 62
     4
 10
-188.972609
 20
237.0
 30
0.0
 11
-228.972609
 21
237.0
 31
0.0
  0
LINE
  5
D3
  8
DETAIL
  6
CONTINUOUS
 62
     5
 10
-225.2226089999999
 20
233.4999999999999
 30
0.0
 11
-203.9735029999999
 21
233.4816169999999
 31
0.0
  0
LINE
  5
D4
  8
DETAIL
  6
CONTINUOUS
 62
     5
 10
-225.2226089999999
 20
237.0
 30
0.0
 11
-203.6547859999999
 21
237.0
 31
0.0
  0
LINE
  5
D5
  8
DETAIL
  6
CONTINUOUS
 62
     5
 10
-225.2226089999999
 20
237.0
 30
0.0
 11
-225.2226089999999
 21
233.4999999999999
 31
0.0
  0
ARC
  5
D6
  8
DETAIL
  6
CONTINUOUS
 62
     5
 10
-164.04813
 20
243.5
 30
0.0
 40
10.0
 50
90.0
 51
130.6012949999999
  0
LINE
  5
D7
  8
DETAIL
  6
CONTINUOUS
 62
     5
 10
-11.472609
 20
223.0
 30
0.0
 11
-11.472609
 21
273.0
 31
0.0
  0
LINE
  5
D8
  8
DETAIL
  6
CONTINUOUS
 62
     5
 10
-50.663936
 20
251.092566
 30
0.0
 11
-21.96469499999999
 21
224.4932169999999
 31
0.0
  0
ARC
  5
D9
  8
DETAIL
  6
CONTINUOUS
 62
     5
 10
-63.972609
 20
212.0
 30
0.0
 40
30.0
 50
0.0
 51
90.0
  0
LINE
  5
DA
  8
DETAIL
  6
CONTINUOUS
 62
     5
 10
-39.149749
 20
167.0474529999999
 30
0.0
 11
-55.449072
 21
167.0474529999999
 31
0.0
  0
ARC
  5
DB
  8
DETAIL
  6
CONTINUOUS
 62
     5
 10
-28.472609
 20
216.9006509999999
 30
0.0
 40
10.0
 50
0.0
 51
49.39870499999996
  0
ARC
  5
DC
  8
DETAIL
  6
CONTINUOUS
 62
     5
 10
-6.472609
 20
273.0
 30
0.0
 40
5.0
 50
90.0
 51
180.0
  0
ARC
  5
DD
  8
DETAIL
  6
CONTINUOUS
 62
     5
 10
-57.17185
 20
243.5
 30
0.0
 40
10.0
 50
49.39870499999996
 51
90.0
  0
LINE
  5
DE
  8
SIZE
  6
CONTINUOUS
 62
    30
 10
0.027391
 20
346.0
 30
0.0
 11
0.027391
 21
369.125159
 31
0.0
  0
CIRCLE
  5
DF
  8
SIZE
  6
CONTINUOUS
 62
    30
 10
-11.472609
 20
465.678663
 30
0.0
 40
6.0
  0
LINE
  5
E0
  8
SIZE
  6
CONTINUOUS
 62
    30
 10
-208.972609
 20
706.72078
 30
0.0
 11
-196.972609
 21
706.72078
 31
0.0
  0
CIRCLE
  5
E1
  8
SIZE
  6
CONTINUOUS
 62
    30
 10
-208.972609
 20
706.72078
 30
0.0
 40
6.0
  0
LINE
  5
E2
  8
OUTLINE
  6
CONTINUOUS
 62
     3
 10
193.0
 20
0.0
 30
0.0
 11
193.0
 21
230.0
 31
0.0
  0
LINE
  5
E3
  8
NOTE
  6
CONTINUOUS
 62
     4
 10
205.027391
 20
-20.0
 30
0.0
 11
205.027391
 21
20.0
 31
0.0
  0
LINE
  5
E4
  8
NOTE
  6
CONTINUOUS
 62
     4
 10
150.027391
 20
-20.0
 30
0.0
 11
150.027391
 21
20.0
 31
0.0
  0
CIRCLE
  5
E5
  8
FIX
  6
CONTINUOUS
 62
    11
 10
150.027391
 20
0.0
 30
0.0
 40
2.5
  0
CIRCLE
  5
E6
  8
FIX
  6
CONTINUOUS
 62
    11
 10
205.027391
 20
0.0
 30
0.0
 40
2.5
  0
LINE
  5
E7
  8
DETAIL
  6
CONTINUOUS
 62
     5
 10
193.027391
 20
0.0
 30
0.0
 11
193.027391
 21
237.0
 31
0.0
  0
LINE
  5
E8
  8
DETAIL
  6
CONTINUOUS
 62
     5
 39
50.0
 10
107.0463469999999
 20
-55.0
 30
0.0
 11
107.0463469999999
 21
-55.0
 31
0.0
  0
LINE
  5
E9
  8
SIZE
  6
CONTINUOUS
 62
    30
 10
235.0
 20
-20.0
 30
0.0
 11
235.0
 21
-1022.141462
 31
0.0
  0
LINE
  5
EA
  8
SIZE
  6
CONTINUOUS
 62
    30
 10
222.5
 20
-57.0
 30
0.0
 11
222.5
 21
-881.0175709999999
 31
0.0
  0
LINE
  5
EB
  8
SIZE
  6
CONTINUOUS
 62
    30
 10
235.0
 20
-1002.141461999999
 30
0.0
 11
223.0
 21
-1002.141461999999
 31
0.0
  0
CIRCLE
  5
EC
  8
SIZE
  6
CONTINUOUS
 62
    30
 10
235.0
 20
-1002.141461999999
 30
0.0
 40
6.0
  0
CIRCLE
  5
ED
  8
SIZE
  6
CONTINUOUS
 62
    30
 10
222.5
 20
-861.017571
 30
0.0
 40
6.0
  0
LINE
  5
EE
  8
SIZE
  6
CONTINUOUS
 62
    30
 10
222.5
 20
-861.017571
 30
0.0
 11
210.5
 21
-861.017571
 31
0.0
  0
LINE
  5
EF
  8
SIZE
  6
CONTINUOUS
 62
    30
 10
205.027391
 20
-40.0
 30
0.0
 11
205.027391
 21
-759.158262
 31
0.0
  0
LINE
  5
F0
  8
SIZE
  6
CONTINUOUS
 62
    30
 10
193.027391
 20
-20.0
 30
0.0
 11
193.027391
 21
-508.118152
 31
0.0
  0
LINE
  5
F1
  8
SIZE
  6
CONTINUOUS
 62
    30
 10
150.027391
 20
-40.0
 30
0.0
 11
150.027391
 21
-378.217798
 31
0.0
  0
CIRCLE
  5
F2
  8
SIZE
  6
CONTINUOUS
 62
    30
 10
193.027391
 20
-488.118152
 30
0.0
 40
6.0
  0
LINE
  5
F3
  8
SIZE
  6
CONTINUOUS
 62
    30
 10
205.027391
 20
-739.158262
 30
0.0
 11
193.027391
 21
-739.158262
 31
0.0
  0
CIRCLE
  5
F4
  8
SIZE
  6
CONTINUOUS
 62
    30
 10
205.027391
 20
-739.158262
 30
0.0
 40
6.0
  0
LINE
  5
F5
  8
SIZE
  6
CONTINUOUS
 62
    30
 10
193.027391
 20
-488.118152
 30
0.0
 11
181.027391
 21
-488.118152
 31
0.0
  0
LINE
  5
F6
  8
SIZE
  6
CONTINUOUS
 62
    30
 10
150.027391
 20
-358.217798
 30
0.0
 11
138.027391
 21
-358.217798
 31
0.0
  0
CIRCLE
  5
F7
  8
SIZE
  6
CONTINUOUS
 62
    30
 10
150.027391
 20
-358.217798
 30
0.0
 40
6.0
  0
ARC
  5
F8
  8
DETAIL
  6
CONTINUOUS
 62
     5
 10
231.184199
 20
-11.0
 30
0.0
 40
3.0
 50
270.0
 51
352.4999999999999
  0
LINE
  5
F9
  8
NOTE
  6
CONTINUOUS
 62
     4
 10
130.027391
 20
0.0
 30
0.0
 11
170.027391
 21
0.0
 31
0.0
  0
LINE
  5
FA
  8
DETAIL
  6
CONTINUOUS
 62
     5
 10
222.47261
 20
-39.260603
 30
0.0
 11
222.5
 21
-39.0
 31
0.0
  0
LINE
  5
FB
  8
DETAIL
  6
CONTINUOUS
 62
     5
 10
222.5
 20
-38.73796099999999
 30
0.0
 11
222.5
 21
-39.0
 31
0.0
  0
ARC
  5
FC
  8
DETAIL
  6
CONTINUOUS
 62
     5
 10
217.5
 20
-38.73796099999999
 30
0.0
 40
5.0
 50
354.0
 51
0.0
  0
LINE
  5
FD
  8
DETAIL
  6
CONTINUOUS
 62
     5
 10
222.5
 20
-37.0
 30
0.0
 11
222.5
 21
-38.73796099999999
 31
0.0
  0
LINE
  5
FE
  8
DETAIL
  6
CONTINUOUS
 62
     5
 10
221.5242169999999
 20
-48.283963
 30
0.0
 11
222.47261
 21
-39.260603
 31
0.0
  0
LINE
  5
FF
  8
DETAIL
  6
CONTINUOUS
 62
     5
 10
222.5
 20
-37.0
 30
0.0
 11
222.5
 21
-38.0
 31
0.0
  0
LINE
  5
100
  8
DETAIL
  6
CONTINUOUS
 62
     5
 10
222.5
 20
-37.0
 30
0.0
 11
222.5
 21
-38.0
 31
0.0
  0
LINE
  5
101
  8
DETAIL
  6
CONTINUOUS
 62
     5
 10
221.5242169999999
 20
-48.283963
 30
0.0
 11
222.47261
 21
-39.260603
 31
0.0
  0
LINE
  5
102
  8
DETAIL
  6
CONTINUOUS
 62
     5
 10
222.5
 20
-37.0
 30
0.0
 11
222.5
 21
-38.73796099999999
 31
0.0
  0
ARC
  5
103
  8
DETAIL
  6
CONTINUOUS
 62
     5
 10
217.5
 20
-38.73796099999999
 30
0.0
 40
5.0
 50
354.0
 51
0.0
  0
LINE
  5
104
  8
DETAIL
  6
CONTINUOUS
 62
     5
 10
222.5
 20
-38.73796099999999
 30
0.0
 11
222.5
 21
-39.0
 31
0.0
  0
LINE
  5
105
  8
DETAIL
  6
CONTINUOUS
 62
     5
 10
222.47261
 20
-39.260603
 30
0.0
 11
222.5
 21
-39.0
 31
0.0
  0
LINE
  5
106
  8
DETAIL
  6
CONTINUOUS
 62
     5
 10
191.5
 20
-37.0
 30
0.0
 11
191.5
 21
-14.0
 31
0.0
  0
LINE
  5
107
  8
DETAIL
  6
CONTINUOUS
 62
     5
 10
190.5
 20
-37.0
 30
0.0
 11
190.5
 21
-14.0
 31
0.0
  0
ARC
  5
108
  8
DETAIL
  6
CONTINUOUS
 62
     5
 10
214.065302
 20
-47.5
 30
0.0
 40
7.5
 50
270.0
 51
354.0
  0
ARC
  5
109
  8
DETAIL
  6
CONTINUOUS
 62
     5
 10
214.065302
 20
-47.5
 30
0.0
 40
7.5
 50
270.0
 51
354.0
  0
LINE
  5
10A
  8
NOTE
  6
CONTINUOUS
 62
     4
 10
185.027391
 20
0.0
 30
0.0
 11
225.027391
 21
0.0
 31
0.0
  0
LINE
  5
10B
  8
DETAIL
  6
CONTINUOUS
 62
     5
 10
235.0
 20
-1.0
 30
0.0
 11
234.158533
 21
-11.391579
 31
0.0
  0
LINE
  5
10C
  8
DETAIL
  6
CONTINUOUS
 62
     5
 10
235.0
 20
0.0
 30
0.0
 11
235.0
 21
-1.0
 31
0.0
  0
CIRCLE
  5
10D
  8
FIX
  6
CONTINUOUS
 62
    11
 39
50.0
 10
209.027391
 20
237.0
 30
0.0
 40
7.5
  0
LINE
  5
10E
  8
NOTE
  6
CONTINUOUS
 62
     4
 10
577.9585329999999
 20
376.9100579999999
 30
0.0
 11
1248.467958
 21
376.9100579999999
 31
0.0
  0
TEXT
  5
10F
  8
NOTE
  6
CONTINUOUS
 62
     4
 10
608.7578649999998
 20
415.000893
 30
0.0
 40
64.0
  1
AH 4-φ15×22
 41
0.9
  0
LINE
  5
110
  8
SIZE
  6
CONTINUOUS
 62
    30
 10
209.027391
 20
274.5
 30
0.0
 11
209.027391
 21
726.72078
 31
0.0
  0
LINE
  5
111
  8
NOTE
  6
CONTINUOUS
 62
     4
 10
209.027391
 20
237.0
 30
0.0
 11
577.9585329999999
 21
376.9100579999999
 31
0.0
  0
TEXT
  5
112
  8
NOTE
  6
CONTINUOUS
 62
     4
 10
258.86001
 20
75.230866
 30
0.0
 40
64.0
  1
EL
 41
0.9
  0
LINE
  5
113
  8
NOTE
  6
CONTINUOUS
 62
     4
 10
232.180667
 20
48.27718
 30
0.0
 11
358.64363
 21
48.27718
 31
0.0
  0
LINE
  5
114
  8
SIZE
  6
CONTINUOUS
 62
    30
 10
86.527391
 20
292.940014
 30
0.0
 11
86.527391
 21
485.678663
 31
0.0
  0
LINE
  5
115
  8
NOTE
  6
CONTINUOUS
 62
     4
 10
209.027391
 20
237.0
 30
0.0
 11
241.909758
 21
260.7760819999999
 31
0.0
  0
LINE
  5
116
  8
NOTE
  6
CONTINUOUS
 62
     4
 10
248.8923979999999
 20
241.283481
 30
0.0
 11
209.027391
 21
237.0
 31
0.0
  0
LINE
  5
117
  8
NOTE
  6
CONTINUOUS
 62
     4
 10
169.027391
 20
230.0
 30
0.0
 11
232.180667
 21
48.27718
 31
0.0
  0
LINE
  5
118
  8
DETAIL
  6
CONTINUOUS
 62
     5
 10
194.7773909999999
 20
237.0
 30
0.0
 11
194.7773909999999
 21
37.0
 31
0.0
  0
LINE
  5
119
  8
DETAIL
  6
CONTINUOUS
 62
     5
 10
198.277391
 20
233.4999999999999
 30
0.0
 11
198.277391
 21
37.0
 31
0.0
  0
LINE
  5
11A
  8
DETAIL
  6
CONTINUOUS
 62
     5
 10
198.277391
 20
37.0
 30
0.0
 11
193.027391
 21
37.0
 31
0.0
  0
LINE
  5
11B
  8
DETAIL
  6
CONTINUOUS
 62
     5
 10
86.527391
 20
230.0
 30
0.0
 11
86.527391
 21
273.0
 31
0.0
  0
ARC
  5
11C
  8
DETAIL
  6
CONTINUOUS
 62
     5
 10
81.527391
 20
273.0
 30
0.0
 40
5.0
 50
0.0
 51
90.0
  0
LINE
  5
11D
  8
NOTE
  6
CONTINUOUS
 62
     4
 10
169.027391
 20
210.0
 30
0.0
 11
169.027391
 21
250.0
 31
0.0
  0
LINE
  5
11E
  8
NOTE
  6
CONTINUOUS
 62
     4
 10
209.027391
 20
218.0
 30
0.0
 11
209.027391
 21
258.0
 31
0.0
  0
LINE
  5
11F
  8
NOTE
  6
CONTINUOUS
 62
     4
 10
191.566633
 20
196.9548399999999
 30
0.0
 11
169.027391
 21
230.0
 31
0.0
  0
LINE
  5
120
  8
NOTE
  6
CONTINUOUS
 62
     4
 10
149.027391
 20
230.0
 30
0.0
 11
189.027391
 21
230.0
 31
0.0
  0
LINE
  5
121
  8
NOTE
  6
CONTINUOUS
 62
     4
 10
169.027391
 20
230.0
 30
0.0
 11
172.0243659999999
 21
190.1124309999999
 31
0.0
  0
LINE
  5
122
  8
NOTE
  6
CONTINUOUS
 62
     4
 10
189.027391
 20
237.0
 30
0.0
 11
229.027391
 21
237.0
 31
0.0
  0
LINE
  5
123
  8
DETAIL
  6
CONTINUOUS
 62
     5
 10
225.2773909999999
 20
237.0
 30
0.0
 11
225.2773909999999
 21
233.4999999999999
 31
0.0
  0
LINE
  5
124
  8
DETAIL
  6
CONTINUOUS
 62
     5
 10
225.2773909999999
 20
237.0
 30
0.0
 11
193.027391
 21
237.0
 31
0.0
  0
LINE
  5
125
  8
DETAIL
  6
CONTINUOUS
 62
     5
 10
225.2773909999999
 20
233.4999999999999
 30
0.0
 11
198.277391
 21
233.4999999999999
 31
0.0
  0
TEXT
  5
126
  8
SIZE
  6
CONTINUOUS
 62
    30
 10
215.3708108571429
 20
490.678663
 30
0.0
 40
64.0
  1
φ98
 41
0.9
 72
     1
 11
294.913668
 21
490.678663
 31
0.0
  0
LINE
  5
127
  8
SIZE
  6
CONTINUOUS
 62
    30
 10
395.3422399999999
 20
465.678663
 30
0.0
 11
86.527391
 21
465.678663
 31
0.0
  0
LINE
  5
128
  8
SIZE
  6
CONTINUOUS
 62
    30
 10
77.527391
 20
465.678663
 30
0.0
 11
397.201287
 21
465.678663
 31
0.0
  0
LINE
  5
129
  8
SIZE
  6
CONTINUOUS
 62
    30
 10
74.527391
 20
465.678663
 30
0.0
 11
0.5273909999999999
 21
465.678663
 31
0.0
  0
LINE
  5
12A
  8
SIZE
  6
CONTINUOUS
 62
    30
 10
86.527391
 20
465.678663
 30
0.0
 11
74.527391
 21
465.678663
 31
0.0
  0
CIRCLE
  5
12B
  8
SIZE
  6
CONTINUOUS
 62
    30
 10
86.527391
 20
465.678663
 30
0.0
 40
6.0
  0
LINE
  5
12C
  8
SIZE
  6
CONTINUOUS
 62
    30
 10
209.027391
 20
706.72078
 30
0.0
 11
197.027391
 21
706.72078
 31
0.0
  0
CIRCLE
  5
12D
  8
SIZE
  6
CONTINUOUS
 62
    30
 10
209.027391
 20
706.72078
 30
0.0
 40
6.0
  0
TEXT
  5
12E
  8
ETC
  6
CONTINUOUS
 62
    61
 10
630.5418119999998
 20
816.8593419999999
 30
0.0
 40
64.0
  1
VD-23ZXP9-W_2
 41
0.9
  0
TEXT
  5
12F
  8
ETC
  6
CONTINUOUS
 62
    61
 10
626.355818
 20
698.904032
 30
0.0
 40
64.0
  1
換気扇
 41
0.9
  0
TEXT
  5
130
  8
ETC
  6
CONTINUOUS
 62
    61
 10
676.9633209999998
 20
591.068252
 30
0.0
 40
40.0
  1
VD-23ZXP9-W
 41
0.9
  0
LINE
  5
131
  8
SIZE
  6
CONTINUOUS
 62
    30
 10
16.517731
 20
162.0
 30
0.0
 11
510.361754
 21
162.0
 31
0.0
  0
LINE
  5
132
  8
SIZE
  6
CONTINUOUS
 62
    30
 10
255.0
 20
0.0
 30
0.0
 11
510.361754
 21
0.0
 31
0.0
  0
LINE
  5
133
  8
SIZE
  6
CONTINUOUS
 62
    30
 10
490.361754
 20
150.0
 30
0.0
 11
490.361754
 21
12.0
 31
0.0
  0
CIRCLE
  5
134
  8
SIZE
  6
CONTINUOUS
 62
    30
 10
490.361754
 20
162.0
 30
0.0
 40
6.0
  0
LINE
  5
135
  8
SIZE
  6
CONTINUOUS
 62
    30
 10
490.361754
 20
162.0
 30
0.0
 11
490.361754
 21
150.0
 31
0.0
  0
CIRCLE
  5
136
  8
SIZE
  6
CONTINUOUS
 62
    30
 10
490.361754
 20
0.0
 30
0.0
 40
6.0
  0
LINE
  5
137
  8
SIZE
  6
CONTINUOUS
 62
    30
 10
490.361754
 20
0.0
 30
0.0
 11
490.361754
 21
12.0
 31
0.0
  0
TEXT
  5
138
  8
SIZE
  6
CONTINUOUS
 62
    30
 10
465.361754
 20
-5.400000000000091
 30
0.0
 40
64.0
  1
162
 50
90.0
 41
0.9
 72
     1
 11
465.361754
 21
80.99999999999991
 31
0.0
  0
POINT
  5
139
  8
DEFPOINTS
  6
CONTINUOUS
 62
    30
 10
-3.482268999999999
 20
162.0
 30
0.0
  0
POINT
  5
13A
  8
DEFPOINTS
  6
CONTINUOUS
 62
    30
 10
235.0
 20
0.0
 30
0.0
  0
POINT
  5
13B
  8
DEFPOINTS
  6
CONTINUOUS
 62
    30
 10
490.361754
 20
0.0
 30
0.0
  0
LINE
  5
13C
  8
SIZE
  6
CONTINUOUS
 62
    30
 10
169.027391
 20
270.0
 30
0.0
 11
169.027391
 21
366.4290879999999
 31
0.0
  0
LINE
  5
13D
  8
SIZE
  6
CONTINUOUS
 62
    30
 10
0.027391
 20
346.0
 30
0.0
 11
0.027391
 21
366.4290879999999
 31
0.0
  0
LINE
  5
13E
  8
SIZE
  6
CONTINUOUS
 62
    30
 10
12.027391
 20
346.429088
 30
0.0
 11
157.027391
 21
346.429088
 31
0.0
  0
LINE
  5
13F
  8
SIZE
  6
CONTINUOUS
 62
    30
 10
169.027391
 20
346.429088
 30
0.0
 11
389.652272
 21
346.429088
 31
0.0
  0
CIRCLE
  5
140
  8
SIZE
  6
CONTINUOUS
 62
    30
 10
0.027391
 20
346.429088
 30
0.0
 40
6.0
  0
LINE
  5
141
  8
SIZE
  6
CONTINUOUS
 62
    30
 10
0.027391
 20
346.429088
 30
0.0
 11
12.027391
 21
346.429088
 31
0.0
  0
CIRCLE
  5
142
  8
SIZE
  6
CONTINUOUS
 62
    30
 10
169.027391
 20
346.429088
 30
0.0
 40
6.0
  0
LINE
  5
143
  8
SIZE
  6
CONTINUOUS
 62
    30
 10
169.027391
 20
346.429088
 30
0.0
 11
157.027391
 21
346.429088
 31
0.0
  0
TEXT
  5
144
  8
SIZE
  6
CONTINUOUS
 62
    30
 10
212.4237005714286
 20
371.429088
 30
0.0
 40
64.0
  1
169
 41
0.9
 72
     1
 11
297.4522720000001
 21
371.429088
 31
0.0
  0
POINT
  5
145
  8
DEFPOINTS
  6
CONTINUOUS
 62
    30
 10
169.027391
 20
250.0
 30
0.0
  0
POINT
  5
146
  8
DEFPOINTS
  6
CONTINUOUS
 62
    30
 10
0.027391
 20
326.0
 30
0.0
  0
POINT
  5
147
  8
DEFPOINTS
  6
CONTINUOUS
 62
    30
 10
0.027391
 20
346.429088
 30
0.0
  0
LINE
  5
148
  8
SIZE
  6
CONTINUOUS
 62
    30
 10
0.027391
 20
346.0
 30
0.0
 11
0.027391
 21
603.4232779999999
 31
0.0
  0
LINE
  5
149
  8
SIZE
  6
CONTINUOUS
 62
    30
 10
-110.972609
 20
308.485224
 30
0.0
 11
-110.972609
 21
603.4232779999999
 31
0.0
  0
LINE
  5
14A
  8
SIZE
  6
CONTINUOUS
 62
    30
 10
12.027391
 20
583.4232779999999
 30
0.0
 11
24.027391
 21
583.4232779999999
 31
0.0
  0
LINE
  5
14B
  8
SIZE
  6
CONTINUOUS
 62
    30
 10
-122.972609
 20
583.4232779999999
 30
0.0
 11
-134.972609
 21
583.4232779999999
 31
0.0
  0
LINE
  5
14C
  8
SIZE
  6
CONTINUOUS
 62
    30
 10
0.027391
 20
583.4232779999999
 30
0.0
 11
-110.972609
 21
583.4232779999999
 31
0.0
  0
CIRCLE
  5
14D
  8
SIZE
  6
CONTINUOUS
 62
    30
 10
0.027391
 20
583.4232779999999
 30
0.0
 40
6.0
  0
LINE
  5
14E
  8
SIZE
  6
CONTINUOUS
 62
    30
 10
0.027391
 20
583.4232779999999
 30
0.0
 11
12.027391
 21
583.4232779999999
 31
0.0
  0
CIRCLE
  5
14F
  8
SIZE
  6
CONTINUOUS
 62
    30
 10
-110.972609
 20
583.4232779999999
 30
0.0
 40
6.0
  0
LINE
  5
150
  8
SIZE
  6
CONTINUOUS
 62
    30
 10
-110.972609
 20
583.4232779999999
 30
0.0
 11
-122.972609
 21
583.4232779999999
 31
0.0
  0
TEXT
  5
151
  8
SIZE
  6
CONTINUOUS
 62
    30
 10
-133.6440375714286
 20
608.4232779999999
 30
0.0
 40
64.0
  1
111
 41
0.9
 72
     1
 11
-55.472609
 21
608.4232779999999
 31
0.0
  0
POINT
  5
152
  8
DEFPOINTS
  6
CONTINUOUS
 62
    30
 10
0.027391
 20
326.0
 30
0.0
  0
POINT
  5
153
  8
DEFPOINTS
  6
CONTINUOUS
 62
    30
 10
-110.972609
 20
288.485224
 30
0.0
  0
POINT
  5
154
  8
DEFPOINTS
  6
CONTINUOUS
 62
    30
 10
-110.972609
 20
583.4232779999999
 30
0.0
  0
LINE
  5
155
  8
SIZE
  6
CONTINUOUS
 62
    30
 10
-203.972604
 20
74.036535
 30
0.0
 11
-203.972604
 21
-250.220379
 31
0.0
  0
LINE
  5
156
  8
SIZE
  6
CONTINUOUS
 62
    30
 10
-192.972609
 20
-20.0
 30
0.0
 11
-192.972609
 21
-250.220379
 31
0.0
  0
LINE
  5
157
  8
SIZE
  6
CONTINUOUS
 62
    30
 10
-180.972609
 20
-230.220379
 30
0.0
 11
-168.972609
 21
-230.220379
 31
0.0
  0
LINE
  5
158
  8
SIZE
  6
CONTINUOUS
 62
    30
 10
-215.972604
 20
-230.220379
 30
0.0
 11
-349.915466
 21
-230.220379
 31
0.0
  0
LINE
  5
159
  8
SIZE
  6
CONTINUOUS
 62
    30
 10
-192.972609
 20
-230.220379
 30
0.0
 11
-203.972604
 21
-230.220379
 31
0.0
  0
CIRCLE
  5
15A
  8
SIZE
  6
CONTINUOUS
 62
    30
 10
-192.972609
 20
-230.220379
 30
0.0
 40
6.0
  0
LINE
  5
15B
  8
SIZE
  6
CONTINUOUS
 62
    30
 10
-192.972609
 20
-230.220379
 30
0.0
 11
-180.972609
 21
-230.220379
 31
0.0
  0
CIRCLE
  5
15C
  8
SIZE
  6
CONTINUOUS
 62
    30
 10
-203.972604
 20
-230.220379
 30
0.0
 40
6.0
  0
LINE
  5
15D
  8
SIZE
  6
CONTINUOUS
 62
    30
 10
-203.972604
 20
-230.220379
 30
0.0
 11
-215.972604
 21
-230.220379
 31
0.0
  0
TEXT
  5
15E
  8
SIZE
  6
CONTINUOUS
 62
    30
 10
-346.858323142857
 20
-205.220379
 30
0.0
 40
64.0
  1
11
 41
0.9
 72
     1
 11
-296.1154659999999
 21
-205.220379
 31
0.0
  0
POINT
  5
15F
  8
DEFPOINTS
  6
CONTINUOUS
 62
    30
 10
-203.972604
 20
94.036535
 30
0.0
  0
POINT
  5
160
  8
DEFPOINTS
  6
CONTINUOUS
 62
    30
 10
-192.972609
 20
0.0
 30
0.0
  0
POINT
  5
161
  8
DEFPOINTS
  6
CONTINUOUS
 62
    30
 10
-192.972609
 20
-230.220379
 30
0.0
  0
LINE
  5
162
  8
SIZE
  6
CONTINUOUS
 62
    30
 10
-255.0
 20
0.0
 30
0.0
 11
-637.5896190000002
 21
0.0
 31
0.0
  0
LINE
  5
163
  8
SIZE
  6
CONTINUOUS
 62
    30
 10
-213.0
 20
79.58731
 30
0.0
 11
-637.5896190000002
 21
79.58731
 31
0.0
  0
LINE
  5
164
  8
SIZE
  6
CONTINUOUS
 62
    30
 10
-617.5896190000001
 20
12.0
 30
0.0
 11
-617.5896190000001
 21
67.58731
 31
0.0
  0
LINE
  5
165
  8
SIZE
  6
CONTINUOUS
 62
    30
 10
-617.5896190000001
 20
79.58731
 30
0.0
 11
-617.5896190000001
 21
234.844453
 31
0.0
  0
CIRCLE
  5
166
  8
SIZE
  6
CONTINUOUS
 62
    30
 10
-617.5896190000001
 20
0.0
 30
0.0
 40
6.0
  0
LINE
  5
167
  8
SIZE
  6
CONTINUOUS
 62
    30
 10
-617.5896190000001
 20
0.0
 30
0.0
 11
-617.5896190000001
 21
12.0
 31
0.0
  0
CIRCLE
  5
168
  8
SIZE
  6
CONTINUOUS
 62
    30
 10
-617.5896190000001
 20
79.58731
 30
0.0
 40
6.0
  0
LINE
  5
169
  8
SIZE
  6
CONTINUOUS
 62
    30
 10
-617.5896190000001
 20
79.58731
 30
0.0
 11
-617.5896190000001
 21
67.58731
 31
0.0
  0
TEXT
  5
16A
  8
SIZE
  6
CONTINUOUS
 62
    30
 10
-642.5896190000001
 20
108.358739142857
 30
0.0
 40
64.0
  1
80
 50
90.0
 41
0.9
 72
     1
 11
-642.5896190000001
 21
163.2158819999999
 31
0.0
  0
POINT
  5
16B
  8
DEFPOINTS
  6
CONTINUOUS
 62
    30
 10
-234.9999999999999
 20
0.0
 30
0.0
  0
POINT
  5
16C
  8
DEFPOINTS
  6
CONTINUOUS
 62
    30
 10
-193.0
 20
79.58731
 30
0.0
  0
POINT
  5
16D
  8
DEFPOINTS
  6
CONTINUOUS
 62
    30
 10
-617.5896190000001
 20
79.58731
 30
0.0
  0
LINE
  5
16E
  8
SIZE
  6
CONTINUOUS
 62
    30
 10
245.277391
 20
237.0
 30
0.0
 11
654.0513019999999
 21
237.0
 31
0.0
  0
LINE
  5
16F
  8
SIZE
  6
CONTINUOUS
 62
    30
 10
255.0
 20
0.0
 30
0.0
 11
654.0513019999999
 21
0.0
 31
0.0
  0
LINE
  5
170
  8
SIZE
  6
CONTINUOUS
 62
    30
 10
634.0513019999999
 20
225.0
 30
0.0
 11
634.0513019999999
 21
12.0
 31
0.0
  0
CIRCLE
  5
171
  8
SIZE
  6
CONTINUOUS
 62
    30
 10
634.0513019999999
 20
237.0
 30
0.0
 40
6.0
  0
LINE
  5
172
  8
SIZE
  6
CONTINUOUS
 62
    30
 10
634.0513019999999
 20
237.0
 30
0.0
 11
634.0513019999999
 21
225.0
 31
0.0
  0
CIRCLE
  5
173
  8
SIZE
  6
CONTINUOUS
 62
    30
 10
634.0513019999999
 20
0.0
 30
0.0
 40
6.0
  0
LINE
  5
174
  8
SIZE
  6
CONTINUOUS
 62
    30
 10
634.0513019999999
 20
0.0
 30
0.0
 11
634.0513019999999
 21
12.0
 31
0.0
  0
TEXT
  5
175
  8
SIZE
  6
CONTINUOUS
 62
    30
 10
609.0513019999999
 20
36.21428571428571
 30
0.0
 40
64.0
  1
237
 50
90.0
 41
0.9
 72
     1
 11
609.0513019999999
 21
118.5
 31
0.0
  0
POINT
  5
176
  8
DEFPOINTS
  6
CONTINUOUS
 62
    30
 10
225.2773909999999
 20
237.0
 30
0.0
  0
POINT
  5
177
  8
DEFPOINTS
  6
CONTINUOUS
 62
    30
 10
235.0
 20
0.0
 30
0.0
  0
POINT
  5
178
  8
DEFPOINTS
  6
CONTINUOUS
 62
    30
 10
634.0513019999999
 20
0.0
 30
0.0
  0
LINE
  5
179
  8
DETAIL
  6
CONTINUOUS
 62
     5
 10
196.027391
 20
8.0
 30
0.0
 11
196.027391
 21
28.0
 31
0.0
  0
LINE
  5
17A
  8
DETAIL
  6
CONTINUOUS
 62
     5
 39
50.0
 10
193.027391
 20
8.0
 30
0.0
 11
196.027391
 21
8.0
 31
0.0
  0
LINE
  5
17B
  8
DETAIL
  6
CONTINUOUS
 62
     5
 39
50.0
 10
193.027391
 20
28.0
 30
0.0
 11
196.027391
 21
28.0
 31
0.0
  0
LINE
  5
17C
  8
DETAIL
  6
CONTINUOUS
 62
     5
 10
-195.972609
 20
8.0
 30
0.0
 11
-195.972609
 21
28.0
 31
0.0
  0
LINE
  5
17D
  8
DETAIL
  6
CONTINUOUS
 62
     5
 39
50.0
 10
-192.972609
 20
8.0
 30
0.0
 11
-195.972609
 21
8.0
 31
0.0
  0
LINE
  5
17E
  8
DETAIL
  6
CONTINUOUS
 62
     5
 39
50.0
 10
-192.972609
 20
28.0
 30
0.0
 11
-195.972609
 21
28.0
 31
0.0
  0
LINE
  5
17F
  8
SIZE
  6
CONTINUOUS
 62
    30
 10
-195.972609
 20
-12.0
 30
0.0
 11
-195.972609
 21
-634.923424
 31
0.0
  0
LINE
  5
180
  8
SIZE
  6
CONTINUOUS
 62
    30
 10
196.027391
 20
-12.0
 30
0.0
 11
196.027391
 21
-634.923424
 31
0.0
  0
LINE
  5
181
  8
SIZE
  6
CONTINUOUS
 62
    30
 10
-183.972609
 20
-614.923424
 30
0.0
 11
184.027391
 21
-614.923424
 31
0.0
  0
CIRCLE
  5
182
  8
SIZE
  6
CONTINUOUS
 62
    30
 10
-195.972609
 20
-614.923424
 30
0.0
 40
6.0
  0
LINE
  5
183
  8
SIZE
  6
CONTINUOUS
 62
    30
 10
-195.972609
 20
-614.923424
 30
0.0
 11
-183.972609
 21
-614.923424
 31
0.0
  0
CIRCLE
  5
184
  8
SIZE
  6
CONTINUOUS
 62
    30
 10
196.027391
 20
-614.923424
 30
0.0
 40
6.0
  0
LINE
  5
185
  8
SIZE
  6
CONTINUOUS
 62
    30
 10
196.027391
 20
-614.923424
 30
0.0
 11
184.027391
 21
-614.923424
 31
0.0
  0
TEXT
  5
186
  8
SIZE
  6
CONTINUOUS
 62
    30
 10
-82.2583232857143
 20
-589.923424
 30
0.0
 40
64.0
  1
392
 41
0.9
 72
     1
 11
0.027391
 21
-589.923424
 31
0.0
  0
POINT
  5
187
  8
DEFPOINTS
  6
CONTINUOUS
 62
    30
 10
-195.972609
 20
8.0
 30
0.0
  0
POINT
  5
188
  8
DEFPOINTS
  6
CONTINUOUS
 62
    30
 10
196.027391
 20
8.0
 30
0.0
  0
POINT
  5
189
  8
DEFPOINTS
  6
CONTINUOUS
 62
    30
 10
196.027391
 20
-614.923424
 30
0.0
  0
ENDSEC
  0
EOF
