  0
SECTION
  2
HEADER
  9
$ACADVER
  1
AC1009
  9
$DWGCODEPAGE
  3
ansi_932
  9
$INSBASE
 10
0.0
 20
0.0
 30
0.0
  9
$EXTMIN
 10
-1087.72434
 20
-952.554587
 30
0.0
  9
$EXTMAX
 10
1369.400191428571
 20
1023.200632
 30
50.0
  9
$LIMMIN
 10
-2970.0
 20
-2100.0
  9
$LIMMAX
 10
2970.0
 20
2100.0
  9
$ORTHOMODE
 70
     1
  9
$REGENMODE
 70
     1
  9
$FILLMODE
 70
     1
  9
$QTEXTMODE
 70
     0
  9
$MIRRTEXT
 70
     0
  9
$DRAGMODE
 70
     2
  9
$LTSCALE
 40
20.0
  9
$OSMODE
 70
    37
  9
$ATTMODE
 70
     1
  9
$TEXTSIZE
 40
64.0
  9
$TRACEWID
 40
0.05
  9
$TEXTSTYLE
  7
STANDARD
  9
$CLAYER
  8
SIZE
  9
$CELTYPE
  6
CONTINUOUS
  9
$CECOLOR
 62
     7
  9
$DIMSCALE
 40
1.0
  9
$DIMASZ
 40
12.0
  9
$DIMEXO
 40
20.0
  9
$DIMDLI
 40
200.0
  9
$DIMRND
 40
0.0
  9
$DIMDLE
 40
0.0
  9
$DIMEXE
 40
20.0
  9
$DIMTP
 40
0.0
  9
$DIMTM
 40
0.0
  9
$DIMTXT
 40
64.0
  9
$DIMCEN
 40
0.09
  9
$DIMTSZ
 40
0.0
  9
$DIMTOL
 70
     0
  9
$DIMLIM
 70
     0
  9
$DIMTIH
 70
     0
  9
$DIMTOH
 70
     0
  9
$DIMSE1
 70
     0
  9
$DIMSE2
 70
     0
  9
$DIMTAD
 70
     1
  9
$DIMZIN
 70
     8
  9
$DIMBLK
  1
DOT1
  9
$DIMASO
 70
     1
  9
$DIMSHO
 70
     0
  9
$DIMPOST
  1

  9
$DIMAPOST
  1

  9
$DIMALT
 70
     0
  9
$DIMALTD
 70
     2
  9
$DIMALTF
 40
25.4
  9
$DIMLFAC
 40
1.0
  9
$DIMTOFL
 70
     1
  9
$DIMTVP
 40
0.0
  9
$DIMTIX
 70
     1
  9
$DIMSOXD
 70
     0
  9
$DIMSAH
 70
     1
  9
$DIMBLK1
  1
ORIGIN
  9
$DIMBLK2
  1
ORIGIN
  9
$DIMSTYLE
  2
STANDARD
  9
$DIMCLRD
 70
     7
  9
$DIMCLRE
 70
     7
  9
$DIMCLRT
 70
     7
  9
$DIMTFAC
 40
1.0
  9
$DIMGAP
 40
25.0
  9
$LUNITS
 70
     2
  9
$LUPREC
 70
     4
  9
$SKETCHINC
 40
0.1
  9
$FILLETRAD
 40
3.0
  9
$AUNITS
 70
     1
  9
$AUPREC
 70
     3
  9
$MENU
  1
ACAD
  9
$ELEVATION
 40
0.0
  9
$PELEVATION
 40
0.0
  9
$THICKNESS
 40
50.0
  9
$LIMCHECK
 70
     0
  9
$CHAMFERA
 40
0.0
  9
$CHAMFERB
 40
0.0
  9
$SKPOLY
 70
     0
  9
$TDCREATE
 40
2453019.623010359
  9
$TDUPDATE
 40
2457485.599496979
  9
$TDINDWG
 40
1.6412846181
  9
$TDUSRTIMER
 40
1.6412846181
  9
$USRTIMER
 70
     1
  9
$ANGBASE
 50
0.0
  9
$ANGDIR
 70
     0
  9
$PDMODE
 70
     3
  9
$PDSIZE
 40
-2.0
  9
$PLINEWID
 40
0.0
  9
$COORDS
 70
     1
  9
$SPLFRAME
 70
     0
  9
$SPLINETYPE
 70
     6
  9
$SPLINESEGS
 70
     8
  9
$ATTDIA
 70
     0
  9
$ATTREQ
 70
     1
  9
$HANDLING
 70
     1
  9
$HANDSEED
  5
292
  9
$SURFTAB1
 70
     6
  9
$SURFTAB2
 70
     6
  9
$SURFTYPE
 70
     6
  9
$SURFU
 70
     6
  9
$SURFV
 70
     6
  9
$UCSNAME
  2

  9
$UCSORG
 10
0.0
 20
0.0
 30
0.0
  9
$UCSXDIR
 10
1.0
 20
0.0
 30
0.0
  9
$UCSYDIR
 10
0.0
 20
1.0
 30
0.0
  9
$PUCSNAME
  2

  9
$PUCSORG
 10
0.0
 20
0.0
 30
0.0
  9
$PUCSXDIR
 10
1.0
 20
0.0
 30
0.0
  9
$PUCSYDIR
 10
0.0
 20
1.0
 30
0.0
  9
$USERI1
 70
     0
  9
$USERI2
 70
     0
  9
$USERI3
 70
     0
  9
$USERI4
 70
     0
  9
$USERI5
 70
     0
  9
$USERR1
 40
20.0
  9
$USERR2
 40
0.0
  9
$USERR3
 40
0.0
  9
$USERR4
 40
0.0
  9
$USERR5
 40
0.0
  9
$WORLDVIEW
 70
     1
  9
$SHADEDGE
 70
     3
  9
$SHADEDIF
 70
    70
  9
$TILEMODE
 70
     1
  9
$MAXACTVP
 70
    48
  9
$PLIMCHECK
 70
     0
  9
$PEXTMIN
 10
-1.000000000000000E+20
 20
-1.000000000000000E+20
 30
-1.000000000000000E+20
  9
$PEXTMAX
 10
1.000000000000000E+20
 20
1.000000000000000E+20
 30
1.000000000000000E+20
  9
$PLIMMIN
 10
0.0
 20
0.0
  9
$PLIMMAX
 10
12.0
 20
9.0
  9
$UNITMODE
 70
     0
  9
$VISRETAIN
 70
     0
  9
$PLINEGEN
 70
     0
  9
$PSLTSCALE
 70
     0
  0
ENDSEC
  0
SECTION
  2
TABLES
  0
TABLE
  2
VPORT
 70
     1
  0
VPORT
  2
*ACTIVE
 70
     0
 10
0.0
 20
0.0
 11
1.0
 21
1.0
 12
140.7142779999999
 22
111.6348210145413
 13
0.0
 23
0.0
 14
1.0
 24
1.0
 15
0.0
 25
0.0
 16
0.0
 26
0.0
 36
1.0
 17
0.0
 27
0.0
 37
0.0
 40
2144.403641029082
 41
1.513819095477386
 42
50.0
 43
0.0
 44
0.0
 50
0.0
 51
0.0
 71
     0
 72
  1000
 73
     1
 74
     0
 75
     0
 76
     0
 77
     0
 78
     0
  0
ENDTAB
  0
TABLE
  2
LTYPE
 70
     2
  0
LTYPE
  2
CONTINUOUS
 70
     0
  3
実線
 72
    65
 73
     0
 40
0.0
  0
LTYPE
  2
DASHDOT
 70
     0
  3
____ _ ____ _ ____ _ ____ _ ____ _ ____ _ ____
 72
    65
 73
     4
 40
5.5
 49
4.0
 49
-0.6
 49
0.3
 49
-0.6
  0
ENDTAB
  0
TABLE
  2
LAYER
 70
    12
  0
LAYER
  2
0
 70
     0
 62
     7
  6
CONTINUOUS
  0
LAYER
  2
SIZE
 70
     0
 62
    30
  6
CONTINUOUS
  0
LAYER
  2
DEFPOINTS
 70
     0
 62
     7
  6
CONTINUOUS
  0
LAYER
  2
ETC
 70
     0
 62
    61
  6
CONTINUOUS
  0
LAYER
  2
OUTLINE
 70
     0
 62
     3
  6
CONTINUOUS
  0
LAYER
  2
BASIS
 70
     0
 62
     6
  6
DASHDOT
  0
LAYER
  2
DETAIL
 70
     0
 62
     5
  6
CONTINUOUS
  0
LAYER
  2
ARRANGE
 70
     0
 62
     1
  6
CONTINUOUS
  0
LAYER
  2
FIX
 70
     0
 62
    11
  6
CONTINUOUS
  0
LAYER
  2
NOTE
 70
     0
 62
     4
  6
CONTINUOUS
  0
LAYER
  2
SERVICESPACE
 70
     0
 62
     2
  6
DASHDOT
  0
LAYER
  2
SYMBOLLINE
 70
     0
 62
    15
  6
CONTINUOUS
  0
ENDTAB
  0
TABLE
  2
STYLE
 70
     1
  0
STYLE
  2
STANDARD
 70
     0
 40
64.0
 41
0.9
 50
0.0
 71
     0
 42
64.0
  3
SIMPLEX.shx
  4
BIGFONT.shx
  0
ENDTAB
  0
TABLE
  2
VIEW
 70
     1
  0
VIEW
  2
ALL
 70
     0
 40
4282.619808
 10
0.0
 20
41.309904
 41
5940.0
 11
0.0
 21
0.0
 31
1.0
 12
0.0
 22
0.0
 32
0.0
 42
50.0
 43
0.0
 44
0.0
 50
0.0
 71
     0
  0
ENDTAB
  0
TABLE
  2
UCS
 70
     0
  0
ENDTAB
  0
TABLE
  2
APPID
 70
    15
  0
APPID
  2
ACAD
 70
     0
  0
APPID
  2
AUTOCAD_POSTSCRIPT_FIGURE
 70
     0
  0
APPID
  2
ACAD_EXEMPT_FROM_CAD_STAND
 70
     0
  0
APPID
  2
ACAD_PSEXT
 70
     0
  0
APPID
  2
ACAUTHENVIRON
 70
     0
  0
APPID
  2
GENIUS_GENOENT_13
 70
     0
  0
APPID
  2
GENIUS_GENCFG_13
 70
     0
  0
APPID
  2
GENIUS_GENCFG0_13
 70
     0
  0
APPID
  2
GENIUS_GENCFG1_13
 70
     0
  0
APPID
  2
GENIUS_GENCFG2_13
 70
     0
  0
APPID
  2
GENIUS_GENCFG3_13
 70
     0
  0
APPID
  2
GENIUS_GENCFG4_13
 70
     0
  0
APPID
  2
GENIUS_GEVCFG0_13
 70
     0
  0
APPID
  2
CONTENTBLOCKICON
 70
     0
  0
APPID
  2
CONTENTBLOCKDESCRIPTION
 70
     0
  0
ENDTAB
  0
TABLE
  2
DIMSTYLE
 70
     1
  0
DIMSTYLE
  2
STANDARD
 70
     0
  3

  4

  5

  6

  7

 40
1.0
 41
0.18
 42
0.0625
 43
0.38
 44
0.18
 45
0.0
 46
0.0
 47
0.0
 48
0.0
140
0.18
141
0.09
142
0.0
143
25.4
144
1.0
145
0.0
146
1.0
147
0.09
 71
     0
 72
     0
 73
     1
 74
     1
 75
     0
 76
     0
 77
     0
 78
     0
170
     0
171
     2
172
     0
173
     0
174
     0
175
     0
176
     7
177
     7
178
     7
  0
ENDTAB
  0
ENDSEC
  0
SECTION
  2
BLOCKS
  0
BLOCK
  8
0
  2
$MODEL_SPACE
 70
     0
 10
0.0
 20
0.0
 30
0.0
  3
$MODEL_SPACE
  1

  0
ENDBLK
  5
20
  8
0
  0
BLOCK
 67
     1
  8
0
  2
$PAPER_SPACE
 70
     0
 10
0.0
 20
0.0
 30
0.0
  3
$PAPER_SPACE
  1

  0
ENDBLK
  5
1C
 67
     1
  8
0
  0
BLOCK
  8
0
  2
DOT1
 70
     0
 10
0.0
 20
0.0
 30
0.0
  3
DOT1
  1

  0
CIRCLE
  5
43
  8
SIZE
  6
CONTINUOUS
 62
     7
 10
0.0
 20
0.0
 30
0.0
 40
3.0
  0
ENDBLK
  5
44
  8
0
  0
BLOCK
  8
0
  2
_ORIGIN
 70
     0
 10
0.0
 20
0.0
 30
0.0
  3
_ORIGIN
  1

  0
CIRCLE
  5
47
  8
0
  6
CONTINUOUS
 62
     7
 10
0.0
 20
0.0
 30
0.0
 40
0.5
  0
LINE
  5
48
  8
0
  6
CONTINUOUS
 62
     7
 10
0.0
 20
0.0
 30
0.0
 11
-1.0
 21
0.0
 31
0.0
  0
ENDBLK
  5
49
  8
0
  0
ENDSEC
  0
SECTION
  2
ENTITIES
  0
POINT
  5
4A
  8
ARRANGE
  6
CONTINUOUS
 62
     1
 10
0.027391
 20
0.0
 30
0.0
  0
LINE
  5
4B
  8
OUTLINE
  6
CONTINUOUS
 62
     3
 10
-234.9999999999999
 20
0.0
 30
0.0
 11
235.0
 21
0.0
 31
0.0
  0
LINE
  5
4C
  8
OUTLINE
  6
CONTINUOUS
 62
     3
 10
-193.0
 20
230.0
 30
0.0
 11
193.0
 21
230.0
 31
0.0
  0
CIRCLE
  5
4D
  8
ARRANGE
  6
CONTINUOUS
 62
     1
 10
0.0
 20
0.0
 30
0.0
 40
40.0
  0
LINE
  5
4E
  8
DETAIL
  6
CONTINUOUS
 62
     5
 39
50.0
 10
-231.156808
 20
-14.0
 30
0.0
 11
231.211589
 21
-14.0
 31
0.0
  0
LINE
  5
4F
  8
DETAIL
  6
CONTINUOUS
 62
     5
 39
50.0
 10
-214.037911
 20
-55.0
 30
0.0
 11
214.092692
 21
-55.0
 31
0.0
  0
LINE
  5
50
  8
DETAIL
  6
CONTINUOUS
 62
     5
 39
50.0
 10
-222.472609
 20
-37.0
 30
0.0
 11
222.527391
 21
-37.0
 31
0.0
  0
TEXT
  5
51
  8
SIZE
  6
CONTINUOUS
 62
    30
 10
-19.85714285714286
 20
835.798339
 30
0.0
 40
64.0
  1
70
 41
0.9
 72
     1
 11
35.0
 21
835.798339
 31
0.0
  0
CIRCLE
  5
52
  8
SIZE
  6
CONTINUOUS
 62
    30
 10
0.0
 20
810.798339
 30
0.0
 40
6.0
  0
LINE
  5
53
  8
SIZE
  6
CONTINUOUS
 62
    30
 10
0.0
 20
810.798339
 30
0.0
 11
70.0
 21
810.798339
 31
0.0
  0
LINE
  5
54
  8
SIZE
  6
CONTINUOUS
 62
    30
 10
0.0
 20
567.299036
 30
0.0
 11
12.0
 21
567.299036
 31
0.0
  0
CIRCLE
  5
55
  8
SIZE
  6
CONTINUOUS
 62
    30
 10
0.0
 20
567.299036
 30
0.0
 40
6.0
  0
TEXT
  5
56
  8
SIZE
  6
CONTINUOUS
 62
    30
 10
-106.9440375714286
 20
-907.5545869999999
 30
0.0
 40
64.0
  1
□470
 41
0.9
 72
     1
 11
0.027391
 21
-907.5545869999999
 31
0.0
  0
LINE
  5
57
  8
SIZE
  6
CONTINUOUS
 62
    30
 10
-222.972609
 20
-932.5545869999999
 30
0.0
 11
223.027391
 21
-932.5545869999999
 31
0.0
  0
TEXT
  5
58
  8
SIZE
  6
CONTINUOUS
 62
    30
 10
-106.9440375714286
 20
-768.87534
 30
0.0
 40
64.0
  1
□445
 41
0.9
 72
     1
 11
0.027391
 21
-768.87534
 31
0.0
  0
LINE
  5
59
  8
SIZE
  6
CONTINUOUS
 62
    30
 10
-210.4726089999999
 20
-793.87534
 30
0.0
 11
210.5273909999999
 21
-793.87534
 31
0.0
  0
LINE
  5
5A
  8
SIZE
  6
CONTINUOUS
 62
    30
 10
0.0
 20
567.299036
 30
0.0
 11
12.0
 21
567.299036
 31
0.0
  0
CIRCLE
  5
5B
  8
SIZE
  6
CONTINUOUS
 62
    30
 10
0.0
 20
567.299036
 30
0.0
 40
6.0
  0
LINE
  5
5C
  8
DETAIL
  6
CONTINUOUS
 62
     5
 10
-234.972609
 20
0.0
 30
0.0
 11
235.027391
 21
0.0
 31
0.0
  0
CIRCLE
  5
5D
  8
SIZE
  6
CONTINUOUS
 62
    30
 10
0.0
 20
810.798339
 30
0.0
 40
6.0
  0
TEXT
  5
5E
  8
SIZE
  6
CONTINUOUS
 62
    30
 10
-106.9714285714286
 20
959.2006320000002
 30
0.0
 40
64.0
  1
□386
 41
0.9
 72
     1
 11
0.0
 21
959.2006320000002
 31
0.0
  0
LINE
  5
5F
  8
SIZE
  6
CONTINUOUS
 62
    30
 10
181.0
 20
934.2006320000002
 30
0.0
 11
-181.0
 21
934.2006320000002
 31
0.0
  0
LINE
  5
60
  8
DETAIL
  6
CONTINUOUS
 62
     5
 10
-53.0
 20
238.0
 30
0.0
 11
44.99999999999999
 21
238.0
 31
0.0
  0
LINE
  5
61
  8
SIZE
  6
CONTINUOUS
 62
    30
 10
32.99999999999999
 20
693.673358
 30
0.0
 11
-41.00000199999999
 21
693.673358
 31
0.0
  0
LINE
  5
62
  8
DETAIL
  6
CONTINUOUS
 62
     5
 10
-105.0
 20
230.0
 30
0.0
 11
44.99999999999999
 21
230.0
 31
0.0
  0
LINE
  5
63
  8
DETAIL
  6
CONTINUOUS
 62
     5
 10
-105.0
 20
223.0
 30
0.0
 11
44.99999999999999
 21
223.0
 31
0.0
  0
TEXT
  5
64
  8
SIZE
  6
CONTINUOUS
 62
    30
 10
-82.28571428571429
 20
-632.2135
 30
0.0
 40
64.0
  1
410
 41
0.9
 72
     1
 11
0.0
 21
-632.2135
 31
0.0
  0
LINE
  5
65
  8
SIZE
  6
CONTINUOUS
 62
    30
 10
-193.0
 20
-657.2135
 30
0.0
 11
193.0
 21
-657.2135
 31
0.0
  0
TEXT
  5
66
  8
SIZE
  6
CONTINUOUS
 62
    30
 10
-82.28571428571429
 20
-509.257837
 30
0.0
 40
64.0
  1
300
 41
0.9
 72
     1
 11
0.0
 21
-509.257837
 31
0.0
  0
LINE
  5
67
  8
SIZE
  6
CONTINUOUS
 62
    30
 10
-137.9999999999999
 20
-534.257837
 30
0.0
 11
138.0
 21
-534.257837
 31
0.0
  0
LINE
  5
68
  8
DETAIL
  6
CONTINUOUS
 62
     5
 10
39.952642
 20
278.0
 30
0.0
 11
-3.999999999999999
 21
278.0
 31
0.0
  0
LINE
  5
69
  8
OUTLINE
  6
CONTINUOUS
 62
     3
 10
-193.0
 20
0.0
 30
0.0
 11
-193.0
 21
230.0
 31
0.0
  0
LINE
  5
6A
  8
SIZE
  6
CONTINUOUS
 62
    30
 10
-734.1934469999999
 20
0.0
 30
0.0
 11
-734.1934469999999
 21
12.0
 31
0.0
  0
CIRCLE
  5
6B
  8
SIZE
  6
CONTINUOUS
 62
    30
 10
-734.1934469999999
 20
0.0
 30
0.0
 40
6.0
  0
LINE
  5
6C
  8
SIZE
  6
CONTINUOUS
 62
    30
 10
-734.1934469999999
 20
0.0
 30
0.0
 11
-734.1934469999999
 21
12.0
 31
0.0
  0
CIRCLE
  5
6D
  8
SIZE
  6
CONTINUOUS
 62
    30
 10
-734.1934469999999
 20
0.0
 30
0.0
 40
6.0
  0
LINE
  5
6E
  8
NOTE
  6
CONTINUOUS
 62
     4
 10
-204.986013
 20
0.079984
 30
0.0
 11
-230.6541819999999
 21
-30.59810399999999
 31
0.0
  0
LINE
  5
6F
  8
NOTE
  6
CONTINUOUS
 62
     4
 10
-211.876255
 20
-39.322104
 30
0.0
 11
-204.986013
 21
0.079984
 31
0.0
  0
LINE
  5
70
  8
NOTE
  6
CONTINUOUS
 62
     4
 10
-204.988525
 20
0.025614
 30
0.0
 11
-287.053336
 21
-183.154806
 31
0.0
  0
LINE
  5
71
  8
NOTE
  6
CONTINUOUS
 62
     4
 10
-205.0
 20
-20.0
 30
0.0
 11
-205.0
 21
20.0
 31
0.0
  0
LINE
  5
72
  8
NOTE
  6
CONTINUOUS
 62
     4
 10
-149.9999999999999
 20
-20.0
 30
0.0
 11
-149.9999999999999
 21
20.0
 31
0.0
  0
CIRCLE
  5
73
  8
FIX
  6
CONTINUOUS
 62
    11
 10
-149.9999999999999
 20
0.0
 30
0.0
 40
2.5
  0
CIRCLE
  5
74
  8
FIX
  6
CONTINUOUS
 62
    11
 10
-205.0
 20
0.0
 30
0.0
 40
2.5
  0
LINE
  5
75
  8
DETAIL
  6
CONTINUOUS
 62
     5
 10
-193.0
 20
0.0
 30
0.0
 11
-193.0
 21
230.0
 31
0.0
  0
LINE
  5
76
  8
BASIS
  6
DASHDOT
 62
     6
 10
0.0
 20
-102.6525499999999
 30
0.0
 11
0.0
 21
328.4768099999999
 31
0.0
  0
LINE
  5
77
  8
SIZE
  6
CONTINUOUS
 62
    30
 10
-234.0379109999999
 20
-55.0
 30
0.0
 11
-754.1934469999999
 21
-55.0
 31
0.0
  0
LINE
  5
78
  8
SIZE
  6
CONTINUOUS
 62
    30
 10
-254.972609
 20
0.0
 30
0.0
 11
-754.1934469999999
 21
0.0
 31
0.0
  0
LINE
  5
79
  8
SIZE
  6
CONTINUOUS
 62
    30
 10
-255.0
 20
0.0
 30
0.0
 11
-754.1934469999999
 21
0.0
 31
0.0
  0
LINE
  5
7A
  8
NOTE
  6
CONTINUOUS
 62
     4
 10
-287.053336
 20
-183.154806
 30
0.0
 11
-676.032855
 21
-183.154806
 31
0.0
  0
TEXT
  5
7B
  8
NOTE
  6
CONTINUOUS
 62
     4
 10
-654.6045310000001
 20
-150.190535
 30
0.0
 40
64.0
  1
8-φ5×8
 41
0.9
  0
TEXT
  5
7C
  8
SIZE
  6
CONTINUOUS
 62
    30
 10
-759.1934469999999
 20
-214.1285718571429
 30
0.0
 40
64.0
  1
55
 50
90.0
 41
0.9
 72
     1
 11
-759.1934469999999
 21
-159.271429
 31
0.0
  0
LINE
  5
7D
  8
SIZE
  6
CONTINUOUS
 62
    30
 10
-734.1934469999999
 20
-67.0
 30
0.0
 11
-734.1934469999999
 21
-230.9
 31
0.0
  0
LINE
  5
7E
  8
SIZE
  6
CONTINUOUS
 62
    30
 10
-734.1934469999999
 20
-55.0
 30
0.0
 11
-734.1934469999999
 21
-67.0
 31
0.0
  0
CIRCLE
  5
7F
  8
SIZE
  6
CONTINUOUS
 62
    30
 10
-734.1934469999999
 20
-55.0
 30
0.0
 40
6.0
  0
LINE
  5
80
  8
SIZE
  6
CONTINUOUS
 62
    30
 10
-734.1934469999999
 20
0.0
 30
0.0
 11
-734.1934469999999
 21
-55.0
 31
0.0
  0
LINE
  5
81
  8
SIZE
  6
CONTINUOUS
 62
    30
 10
-234.972609
 20
-20.0
 30
0.0
 11
-234.972609
 21
-952.554587
 31
0.0
  0
LINE
  5
82
  8
SIZE
  6
CONTINUOUS
 62
    30
 10
-222.472609
 20
-57.0
 30
0.0
 11
-222.472609
 21
-813.87534
 31
0.0
  0
CIRCLE
  5
83
  8
SIZE
  6
CONTINUOUS
 62
    30
 10
-205.0
 20
-657.2135
 30
0.0
 40
6.0
  0
LINE
  5
84
  8
SIZE
  6
CONTINUOUS
 62
    30
 10
-205.0
 20
-40.0
 30
0.0
 11
-205.0
 21
-677.2135
 31
0.0
  0
LINE
  5
85
  8
SIZE
  6
CONTINUOUS
 62
    30
 10
-234.972609
 20
-932.5545869999999
 30
0.0
 11
-222.972609
 21
-932.5545869999999
 31
0.0
  0
CIRCLE
  5
86
  8
SIZE
  6
CONTINUOUS
 62
    30
 10
-234.972609
 20
-932.5545869999999
 30
0.0
 40
6.0
  0
LINE
  5
87
  8
SIZE
  6
CONTINUOUS
 62
    30
 10
-222.472609
 20
-793.87534
 30
0.0
 11
-210.4726089999999
 21
-793.87534
 31
0.0
  0
CIRCLE
  5
88
  8
SIZE
  6
CONTINUOUS
 62
    30
 10
-222.472609
 20
-793.87534
 30
0.0
 40
6.0
  0
LINE
  5
89
  8
SIZE
  6
CONTINUOUS
 62
    30
 10
-205.0
 20
-657.2135
 30
0.0
 11
-193.0
 21
-657.2135
 31
0.0
  0
ARC
  5
8A
  8
DETAIL
  6
CONTINUOUS
 62
     5
 10
-231.156808
 20
-11.0
 30
0.0
 40
3.0
 50
187.4999999999998
 51
270.0
  0
LINE
  5
8B
  8
DETAIL
  6
CONTINUOUS
 62
     5
 10
-234.972609
 20
0.0
 30
0.0
 11
-234.972609
 21
-1.0
 31
0.0
  0
LINE
  5
8C
  8
DETAIL
  6
CONTINUOUS
 62
     5
 10
-234.972609
 20
-1.0
 30
0.0
 11
-234.131142
 21
-11.391579
 31
0.0
  0
LINE
  5
8D
  8
SIZE
  6
CONTINUOUS
 62
    30
 10
-149.9999999999999
 20
-40.0
 30
0.0
 11
-149.9999999999999
 21
-554.257837
 31
0.0
  0
LINE
  5
8E
  8
SIZE
  6
CONTINUOUS
 62
    30
 10
-149.9999999999999
 20
-534.257837
 30
0.0
 11
-137.9999999999999
 21
-534.257837
 31
0.0
  0
CIRCLE
  5
8F
  8
SIZE
  6
CONTINUOUS
 62
    30
 10
-149.9999999999999
 20
-534.257837
 30
0.0
 40
6.0
  0
LINE
  5
90
  8
DETAIL
  6
CONTINUOUS
 62
     5
 10
-199.75
 20
-14.0
 30
0.0
 11
-199.75
 21
-37.0
 31
0.0
  0
LINE
  5
91
  8
DETAIL
  6
CONTINUOUS
 62
     5
 10
-191.9999999999999
 20
-14.0
 30
0.0
 11
-191.9999999999999
 21
-37.0
 31
0.0
  0
LINE
  5
92
  8
DETAIL
  6
CONTINUOUS
 62
     5
 10
-222.472609
 20
-37.0
 30
0.0
 11
-222.472609
 21
-38.73796099999999
 31
0.0
  0
LINE
  5
93
  8
DETAIL
  6
CONTINUOUS
 62
     5
 10
-222.472609
 20
-37.0
 30
0.0
 11
-222.472609
 21
-38.0
 31
0.0
  0
LINE
  5
94
  8
DETAIL
  6
CONTINUOUS
 62
     5
 10
-222.472609
 20
-37.0
 30
0.0
 11
-222.472609
 21
-38.0
 31
0.0
  0
LINE
  5
95
  8
DETAIL
  6
CONTINUOUS
 62
     5
 10
-222.472609
 20
-37.0
 30
0.0
 11
-222.472609
 21
-38.73796099999999
 31
0.0
  0
ARC
  5
96
  8
DETAIL
  6
CONTINUOUS
 62
     5
 10
-214.037911
 20
-47.5
 30
0.0
 40
7.5
 50
185.9999999999999
 51
270.0
  0
LINE
  5
97
  8
DETAIL
  6
CONTINUOUS
 62
     5
 10
-222.445219
 20
-39.260603
 30
0.0
 11
-222.472609
 21
-39.0
 31
0.0
  0
LINE
  5
98
  8
DETAIL
  6
CONTINUOUS
 62
     5
 10
-222.472609
 20
-38.73796099999999
 30
0.0
 11
-222.472609
 21
-39.0
 31
0.0
  0
ARC
  5
99
  8
DETAIL
  6
CONTINUOUS
 62
     5
 10
-217.472609
 20
-38.73796099999999
 30
0.0
 40
5.0
 50
180.0
 51
186.0
  0
LINE
  5
9A
  8
DETAIL
  6
CONTINUOUS
 62
     5
 10
-221.4968259999999
 20
-48.283963
 30
0.0
 11
-222.445219
 21
-39.260603
 31
0.0
  0
LINE
  5
9B
  8
DETAIL
  6
CONTINUOUS
 62
     5
 10
-221.4968259999999
 20
-48.283963
 30
0.0
 11
-222.445219
 21
-39.260603
 31
0.0
  0
ARC
  5
9C
  8
DETAIL
  6
CONTINUOUS
 62
     5
 10
-217.472609
 20
-38.73796099999999
 30
0.0
 40
5.0
 50
180.0
 51
186.0
  0
LINE
  5
9D
  8
DETAIL
  6
CONTINUOUS
 62
     5
 10
-222.472609
 20
-38.73796099999999
 30
0.0
 11
-222.472609
 21
-39.0
 31
0.0
  0
LINE
  5
9E
  8
DETAIL
  6
CONTINUOUS
 62
     5
 10
-222.445219
 20
-39.260603
 30
0.0
 11
-222.472609
 21
-39.0
 31
0.0
  0
ARC
  5
9F
  8
DETAIL
  6
CONTINUOUS
 62
     5
 10
-214.037911
 20
-47.5
 30
0.0
 40
7.5
 50
185.9999999999999
 51
270.0
  0
LINE
  5
A0
  8
DETAIL
  6
CONTINUOUS
 62
     5
 10
-204.25
 20
-14.0
 30
0.0
 11
-204.25
 21
-37.0
 31
0.0
  0
LINE
  5
A1
  8
DETAIL
  6
CONTINUOUS
 62
     5
 10
-211.9999999999999
 20
-14.0
 30
0.0
 11
-211.9999999999999
 21
-37.0
 31
0.0
  0
LINE
  5
A2
  8
DETAIL
  6
CONTINUOUS
 62
     5
 10
-201.9999999999999
 20
-14.0
 30
0.0
 11
-201.9999999999999
 21
-37.0
 31
0.0
  0
LINE
  5
A3
  8
NOTE
  6
CONTINUOUS
 62
     4
 10
-185.0
 20
0.0
 30
0.0
 11
-225.0
 21
0.0
 31
0.0
  0
LINE
  5
A4
  8
NOTE
  6
CONTINUOUS
 62
     4
 10
-130.0
 20
0.0
 30
0.0
 11
-169.9999999999999
 21
0.0
 31
0.0
  0
LINE
  5
A5
  8
DETAIL
  6
CONTINUOUS
 62
     5
 10
-2.472609
 20
-37.0
 30
0.0
 11
-2.472609
 21
-14.0
 31
0.0
  0
LINE
  5
A6
  8
DETAIL
  6
CONTINUOUS
 62
     5
 10
-19.972609
 20
-37.0
 30
0.0
 11
-19.972609
 21
-14.0
 31
0.0
  0
LINE
  5
A7
  8
NOTE
  6
CONTINUOUS
 62
     4
 10
-419.2771659999999
 20
433.1373029999999
 30
0.0
 11
-1087.696949
 21
433.1373029999999
 31
0.0
  0
TEXT
  5
A8
  8
NOTE
  6
CONTINUOUS
 62
     4
 10
-1069.647949
 20
476.394724
 30
0.0
 40
64.0
  1
AH 4-φ15×22
 41
0.9
  0
LINE
  5
A9
  8
SIZE
  6
CONTINUOUS
 62
    30
 10
0.0
 20
348.47681
 30
0.0
 11
0.0
 21
830.798339
 31
0.0
  0
TEXT
  5
AA
  8
SIZE
  6
CONTINUOUS
 62
    30
 10
-310.0157678571429
 20
592.299036
 30
0.0
 40
64.0
  1
70
 41
0.9
 72
     1
 11
-255.158625
 21
592.299036
 31
0.0
  0
LINE
  5
AB
  8
SIZE
  6
CONTINUOUS
 62
    30
 10
-130.0
 20
278.0
 30
0.0
 11
-130.0
 21
830.798339
 31
0.0
  0
LINE
  5
AC
  8
SIZE
  6
CONTINUOUS
 62
    30
 10
0.0
 20
346.0
 30
0.0
 11
0.0
 21
830.798339
 31
0.0
  0
LINE
  5
AD
  8
SIZE
  6
CONTINUOUS
 62
    30
 10
-193.0
 20
250.0
 30
0.0
 11
-193.0
 21
954.200632
 31
0.0
  0
LINE
  5
AE
  8
SIZE
  6
CONTINUOUS
 62
    30
 10
-53.00000199999999
 20
292.940014
 30
0.0
 11
-53.00000199999999
 21
713.673358
 31
0.0
  0
LINE
  5
AF
  8
SIZE
  6
CONTINUOUS
 62
    30
 10
-67.94000000000001
 20
278.000016
 30
0.0
 11
-754.1934469999999
 21
278.000016
 31
0.0
  0
TEXT
  5
B0
  8
SIZE
  6
CONTINUOUS
 62
    30
 10
-759.1934469999999
 20
56.71429371428572
 30
0.0
 40
64.0
  1
278
 50
90.0
 41
0.9
 72
     1
 11
-759.1934469999999
 21
139.000008
 31
0.0
  0
LINE
  5
B1
  8
SIZE
  6
CONTINUOUS
 62
    30
 10
-734.1934469999999
 20
12.0
 30
0.0
 11
-734.1934469999999
 21
266.000016
 31
0.0
  0
LINE
  5
B2
  8
SIZE
  6
CONTINUOUS
 62
    30
 10
-734.1934469999999
 20
12.0
 30
0.0
 11
-734.1934469999999
 21
24.0
 31
0.0
  0
LINE
  5
B3
  8
SIZE
  6
CONTINUOUS
 62
    30
 10
-734.1934469999999
 20
278.000016
 30
0.0
 11
-734.1934469999999
 21
266.000016
 31
0.0
  0
CIRCLE
  5
B4
  8
SIZE
  6
CONTINUOUS
 62
    30
 10
-734.1934469999999
 20
278.000016
 30
0.0
 40
6.0
  0
LINE
  5
B5
  8
SIZE
  6
CONTINUOUS
 62
    30
 10
-70.0
 20
278.0
 30
0.0
 11
-70.0
 21
587.299036
 31
0.0
  0
LINE
  5
B6
  8
NOTE
  6
CONTINUOUS
 62
     4
 10
-130.0
 20
237.0
 30
0.0
 11
-419.2771659999999
 21
433.1373029999999
 31
0.0
  0
LINE
  5
B7
  8
DETAIL
  6
CONTINUOUS
 62
     5
 10
-105.0
 20
37.0
 30
0.0
 11
-105.0
 21
237.0
 31
0.0
  0
LINE
  5
B8
  8
DETAIL
  6
CONTINUOUS
 62
     5
 10
-155.0
 20
37.0
 30
0.0
 11
-155.0
 21
237.0
 31
0.0
  0
LINE
  5
B9
  8
DETAIL
  6
CONTINUOUS
 62
     5
 10
-155.0
 20
37.0
 30
0.0
 11
-105.0
 21
37.0
 31
0.0
  0
LINE
  5
BA
  8
BASIS
  6
DASHDOT
 62
     6
 10
-84.49999999999999
 20
4.135851999999999
 30
0.0
 11
-84.49999999999999
 21
31.86414799999999
 31
0.0
  0
ARC
  5
BB
  8
DETAIL
  6
CONTINUOUS
 62
     5
 10
-73.99999999999999
 20
17.89831099999999
 30
0.0
 40
7.0
 50
270.0
 51
90.0
  0
ARC
  5
BC
  8
DETAIL
  6
CONTINUOUS
 62
     5
 10
-73.99999999999999
 20
17.89831099999999
 30
0.0
 40
10.0
 50
270.0
 51
90.0
  0
ARC
  5
BD
  8
DETAIL
  6
CONTINUOUS
 62
     5
 10
-95.0
 20
17.89831099999999
 30
0.0
 40
10.0
 50
90.0
 51
270.0
  0
ARC
  5
BE
  8
DETAIL
  6
CONTINUOUS
 62
     5
 10
-95.0
 20
17.89831099999999
 30
0.0
 40
7.0
 50
90.0
 51
270.0
  0
LINE
  5
BF
  8
DETAIL
  6
CONTINUOUS
 62
     5
 10
-95.0
 20
24.89831099999999
 30
0.0
 11
-73.99999999999999
 21
24.89831099999999
 31
0.0
  0
LINE
  5
C0
  8
DETAIL
  6
CONTINUOUS
 62
     5
 10
-95.0
 20
27.898311
 30
0.0
 11
-73.99999999999999
 21
27.898311
 31
0.0
  0
LINE
  5
C1
  8
DETAIL
  6
CONTINUOUS
 62
     5
 10
-95.0
 20
7.898310999999998
 30
0.0
 11
-73.99999999999999
 21
7.898310999999998
 31
0.0
  0
LINE
  5
C2
  8
DETAIL
  6
CONTINUOUS
 62
     5
 10
-73.99999999999999
 20
10.898311
 30
0.0
 11
-95.0
 21
10.898311
 31
0.0
  0
LINE
  5
C3
  8
BASIS
  6
DASHDOT
 62
     6
 10
-110.105332
 20
17.89831099999999
 30
0.0
 11
-59.856544
 21
17.89831099999999
 31
0.0
  0
LINE
  5
C4
  8
DETAIL
  6
CONTINUOUS
 62
     5
 10
-155.0
 20
237.0
 30
0.0
 11
-105.0
 21
237.0
 31
0.0
  0
LINE
  5
C5
  8
DETAIL
  6
CONTINUOUS
 62
     5
 10
-155.0
 20
237.0
 30
0.0
 11
-105.0
 21
237.0
 31
0.0
  0
LINE
  5
C6
  8
DETAIL
  6
CONTINUOUS
 62
     5
 10
-155.0
 20
233.4999999999999
 30
0.0
 11
-105.0
 21
233.4999999999999
 31
0.0
  0
LINE
  5
C7
  8
NOTE
  6
CONTINUOUS
 62
     4
 10
-110.0
 20
237.0
 30
0.0
 11
-149.9999999999999
 21
237.0
 31
0.0
  0
LINE
  5
C8
  8
NOTE
  6
CONTINUOUS
 62
     4
 10
-130.0
 20
237.0
 30
0.0
 11
-155.8650939999999
 21
268.512242
 31
0.0
  0
LINE
  5
C9
  8
NOTE
  6
CONTINUOUS
 62
     4
 10
-167.6559489999999
 20
251.49183
 30
0.0
 11
-130.0
 21
237.0
 31
0.0
  0
LINE
  5
CA
  8
NOTE
  6
CONTINUOUS
 62
     4
 10
-130.0
 20
218.0
 30
0.0
 11
-130.0
 21
258.0
 31
0.0
  0
LINE
  5
CB
  8
DETAIL
  6
CONTINUOUS
 62
     5
 10
-193.0
 20
223.0
 30
0.0
 11
-155.0
 21
223.0
 31
0.0
  0
LINE
  5
CC
  8
DETAIL
  6
CONTINUOUS
 62
     5
 10
-193.0
 20
230.0
 30
0.0
 11
-155.0
 21
230.0
 31
0.0
  0
CIRCLE
  5
CD
  8
FIX
  6
CONTINUOUS
 62
    11
 10
-130.0
 20
237.0
 30
0.0
 40
7.5
  0
LINE
  5
CE
  8
NOTE
  6
CONTINUOUS
 62
     4
 10
-70.0
 20
218.0
 30
0.0
 11
-70.0
 21
258.0
 31
0.0
  0
LINE
  5
CF
  8
DETAIL
  6
CONTINUOUS
 62
     5
 10
-53.00000199999999
 20
230.0
 30
0.0
 11
-53.00000199999999
 21
272.940014
 31
0.0
  0
LINE
  5
D0
  8
DETAIL
  6
CONTINUOUS
 62
     5
 10
-95.0
 20
233.4999999999999
 30
0.0
 11
-53.00000199999999
 21
233.4999999999999
 31
0.0
  0
LINE
  5
D1
  8
DETAIL
  6
CONTINUOUS
 62
     5
 10
-95.0
 20
237.0
 30
0.0
 11
-53.00000199999999
 21
237.0
 31
0.0
  0
LINE
  5
D2
  8
DETAIL
  6
CONTINUOUS
 62
     5
 10
-95.0
 20
237.0
 30
0.0
 11
-53.00000199999999
 21
237.0
 31
0.0
  0
LINE
  5
D3
  8
NOTE
  6
CONTINUOUS
 62
     4
 10
-50.0
 20
237.0
 30
0.0
 11
-89.99999999999997
 21
237.0
 31
0.0
  0
CIRCLE
  5
D4
  8
FIX
  6
CONTINUOUS
 62
    11
 10
-70.0
 20
237.0
 30
0.0
 40
7.5
  0
LINE
  5
D5
  8
DETAIL
  6
CONTINUOUS
 62
     5
 10
-95.0
 20
230.0
 30
0.0
 11
-95.0
 21
237.0
 31
0.0
  0
ARC
  5
D6
  8
DETAIL
  6
CONTINUOUS
 62
     5
 10
-47.93999999999999
 20
272.940014
 30
0.0
 40
5.060001999999999
 50
90.0
 51
179.9999987925817
  0
LINE
  5
D7
  8
DETAIL
  6
CONTINUOUS
 62
     5
 10
-47.952642
 20
278.0
 30
0.0
 11
-3.999999999999999
 21
278.0
 31
0.0
  0
LINE
  5
D8
  8
SIZE
  6
CONTINUOUS
 62
    30
 10
-81.99999999999999
 20
567.299036
 30
0.0
 11
-326.787197
 21
567.299036
 31
0.0
  0
LINE
  5
D9
  8
SIZE
  6
CONTINUOUS
 62
    30
 10
0.0
 20
348.47681
 30
0.0
 11
0.0
 21
587.299036
 31
0.0
  0
LINE
  5
DA
  8
SIZE
  6
CONTINUOUS
 62
    30
 10
0.0
 20
348.47681
 30
0.0
 11
0.0
 21
587.299036
 31
0.0
  0
LINE
  5
DB
  8
SIZE
  6
CONTINUOUS
 62
    30
 10
0.0
 20
348.47681
 30
0.0
 11
0.0
 21
452.911
 31
0.0
  0
LINE
  5
DC
  8
SIZE
  6
CONTINUOUS
 62
    30
 10
0.0
 20
346.0
 30
0.0
 11
0.0
 21
452.911
 31
0.0
  0
LINE
  5
DD
  8
SIZE
  6
CONTINUOUS
 62
    30
 10
0.0
 20
567.299036
 30
0.0
 11
-70.0
 21
567.299036
 31
0.0
  0
LINE
  5
DE
  8
SIZE
  6
CONTINUOUS
 62
    30
 10
-70.0
 20
567.299036
 30
0.0
 11
-81.99999999999999
 21
567.299036
 31
0.0
  0
CIRCLE
  5
DF
  8
SIZE
  6
CONTINUOUS
 62
    30
 10
-70.0
 20
567.299036
 30
0.0
 40
6.0
  0
TEXT
  5
E0
  8
SIZE
  6
CONTINUOUS
 62
    30
 10
-378.069015
 20
835.798339
 30
0.0
 40
64.0
  1
130
 41
0.9
 72
     1
 11
-291.669015
 21
835.798339
 31
0.0
  0
LINE
  5
E1
  8
SIZE
  6
CONTINUOUS
 62
    30
 10
-130.0
 20
810.798339
 30
0.0
 11
-385.240443
 21
810.798339
 31
0.0
  0
LINE
  5
E2
  8
SIZE
  6
CONTINUOUS
 62
    30
 10
-53.00000199999999
 20
693.673358
 30
0.0
 11
-410.374364
 21
693.673358
 31
0.0
  0
TEXT
  5
E3
  8
SIZE
  6
CONTINUOUS
 62
    30
 10
-389.4886491428571
 20
718.673358
 30
0.0
 40
64.0
  1
φ98
 41
0.9
 72
     1
 11
-309.945792
 21
718.673358
 31
0.0
  0
LINE
  5
E4
  8
SIZE
  6
CONTINUOUS
 62
    30
 10
-12.0
 20
810.798339
 30
0.0
 11
-117.9999999999999
 21
810.798339
 31
0.0
  0
LINE
  5
E5
  8
SIZE
  6
CONTINUOUS
 62
    30
 10
-130.0
 20
810.798339
 30
0.0
 11
-117.9999999999999
 21
810.798339
 31
0.0
  0
CIRCLE
  5
E6
  8
SIZE
  6
CONTINUOUS
 62
    30
 10
-130.0
 20
810.798339
 30
0.0
 40
6.0
  0
CIRCLE
  5
E7
  8
SIZE
  6
CONTINUOUS
 62
    30
 10
-53.00000199999999
 20
693.673358
 30
0.0
 40
6.0
  0
LINE
  5
E8
  8
SIZE
  6
CONTINUOUS
 62
    30
 10
-53.00000199999999
 20
693.673358
 30
0.0
 11
-41.00000199999999
 21
693.673358
 31
0.0
  0
LINE
  5
E9
  8
SIZE
  6
CONTINUOUS
 62
    30
 10
0.0
 20
810.798339
 30
0.0
 11
-12.0
 21
810.798339
 31
0.0
  0
LINE
  5
EA
  8
SIZE
  6
CONTINUOUS
 62
    30
 10
-12.0
 20
810.798339
 30
0.0
 11
-24.0
 21
810.798339
 31
0.0
  0
LINE
  5
EB
  8
SIZE
  6
CONTINUOUS
 62
    30
 10
0.0
 20
810.798339
 30
0.0
 11
-12.0
 21
810.798339
 31
0.0
  0
LINE
  5
EC
  8
SIZE
  6
CONTINUOUS
 62
    30
 10
-193.0
 20
934.2006320000002
 30
0.0
 11
-181.0
 21
934.2006320000002
 31
0.0
  0
CIRCLE
  5
ED
  8
SIZE
  6
CONTINUOUS
 62
    30
 10
-193.0
 20
934.2006320000002
 30
0.0
 40
6.0
  0
LINE
  5
EE
  8
OUTLINE
  6
CONTINUOUS
 62
     3
 10
193.0
 20
0.0
 30
0.0
 11
193.0
 21
230.0
 31
0.0
  0
LINE
  5
EF
  8
DETAIL
  6
CONTINUOUS
 62
     5
 10
198.25
 20
80.0
 30
0.0
 11
198.25
 21
0.0
 31
0.0
  0
LINE
  5
F0
  8
DETAIL
  6
CONTINUOUS
 62
     5
 10
194.75
 20
256.0
 30
0.0
 11
194.75
 21
0.0
 31
0.0
  0
LINE
  5
F1
  8
DETAIL
  6
CONTINUOUS
 62
     5
 10
193.0
 20
0.0
 30
0.0
 11
193.0
 21
256.0
 31
0.0
  0
LINE
  5
F2
  8
NOTE
  6
CONTINUOUS
 62
     4
 10
150.0
 20
-20.0
 30
0.0
 11
150.0
 21
20.0
 31
0.0
  0
CIRCLE
  5
F3
  8
FIX
  6
CONTINUOUS
 62
    11
 10
150.0
 20
0.0
 30
0.0
 40
2.5
  0
CIRCLE
  5
F4
  8
FIX
  6
CONTINUOUS
 62
    11
 10
205.0
 20
0.0
 30
0.0
 40
2.5
  0
LINE
  5
F5
  8
NOTE
  6
CONTINUOUS
 62
     4
 10
205.0
 20
-20.0
 30
0.0
 11
205.0
 21
20.0
 31
0.0
  0
LINE
  5
F6
  8
DETAIL
  6
CONTINUOUS
 62
     5
 10
193.0
 20
0.0
 30
0.0
 11
193.0
 21
200.0
 31
0.0
  0
LINE
  5
F7
  8
SIZE
  6
CONTINUOUS
 62
    30
 10
235.027391
 20
-20.0
 30
0.0
 11
235.027391
 21
-952.554587
 31
0.0
  0
LINE
  5
F8
  8
SIZE
  6
CONTINUOUS
 62
    30
 10
222.527391
 20
-57.0
 30
0.0
 11
222.527391
 21
-813.87534
 31
0.0
  0
CIRCLE
  5
F9
  8
SIZE
  6
CONTINUOUS
 62
    30
 10
205.0
 20
-657.2135
 30
0.0
 40
6.0
  0
LINE
  5
FA
  8
SIZE
  6
CONTINUOUS
 62
    30
 10
205.0
 20
-40.0
 30
0.0
 11
205.0
 21
-677.2135
 31
0.0
  0
LINE
  5
FB
  8
SIZE
  6
CONTINUOUS
 62
    30
 10
235.027391
 20
-932.5545869999999
 30
0.0
 11
223.027391
 21
-932.5545869999999
 31
0.0
  0
CIRCLE
  5
FC
  8
SIZE
  6
CONTINUOUS
 62
    30
 10
235.027391
 20
-932.5545869999999
 30
0.0
 40
6.0
  0
LINE
  5
FD
  8
SIZE
  6
CONTINUOUS
 62
    30
 10
222.527391
 20
-793.87534
 30
0.0
 11
210.5273909999999
 21
-793.87534
 31
0.0
  0
CIRCLE
  5
FE
  8
SIZE
  6
CONTINUOUS
 62
    30
 10
222.527391
 20
-793.87534
 30
0.0
 40
6.0
  0
LINE
  5
FF
  8
SIZE
  6
CONTINUOUS
 62
    30
 10
205.0
 20
-657.2135
 30
0.0
 11
193.0
 21
-657.2135
 31
0.0
  0
ARC
  5
100
  8
DETAIL
  6
CONTINUOUS
 62
     5
 10
231.211589
 20
-11.0
 30
0.0
 40
3.0
 50
270.0
 51
352.4999999999999
  0
LINE
  5
101
  8
SIZE
  6
CONTINUOUS
 62
    30
 10
150.0
 20
-40.0
 30
0.0
 11
150.0
 21
-554.257837
 31
0.0
  0
LINE
  5
102
  8
SIZE
  6
CONTINUOUS
 62
    30
 10
150.0
 20
-534.257837
 30
0.0
 11
138.0
 21
-534.257837
 31
0.0
  0
CIRCLE
  5
103
  8
SIZE
  6
CONTINUOUS
 62
    30
 10
150.0
 20
-534.257837
 30
0.0
 40
6.0
  0
LINE
  5
104
  8
DETAIL
  6
CONTINUOUS
 62
     5
 10
0.027391
 20
-37.0
 30
0.0
 11
0.027391
 21
-14.0
 31
0.0
  0
LINE
  5
105
  8
DETAIL
  6
CONTINUOUS
 62
     5
 10
2.527391
 20
-37.0
 30
0.0
 11
2.527391
 21
-14.0
 31
0.0
  0
LINE
  5
106
  8
DETAIL
  6
CONTINUOUS
 62
     5
 10
8.027391
 20
-37.0
 30
0.0
 11
8.027391
 21
-14.0
 31
0.0
  0
LINE
  5
107
  8
NOTE
  6
CONTINUOUS
 62
     4
 10
130.0
 20
0.0
 30
0.0
 11
170.0
 21
0.0
 31
0.0
  0
LINE
  5
108
  8
DETAIL
  6
CONTINUOUS
 62
     5
 10
222.527391
 20
-37.0
 30
0.0
 11
222.527391
 21
-38.0
 31
0.0
  0
LINE
  5
109
  8
DETAIL
  6
CONTINUOUS
 62
     5
 10
222.527391
 20
-37.0
 30
0.0
 11
222.527391
 21
-38.73796099999999
 31
0.0
  0
LINE
  5
10A
  8
DETAIL
  6
CONTINUOUS
 62
     5
 10
222.527391
 20
-37.0
 30
0.0
 11
222.527391
 21
-38.73796099999999
 31
0.0
  0
LINE
  5
10B
  8
DETAIL
  6
CONTINUOUS
 62
     5
 10
222.527391
 20
-37.0
 30
0.0
 11
222.527391
 21
-38.0
 31
0.0
  0
LINE
  5
10C
  8
DETAIL
  6
CONTINUOUS
 62
     5
 10
221.551607
 20
-48.283963
 30
0.0
 11
222.5
 21
-39.260603
 31
0.0
  0
LINE
  5
10D
  8
DETAIL
  6
CONTINUOUS
 62
     5
 10
222.527391
 20
-38.73796099999999
 30
0.0
 11
222.527391
 21
-39.0
 31
0.0
  0
LINE
  5
10E
  8
DETAIL
  6
CONTINUOUS
 62
     5
 10
222.5
 20
-39.260603
 30
0.0
 11
222.527391
 21
-39.0
 31
0.0
  0
ARC
  5
10F
  8
DETAIL
  6
CONTINUOUS
 62
     5
 10
214.092692
 20
-47.5
 30
0.0
 40
7.5
 50
270.0
 51
354.0
  0
ARC
  5
110
  8
DETAIL
  6
CONTINUOUS
 62
     5
 10
214.092692
 20
-47.5
 30
0.0
 40
7.5
 50
270.0
 51
354.0
  0
LINE
  5
111
  8
DETAIL
  6
CONTINUOUS
 62
     5
 10
222.5
 20
-39.260603
 30
0.0
 11
222.527391
 21
-39.0
 31
0.0
  0
LINE
  5
112
  8
DETAIL
  6
CONTINUOUS
 62
     5
 10
222.527391
 20
-38.73796099999999
 30
0.0
 11
222.527391
 21
-39.0
 31
0.0
  0
LINE
  5
113
  8
DETAIL
  6
CONTINUOUS
 62
     5
 10
221.551607
 20
-48.283963
 30
0.0
 11
222.5
 21
-39.260603
 31
0.0
  0
LINE
  5
114
  8
DETAIL
  6
CONTINUOUS
 62
     5
 10
211.9999999999999
 20
-14.0
 30
0.0
 11
211.9999999999999
 21
-37.0
 31
0.0
  0
LINE
  5
115
  8
DETAIL
  6
CONTINUOUS
 62
     5
 10
202.0
 20
-14.0
 30
0.0
 11
202.0
 21
-37.0
 31
0.0
  0
LINE
  5
116
  8
DETAIL
  6
CONTINUOUS
 62
     5
 10
199.75
 20
-14.0
 30
0.0
 11
199.75
 21
-37.0
 31
0.0
  0
LINE
  5
117
  8
DETAIL
  6
CONTINUOUS
 62
     5
 10
192.0
 20
-14.0
 30
0.0
 11
192.0
 21
-37.0
 31
0.0
  0
LINE
  5
118
  8
DETAIL
  6
CONTINUOUS
 62
     5
 10
204.25
 20
-14.0
 30
0.0
 11
204.25
 21
-37.0
 31
0.0
  0
LINE
  5
119
  8
NOTE
  6
CONTINUOUS
 62
     4
 10
185.0
 20
0.0
 30
0.0
 11
225.0
 21
0.0
 31
0.0
  0
LINE
  5
11A
  8
DETAIL
  6
CONTINUOUS
 62
     5
 10
235.027391
 20
0.0
 30
0.0
 11
235.027391
 21
-1.0
 31
0.0
  0
LINE
  5
11B
  8
DETAIL
  6
CONTINUOUS
 62
     5
 10
235.027391
 20
-1.0
 30
0.0
 11
234.185923
 21
-11.391579
 31
0.0
  0
CIRCLE
  5
11C
  8
SIZE
  6
CONTINUOUS
 62
    30
 10
924.096354
 20
238.0
 30
0.0
 40
6.0
  0
CIRCLE
  5
11D
  8
SIZE
  6
CONTINUOUS
 62
    30
 10
924.096354
 20
86.0
 30
0.0
 40
6.0
  0
LINE
  5
11E
  8
SIZE
  6
CONTINUOUS
 62
    30
 10
328.0
 20
86.0
 30
0.0
 11
944.096354
 21
86.0
 31
0.0
  0
LINE
  5
11F
  8
SIZE
  6
CONTINUOUS
 62
    30
 10
328.0
 20
238.0
 30
0.0
 11
944.096354
 21
238.0
 31
0.0
  0
LINE
  5
120
  8
SIZE
  6
CONTINUOUS
 62
    30
 10
70.0
 20
278.0
 30
0.0
 11
70.0
 21
830.798339
 31
0.0
  0
TEXT
  5
121
  8
SIZE
  6
CONTINUOUS
 62
    30
 10
361.608995
 20
592.299036
 30
0.0
 40
64.0
  1
130
 41
0.9
 72
     1
 11
448.008995
 21
592.299036
 31
0.0
  0
LINE
  5
122
  8
SIZE
  6
CONTINUOUS
 62
    30
 10
307.9999999999999
 20
257.5
 30
0.0
 11
307.9999999999999
 21
710.191674
 31
0.0
  0
LINE
  5
123
  8
SIZE
  6
CONTINUOUS
 62
    30
 10
334.9999999999999
 20
253.5
 30
0.0
 11
334.9999999999999
 21
710.191674
 31
0.0
  0
LINE
  5
124
  8
SIZE
  6
CONTINUOUS
 62
    30
 10
278.0
 20
261.5
 30
0.0
 11
278.0
 21
831.742335
 31
0.0
  0
LINE
  5
125
  8
SIZE
  6
CONTINUOUS
 62
    30
 10
334.9999999999999
 20
253.5
 30
0.0
 11
334.9999999999999
 21
831.742335
 31
0.0
  0
LINE
  5
126
  8
SIZE
  6
CONTINUOUS
 62
    30
 10
334.9999999999999
 20
253.5
 30
0.0
 11
334.9999999999999
 21
954.200632
 31
0.0
  0
LINE
  5
127
  8
SIZE
  6
CONTINUOUS
 62
    30
 10
193.0
 20
276.0
 30
0.0
 11
193.0
 21
954.200632
 31
0.0
  0
LINE
  5
128
  8
SIZE
  6
CONTINUOUS
 62
    30
 10
193.0
 20
276.0
 30
0.0
 11
193.0
 21
954.200632
 31
0.0
  0
LINE
  5
129
  8
SIZE
  6
CONTINUOUS
 62
    30
 10
44.99999999999999
 20
292.940014
 30
0.0
 11
44.99999999999999
 21
713.673358
 31
0.0
  0
TEXT
  5
12A
  8
NOTE
  6
CONTINUOUS
 62
     4
 10
395.8158929999999
 20
332.502876
 30
0.0
 40
64.0
  1
EL
 41
0.9
  0
LINE
  5
12B
  8
NOTE
  6
CONTINUOUS
 62
     4
 10
488.538577
 20
299.538605
 30
0.0
 11
380.318609
 21
299.538605
 31
0.0
  0
LINE
  5
12C
  8
SIZE
  6
CONTINUOUS
 62
    30
 10
130.0
 20
567.299036
 30
0.0
 11
541.580423
 21
567.299036
 31
0.0
  0
TEXT
  5
12D
  8
NOTE
  6
CONTINUOUS
 62
     4
 10
413.068658
 20
105.29216
 30
0.0
 40
64.0
  1
EA
 41
0.9
  0
LINE
  5
12E
  8
SIZE
  6
CONTINUOUS
 62
    30
 10
355.0
 20
234.0
 30
0.0
 11
816.829701
 21
234.0
 31
0.0
  0
LINE
  5
12F
  8
SIZE
  6
CONTINUOUS
 62
    30
 10
355.0
 20
90.0
 30
0.0
 11
816.829701
 21
90.0
 31
0.0
  0
LINE
  5
130
  8
SIZE
  6
CONTINUOUS
 62
    30
 10
130.0
 20
278.0
 30
0.0
 11
130.0
 21
587.299036
 31
0.0
  0
LINE
  5
131
  8
NOTE
  6
CONTINUOUS
 62
     4
 10
380.318609
 20
299.538605
 30
0.0
 11
156.842919
 21
229.127802
 31
0.0
  0
LINE
  5
132
  8
DETAIL
  6
CONTINUOUS
 62
     5
 10
278.0
 20
80.0
 30
0.0
 11
194.75
 21
80.0
 31
0.0
  0
LINE
  5
133
  8
DETAIL
  6
CONTINUOUS
 62
     5
 10
278.0
 20
244.0
 30
0.0
 11
194.75
 21
244.0
 31
0.0
  0
LINE
  5
134
  8
BASIS
  6
DASHDOT
 62
     6
 10
386.954144
 20
162.0
 30
0.0
 11
169.093596
 21
162.0
 31
0.0
  0
LINE
  5
135
  8
DETAIL
  6
CONTINUOUS
 62
     5
 10
95.0
 20
37.0
 30
0.0
 11
95.0
 21
237.0
 31
0.0
  0
LINE
  5
136
  8
DETAIL
  6
CONTINUOUS
 62
     5
 10
44.99999999999999
 20
37.0
 30
0.0
 11
44.99999999999999
 21
237.0
 31
0.0
  0
LINE
  5
137
  8
DETAIL
  6
CONTINUOUS
 62
     5
 10
126.0
 20
10.898311
 30
0.0
 11
105.0
 21
10.898311
 31
0.0
  0
LINE
  5
138
  8
DETAIL
  6
CONTINUOUS
 62
     5
 10
105.0
 20
24.89831099999999
 30
0.0
 11
126.0
 21
24.89831099999999
 31
0.0
  0
LINE
  5
139
  8
DETAIL
  6
CONTINUOUS
 62
     5
 10
105.0
 20
27.898311
 30
0.0
 11
126.0
 21
27.898311
 31
0.0
  0
LINE
  5
13A
  8
DETAIL
  6
CONTINUOUS
 62
     5
 10
105.0
 20
7.898310999999998
 30
0.0
 11
126.0
 21
7.898310999999998
 31
0.0
  0
LINE
  5
13B
  8
BASIS
  6
DASHDOT
 62
     6
 10
90.381676
 20
17.89831099999999
 30
0.0
 11
140.143456
 21
17.89831099999999
 31
0.0
  0
LINE
  5
13C
  8
DETAIL
  6
CONTINUOUS
 62
     5
 10
95.0
 20
37.0
 30
0.0
 11
44.99999999999999
 21
37.0
 31
0.0
  0
LINE
  5
13D
  8
BASIS
  6
DASHDOT
 62
     6
 10
115.5
 20
4.135851999999999
 30
0.0
 11
115.5
 21
31.86414799999999
 31
0.0
  0
ARC
  5
13E
  8
DETAIL
  6
CONTINUOUS
 62
     5
 10
105.0
 20
17.89831099999999
 30
0.0
 40
10.0
 50
90.0
 51
270.0
  0
ARC
  5
13F
  8
DETAIL
  6
CONTINUOUS
 62
     5
 10
105.0
 20
17.89831099999999
 30
0.0
 40
7.0
 50
90.0
 51
270.0
  0
ARC
  5
140
  8
DETAIL
  6
CONTINUOUS
 62
     5
 10
126.0
 20
17.89831099999999
 30
0.0
 40
7.0
 50
270.0
 51
90.0
  0
ARC
  5
141
  8
DETAIL
  6
CONTINUOUS
 62
     5
 10
126.0
 20
17.89831099999999
 30
0.0
 40
10.0
 50
270.0
 51
90.0
  0
LINE
  5
142
  8
DETAIL
  6
CONTINUOUS
 62
     5
 10
95.0
 20
230.0
 30
0.0
 11
193.0
 21
230.0
 31
0.0
  0
LINE
  5
143
  8
DETAIL
  6
CONTINUOUS
 62
     5
 10
95.0
 20
223.0
 30
0.0
 11
193.0
 21
223.0
 31
0.0
  0
LINE
  5
144
  8
NOTE
  6
CONTINUOUS
 62
     4
 10
150.0
 20
237.0
 30
0.0
 11
110.0
 21
237.0
 31
0.0
  0
LINE
  5
145
  8
DETAIL
  6
CONTINUOUS
 62
     5
 10
105.0
 20
233.4999999999999
 30
0.0
 11
155.0
 21
233.4999999999999
 31
0.0
  0
LINE
  5
146
  8
DETAIL
  6
CONTINUOUS
 62
     5
 10
105.0
 20
237.0
 30
0.0
 11
155.0
 21
237.0
 31
0.0
  0
LINE
  5
147
  8
DETAIL
  6
CONTINUOUS
 62
     5
 10
105.0
 20
237.0
 30
0.0
 11
155.0
 21
237.0
 31
0.0
  0
LINE
  5
148
  8
NOTE
  6
CONTINUOUS
 62
     4
 10
70.0
 20
218.0
 30
0.0
 11
70.0
 21
258.0
 31
0.0
  0
LINE
  5
149
  8
DETAIL
  6
CONTINUOUS
 62
     5
 10
44.99999999999999
 20
230.0
 30
0.0
 11
44.99999999999999
 21
272.940014
 31
0.0
  0
LINE
  5
14A
  8
NOTE
  6
CONTINUOUS
 62
     4
 10
50.0
 20
237.0
 30
0.0
 11
90.0
 21
237.0
 31
0.0
  0
LINE
  5
14B
  8
DETAIL
  6
CONTINUOUS
 62
     5
 10
95.0
 20
233.4999999999999
 30
0.0
 11
44.99999999999999
 21
233.4999999999999
 31
0.0
  0
LINE
  5
14C
  8
DETAIL
  6
CONTINUOUS
 62
     5
 10
95.0
 20
237.0
 30
0.0
 11
44.99999999999999
 21
237.0
 31
0.0
  0
LINE
  5
14D
  8
DETAIL
  6
CONTINUOUS
 62
     5
 10
95.0
 20
237.0
 30
0.0
 11
44.99999999999999
 21
237.0
 31
0.0
  0
CIRCLE
  5
14E
  8
FIX
  6
CONTINUOUS
 62
    11
 10
70.0
 20
237.0
 30
0.0
 40
7.5
  0
LINE
  5
14F
  8
DETAIL
  6
CONTINUOUS
 62
     5
 10
105.0
 20
230.0
 30
0.0
 11
105.0
 21
237.0
 31
0.0
  0
ARC
  5
150
  8
DETAIL
  6
CONTINUOUS
 62
     5
 10
39.94
 20
272.940014
 30
0.0
 40
5.060001999999999
 50
0.679253000000042
 51
90.0
  0
LINE
  5
151
  8
NOTE
  6
CONTINUOUS
 62
     4
 10
190.325528
 20
251.0119259999999
 30
0.0
 11
156.842919
 21
229.127802
 31
0.0
  0
LINE
  5
152
  8
NOTE
  6
CONTINUOUS
 62
     4
 10
157.0
 20
210.0
 30
0.0
 11
157.0
 21
250.0
 31
0.0
  0
LINE
  5
153
  8
NOTE
  6
CONTINUOUS
 62
     4
 10
130.0
 20
218.0
 30
0.0
 11
130.0
 21
258.0
 31
0.0
  0
LINE
  5
154
  8
DETAIL
  6
CONTINUOUS
 62
     5
 10
198.25
 20
256.0
 30
0.0
 11
198.25
 21
244.0
 31
0.0
  0
LINE
  5
155
  8
NOTE
  6
CONTINUOUS
 62
     4
 10
156.842919
 20
229.127802
 30
0.0
 11
196.7817709999999
 21
231.338704
 31
0.0
  0
LINE
  5
156
  8
NOTE
  6
CONTINUOUS
 62
     4
 10
176.9999999999999
 20
230.0
 30
0.0
 11
137.0
 21
230.0
 31
0.0
  0
CIRCLE
  5
157
  8
FIX
  6
CONTINUOUS
 62
    11
 10
130.0
 20
237.0
 30
0.0
 40
7.5
  0
LINE
  5
158
  8
DETAIL
  6
CONTINUOUS
 62
     5
 10
155.0
 20
230.0
 30
0.0
 11
155.0
 21
237.0
 31
0.0
  0
LINE
  5
159
  8
DETAIL
  6
CONTINUOUS
 62
     5
 10
198.25
 20
256.0
 30
0.0
 11
193.0
 21
256.0
 31
0.0
  0
LINE
  5
15A
  8
DETAIL
  6
CONTINUOUS
 62
     5
 10
334.9999999999999
 20
90.0
 30
0.0
 11
334.9999999999999
 21
234.0
 31
0.0
  0
LINE
  5
15B
  8
DETAIL
  6
CONTINUOUS
 62
     5
 10
307.9999999999999
 20
86.0
 30
0.0
 11
307.9999999999999
 21
238.0
 31
0.0
  0
LINE
  5
15C
  8
DETAIL
  6
CONTINUOUS
 62
     5
 10
278.0
 20
80.0
 30
0.0
 11
278.0
 21
244.0
 31
0.0
  0
LINE
  5
15D
  8
DETAIL
  6
CONTINUOUS
 62
     5
 10
307.9999999999999
 20
86.0
 30
0.0
 11
278.0
 21
86.0
 31
0.0
  0
LINE
  5
15E
  8
DETAIL
  6
CONTINUOUS
 62
     5
 10
334.9999999999999
 20
90.0
 30
0.0
 11
307.9999999999999
 21
90.0
 31
0.0
  0
LINE
  5
15F
  8
DETAIL
  6
CONTINUOUS
 62
     5
 10
307.9999999999999
 20
238.0
 30
0.0
 11
278.0
 21
238.0
 31
0.0
  0
LINE
  5
160
  8
DETAIL
  6
CONTINUOUS
 62
     5
 10
334.9999999999999
 20
234.0
 30
0.0
 11
307.9999999999999
 21
234.0
 31
0.0
  0
LINE
  5
161
  8
SIZE
  6
CONTINUOUS
 62
    30
 10
12.0
 20
567.299036
 30
0.0
 11
118.0
 21
567.299036
 31
0.0
  0
LINE
  5
162
  8
SIZE
  6
CONTINUOUS
 62
    30
 10
12.0
 20
567.299036
 30
0.0
 11
24.0
 21
567.299036
 31
0.0
  0
LINE
  5
163
  8
SIZE
  6
CONTINUOUS
 62
    30
 10
130.0
 20
567.299036
 30
0.0
 11
118.0
 21
567.299036
 31
0.0
  0
CIRCLE
  5
164
  8
SIZE
  6
CONTINUOUS
 62
    30
 10
130.0
 20
567.299036
 30
0.0
 40
6.0
  0
TEXT
  5
165
  8
SIZE
  6
CONTINUOUS
 62
    30
 10
771.829701
 20
265.0308468571428
 30
0.0
 40
64.0
  1
φ144
 50
90.0
 41
0.9
 72
     1
 11
771.829701
 21
373.3737039999999
 31
0.0
  0
LINE
  5
166
  8
SIZE
  6
CONTINUOUS
 62
    30
 10
796.829701
 20
233.4999999999999
 30
0.0
 11
796.829701
 21
497.1165609999999
 31
0.0
  0
TEXT
  5
167
  8
SIZE
  6
CONTINUOUS
 62
    30
 10
899.096354
 20
266.4022754285713
 30
0.0
 40
64.0
  1
φ152
 50
90.0
 41
0.9
 72
     1
 11
899.096354
 21
373.3737039999999
 31
0.0
  0
LINE
  5
168
  8
SIZE
  6
CONTINUOUS
 62
    30
 10
924.096354
 20
237.5
 30
0.0
 11
924.096354
 21
495.745133
 31
0.0
  0
LINE
  5
169
  8
SIZE
  6
CONTINUOUS
 62
    30
 10
796.829701
 20
102.0
 30
0.0
 11
796.829701
 21
222.0
 31
0.0
  0
LINE
  5
16A
  8
SIZE
  6
CONTINUOUS
 62
    30
 10
924.096354
 20
98.0
 30
0.0
 11
924.096354
 21
226.0
 31
0.0
  0
LINE
  5
16B
  8
SIZE
  6
CONTINUOUS
 62
    30
 10
796.829701
 20
90.0
 30
0.0
 11
796.829701
 21
102.0
 31
0.0
  0
CIRCLE
  5
16C
  8
SIZE
  6
CONTINUOUS
 62
    30
 10
796.829701
 20
90.0
 30
0.0
 40
6.0
  0
LINE
  5
16D
  8
SIZE
  6
CONTINUOUS
 62
    30
 10
924.096354
 20
86.0
 30
0.0
 11
924.096354
 21
98.0
 31
0.0
  0
LINE
  5
16E
  8
SIZE
  6
CONTINUOUS
 62
    30
 10
796.829701
 20
234.0
 30
0.0
 11
796.829701
 21
222.0
 31
0.0
  0
CIRCLE
  5
16F
  8
SIZE
  6
CONTINUOUS
 62
    30
 10
796.829701
 20
234.0
 30
0.0
 40
6.0
  0
LINE
  5
170
  8
SIZE
  6
CONTINUOUS
 62
    30
 10
924.096354
 20
238.0
 30
0.0
 11
924.096354
 21
226.0
 31
0.0
  0
TEXT
  5
171
  8
SIZE
  6
CONTINUOUS
 62
    30
 10
378.7714281428572
 20
715.191674
 30
0.0
 40
64.0
  1
27
 41
0.9
 72
     1
 11
433.628571
 21
715.191674
 31
0.0
  0
LINE
  5
172
  8
SIZE
  6
CONTINUOUS
 62
    30
 10
346.9999999999999
 20
690.191674
 30
0.0
 11
505.257143
 21
690.191674
 31
0.0
  0
TEXT
  5
173
  8
SIZE
  6
CONTINUOUS
 62
    30
 10
378.7714281428572
 20
836.7423350000001
 30
0.0
 40
64.0
  1
57
 41
0.9
 72
     1
 11
433.628571
 21
836.7423350000001
 31
0.0
  0
LINE
  5
174
  8
SIZE
  6
CONTINUOUS
 62
    30
 10
346.9999999999999
 20
811.7423350000001
 30
0.0
 11
505.257143
 21
811.7423350000001
 31
0.0
  0
TEXT
  5
175
  8
SIZE
  6
CONTINUOUS
 62
    30
 10
177.5999999999999
 20
959.2006320000002
 30
0.0
 40
64.0
  1
142
 41
0.9
 72
     1
 11
263.9999999999999
 21
959.2006320000002
 31
0.0
  0
LINE
  5
176
  8
SIZE
  6
CONTINUOUS
 62
    30
 10
193.0
 20
934.2006320000002
 30
0.0
 11
334.9999999999999
 21
934.2006320000002
 31
0.0
  0
LINE
  5
177
  8
SIZE
  6
CONTINUOUS
 62
    30
 10
44.99999999999999
 20
693.673358
 30
0.0
 11
32.99999999999999
 21
693.673358
 31
0.0
  0
CIRCLE
  5
178
  8
SIZE
  6
CONTINUOUS
 62
    30
 10
44.99999999999999
 20
693.673358
 30
0.0
 40
6.0
  0
CIRCLE
  5
179
  8
SIZE
  6
CONTINUOUS
 62
    30
 10
70.0
 20
810.798339
 30
0.0
 40
6.0
  0
LINE
  5
17A
  8
SIZE
  6
CONTINUOUS
 62
    30
 10
181.0
 20
934.2006320000002
 30
0.0
 11
169.0
 21
934.2006320000002
 31
0.0
  0
LINE
  5
17B
  8
SIZE
  6
CONTINUOUS
 62
    30
 10
193.0
 20
934.2006320000002
 30
0.0
 11
181.0
 21
934.2006320000002
 31
0.0
  0
CIRCLE
  5
17C
  8
SIZE
  6
CONTINUOUS
 62
    30
 10
193.0
 20
934.2006320000002
 30
0.0
 40
6.0
  0
LINE
  5
17D
  8
SIZE
  6
CONTINUOUS
 62
    30
 10
193.0
 20
934.2006320000002
 30
0.0
 11
181.0
 21
934.2006320000002
 31
0.0
  0
CIRCLE
  5
17E
  8
SIZE
  6
CONTINUOUS
 62
    30
 10
193.0
 20
934.2006320000002
 30
0.0
 40
6.0
  0
LINE
  5
17F
  8
SIZE
  6
CONTINUOUS
 62
    30
 10
295.9999999999999
 20
690.191674
 30
0.0
 11
283.9999999999999
 21
690.191674
 31
0.0
  0
LINE
  5
180
  8
SIZE
  6
CONTINUOUS
 62
    30
 10
334.9999999999999
 20
690.191674
 30
0.0
 11
346.9999999999999
 21
690.191674
 31
0.0
  0
CIRCLE
  5
181
  8
SIZE
  6
CONTINUOUS
 62
    30
 10
334.9999999999999
 20
690.191674
 30
0.0
 40
6.0
  0
LINE
  5
182
  8
SIZE
  6
CONTINUOUS
 62
    30
 10
307.9999999999999
 20
690.191674
 30
0.0
 11
295.9999999999999
 21
690.191674
 31
0.0
  0
CIRCLE
  5
183
  8
SIZE
  6
CONTINUOUS
 62
    30
 10
307.9999999999999
 20
690.191674
 30
0.0
 40
6.0
  0
LINE
  5
184
  8
SIZE
  6
CONTINUOUS
 62
    30
 10
307.9999999999999
 20
690.191674
 30
0.0
 11
334.9999999999999
 21
690.191674
 31
0.0
  0
LINE
  5
185
  8
SIZE
  6
CONTINUOUS
 62
    30
 10
278.0
 20
811.7423350000001
 30
0.0
 11
334.9999999999999
 21
811.7423350000001
 31
0.0
  0
CIRCLE
  5
186
  8
SIZE
  6
CONTINUOUS
 62
    30
 10
278.0
 20
811.7423350000001
 30
0.0
 40
6.0
  0
LINE
  5
187
  8
SIZE
  6
CONTINUOUS
 62
    30
 10
334.9999999999999
 20
811.7423350000001
 30
0.0
 11
346.9999999999999
 21
811.7423350000001
 31
0.0
  0
CIRCLE
  5
188
  8
SIZE
  6
CONTINUOUS
 62
    30
 10
334.9999999999999
 20
811.7423350000001
 30
0.0
 40
6.0
  0
CIRCLE
  5
189
  8
SIZE
  6
CONTINUOUS
 62
    30
 10
334.9999999999999
 20
934.2006320000002
 30
0.0
 40
6.0
  0
TEXT
  5
18A
  8
ETC
  6
CONTINUOUS
 62
    61
 10
612.399011
 20
954.8852210000001
 30
0.0
 40
64.0
  1
VD-23ZXP9-W_5
 41
0.9
  0
TEXT
  5
18B
  8
ETC
  6
CONTINUOUS
 62
    61
 10
608.2130169999999
 20
836.9299109999998
 30
0.0
 40
64.0
  1
換気扇
 41
0.9
  0
TEXT
  5
18C
  8
ETC
  6
CONTINUOUS
 62
    61
 10
658.82052
 20
729.0941309999998
 30
0.0
 40
40.0
  1
VD-23ZXP9-W
 41
0.9
  0
LINE
  5
18D
  8
SIZE
  6
CONTINUOUS
 62
    30
 10
251.873671
 20
0.0
 30
0.0
 11
715.009133
 21
0.0
 31
0.0
  0
LINE
  5
18E
  8
SIZE
  6
CONTINUOUS
 62
    30
 10
406.954144
 20
162.0
 30
0.0
 11
715.009133
 21
162.0
 31
0.0
  0
LINE
  5
18F
  8
SIZE
  6
CONTINUOUS
 62
    30
 10
695.0091330000001
 20
150.0
 30
0.0
 11
695.0091330000001
 21
12.0
 31
0.0
  0
LINE
  5
190
  8
SIZE
  6
CONTINUOUS
 62
    30
 10
695.0091330000001
 20
0.0
 30
0.0
 11
695.0091330000001
 21
-199.142857
 31
0.0
  0
CIRCLE
  5
191
  8
SIZE
  6
CONTINUOUS
 62
    30
 10
695.0091330000001
 20
162.0
 30
0.0
 40
6.0
  0
LINE
  5
192
  8
SIZE
  6
CONTINUOUS
 62
    30
 10
695.0091330000001
 20
162.0
 30
0.0
 11
695.0091330000001
 21
150.0
 31
0.0
  0
CIRCLE
  5
193
  8
SIZE
  6
CONTINUOUS
 62
    30
 10
695.0091330000001
 20
0.0
 30
0.0
 40
6.0
  0
LINE
  5
194
  8
SIZE
  6
CONTINUOUS
 62
    30
 10
695.0091330000001
 20
0.0
 30
0.0
 11
695.0091330000001
 21
12.0
 31
0.0
  0
TEXT
  5
195
  8
SIZE
  6
CONTINUOUS
 62
    30
 10
670.0091330000001
 20
-191.971429
 30
0.0
 40
64.0
  1
162
 50
90.0
 41
0.9
 72
     1
 11
670.0091330000001
 21
-105.571429
 31
0.0
  0
POINT
  5
196
  8
DEFPOINTS
  6
CONTINUOUS
 62
    30
 10
231.873671
 20
0.0
 30
0.0
  0
POINT
  5
197
  8
DEFPOINTS
  6
CONTINUOUS
 62
    30
 10
386.954144
 20
162.0
 30
0.0
  0
POINT
  5
198
  8
DEFPOINTS
  6
CONTINUOUS
 62
    30
 10
695.0091330000001
 20
162.0
 30
0.0
  0
LINE
  5
199
  8
SIZE
  6
CONTINUOUS
 62
    30
 10
251.873671
 20
0.0
 30
0.0
 11
578.118713
 21
0.0
 31
0.0
  0
LINE
  5
19A
  8
SIZE
  6
CONTINUOUS
 62
    30
 10
297.9999999999999
 20
80.0
 30
0.0
 11
578.118713
 21
80.0
 31
0.0
  0
LINE
  5
19B
  8
SIZE
  6
CONTINUOUS
 62
    30
 10
558.118713
 20
68.0
 30
0.0
 11
558.118713
 21
12.0
 31
0.0
  0
LINE
  5
19C
  8
SIZE
  6
CONTINUOUS
 62
    30
 10
558.118713
 20
0.0
 30
0.0
 11
558.118713
 21
-155.257143
 31
0.0
  0
CIRCLE
  5
19D
  8
SIZE
  6
CONTINUOUS
 62
    30
 10
558.118713
 20
80.0
 30
0.0
 40
6.0
  0
LINE
  5
19E
  8
SIZE
  6
CONTINUOUS
 62
    30
 10
558.118713
 20
80.0
 30
0.0
 11
558.118713
 21
68.0
 31
0.0
  0
CIRCLE
  5
19F
  8
SIZE
  6
CONTINUOUS
 62
    30
 10
558.118713
 20
0.0
 30
0.0
 40
6.0
  0
LINE
  5
1A0
  8
SIZE
  6
CONTINUOUS
 62
    30
 10
558.118713
 20
0.0
 30
0.0
 11
558.118713
 21
12.0
 31
0.0
  0
TEXT
  5
1A1
  8
SIZE
  6
CONTINUOUS
 62
    30
 10
533.118713
 20
-138.4857138571428
 30
0.0
 40
64.0
  1
80
 50
90.0
 41
0.9
 72
     1
 11
533.118713
 21
-83.62857099999997
 31
0.0
  0
POINT
  5
1A2
  8
DEFPOINTS
  6
CONTINUOUS
 62
    30
 10
231.873671
 20
0.0
 30
0.0
  0
POINT
  5
1A3
  8
DEFPOINTS
  6
CONTINUOUS
 62
    30
 10
278.0
 20
80.0
 30
0.0
  0
POINT
  5
1A4
  8
DEFPOINTS
  6
CONTINUOUS
 62
    30
 10
558.118713
 20
80.0
 30
0.0
  0
LINE
  5
1A5
  8
SIZE
  6
CONTINUOUS
 62
    30
 10
157.0
 20
270.0
 30
0.0
 11
157.0
 21
470.347345
 31
0.0
  0
LINE
  5
1A6
  8
SIZE
  6
CONTINUOUS
 62
    30
 10
0.0
 20
348.47681
 30
0.0
 11
0.0
 21
470.347345
 31
0.0
  0
LINE
  5
1A7
  8
SIZE
  6
CONTINUOUS
 62
    30
 10
12.0
 20
450.347345
 30
0.0
 11
145.0
 21
450.347345
 31
0.0
  0
LINE
  5
1A8
  8
SIZE
  6
CONTINUOUS
 62
    30
 10
157.0
 20
450.347345
 30
0.0
 11
553.9112709999998
 21
450.347345
 31
0.0
  0
CIRCLE
  5
1A9
  8
SIZE
  6
CONTINUOUS
 62
    30
 10
0.0
 20
450.347345
 30
0.0
 40
6.0
  0
LINE
  5
1AA
  8
SIZE
  6
CONTINUOUS
 62
    30
 10
0.0
 20
450.347345
 30
0.0
 11
12.0
 21
450.347345
 31
0.0
  0
CIRCLE
  5
1AB
  8
SIZE
  6
CONTINUOUS
 62
    30
 10
157.0
 20
450.347345
 30
0.0
 40
6.0
  0
LINE
  5
1AC
  8
SIZE
  6
CONTINUOUS
 62
    30
 10
157.0
 20
450.347345
 30
0.0
 11
145.0
 21
450.347345
 31
0.0
  0
TEXT
  5
1AD
  8
SIZE
  6
CONTINUOUS
 62
    30
 10
373.9398419999999
 20
475.347345
 30
0.0
 40
64.0
  1
157
 41
0.9
 72
     1
 11
460.3398419999999
 21
475.347345
 31
0.0
  0
POINT
  5
1AE
  8
DEFPOINTS
  6
CONTINUOUS
 62
    30
 10
157.0
 20
250.0
 30
0.0
  0
POINT
  5
1AF
  8
DEFPOINTS
  6
CONTINUOUS
 62
    30
 10
0.0
 20
328.4768099999999
 30
0.0
  0
POINT
  5
1B0
  8
DEFPOINTS
  6
CONTINUOUS
 62
    30
 10
0.0
 20
450.347345
 30
0.0
  0
LINE
  5
1B1
  8
SIZE
  6
CONTINUOUS
 62
    30
 10
95.0
 20
-2.101688999999999
 30
0.0
 11
95.0
 21
-237.463585
 31
0.0
  0
LINE
  5
1B2
  8
SIZE
  6
CONTINUOUS
 62
    30
 10
136.0
 20
-2.101688999999999
 30
0.0
 11
136.0
 21
-237.463585
 31
0.0
  0
LINE
  5
1B3
  8
SIZE
  6
CONTINUOUS
 62
    30
 10
83.0
 20
-217.463585
 30
0.0
 11
71.0
 21
-217.463585
 31
0.0
  0
LINE
  5
1B4
  8
SIZE
  6
CONTINUOUS
 62
    30
 10
147.9999999999999
 20
-217.463585
 30
0.0
 11
382.7351359999999
 21
-217.463585
 31
0.0
  0
LINE
  5
1B5
  8
SIZE
  6
CONTINUOUS
 62
    30
 10
95.0
 20
-217.463585
 30
0.0
 11
136.0
 21
-217.463585
 31
0.0
  0
CIRCLE
  5
1B6
  8
SIZE
  6
CONTINUOUS
 62
    30
 10
95.0
 20
-217.463585
 30
0.0
 40
6.0
  0
LINE
  5
1B7
  8
SIZE
  6
CONTINUOUS
 62
    30
 10
95.0
 20
-217.463585
 30
0.0
 11
83.0
 21
-217.463585
 31
0.0
  0
CIRCLE
  5
1B8
  8
SIZE
  6
CONTINUOUS
 62
    30
 10
136.0
 20
-217.463585
 30
0.0
 40
6.0
  0
LINE
  5
1B9
  8
SIZE
  6
CONTINUOUS
 62
    30
 10
136.0
 20
-217.463585
 30
0.0
 11
147.9999999999999
 21
-217.463585
 31
0.0
  0
TEXT
  5
1BA
  8
SIZE
  6
CONTINUOUS
 62
    30
 10
276.8208505714285
 20
-192.4635849999999
 30
0.0
 40
64.0
  1
41
 41
0.9
 72
     1
 11
323.4494219999999
 21
-192.4635849999999
 31
0.0
  0
POINT
  5
1BB
  8
DEFPOINTS
  6
CONTINUOUS
 62
    30
 10
95.0
 20
17.89831099999999
 30
0.0
  0
POINT
  5
1BC
  8
DEFPOINTS
  6
CONTINUOUS
 62
    30
 10
136.0
 20
17.89831099999999
 30
0.0
  0
POINT
  5
1BD
  8
DEFPOINTS
  6
CONTINUOUS
 62
    30
 10
136.0
 20
-217.463585
 30
0.0
  0
LINE
  5
1BE
  8
SIZE
  6
CONTINUOUS
 62
    30
 10
0.0
 20
-122.65255
 30
0.0
 11
0.0
 21
-393.829071
 31
0.0
  0
LINE
  5
1BF
  8
SIZE
  6
CONTINUOUS
 62
    30
 10
115.5
 20
-15.864148
 30
0.0
 11
115.5
 21
-393.829071
 31
0.0
  0
LINE
  5
1C0
  8
SIZE
  6
CONTINUOUS
 62
    30
 10
12.0
 20
-373.829071
 30
0.0
 11
103.5
 21
-373.829071
 31
0.0
  0
LINE
  5
1C1
  8
SIZE
  6
CONTINUOUS
 62
    30
 10
115.5
 20
-373.829071
 30
0.0
 11
491.789542
 21
-373.829071
 31
0.0
  0
CIRCLE
  5
1C2
  8
SIZE
  6
CONTINUOUS
 62
    30
 10
0.0
 20
-373.829071
 30
0.0
 40
6.0
  0
LINE
  5
1C3
  8
SIZE
  6
CONTINUOUS
 62
    30
 10
0.0
 20
-373.829071
 30
0.0
 11
12.0
 21
-373.829071
 31
0.0
  0
CIRCLE
  5
1C4
  8
SIZE
  6
CONTINUOUS
 62
    30
 10
115.5
 20
-373.829071
 30
0.0
 40
6.0
  0
LINE
  5
1C5
  8
SIZE
  6
CONTINUOUS
 62
    30
 10
115.5
 20
-373.829071
 30
0.0
 11
103.5
 21
-373.829071
 31
0.0
  0
TEXT
  5
1C6
  8
SIZE
  6
CONTINUOUS
 62
    30
 10
235.0181138571428
 20
-348.829071
 30
0.0
 40
64.0
  1
115.5
 41
0.9
 72
     1
 11
362.5609709999999
 21
-348.829071
 31
0.0
  0
POINT
  5
1C7
  8
DEFPOINTS
  6
CONTINUOUS
 62
    30
 10
0.0
 20
-102.6525499999999
 30
0.0
  0
POINT
  5
1C8
  8
DEFPOINTS
  6
CONTINUOUS
 62
    30
 10
115.5
 20
4.135851999999999
 30
0.0
  0
POINT
  5
1C9
  8
DEFPOINTS
  6
CONTINUOUS
 62
    30
 10
115.5
 20
-373.829071
 30
0.0
  0
LINE
  5
1CA
  8
SIZE
  6
CONTINUOUS
 62
    30
 10
-252.673873
 20
0.0
 30
0.0
 11
-335.372515
 21
0.0
 31
0.0
  0
LINE
  5
1CB
  8
SIZE
  6
CONTINUOUS
 62
    30
 10
-130.105332
 20
17.89831099999999
 30
0.0
 11
-335.372515
 21
17.89831099999999
 31
0.0
  0
LINE
  5
1CC
  8
SIZE
  6
CONTINUOUS
 62
    30
 10
-315.3725149999999
 20
-12.0
 30
0.0
 11
-315.3725149999999
 21
-24.0
 31
0.0
  0
LINE
  5
1CD
  8
SIZE
  6
CONTINUOUS
 62
    30
 10
-315.3725149999999
 20
29.89831099999999
 30
0.0
 11
-315.3725149999999
 21
174.1840249999999
 31
0.0
  0
LINE
  5
1CE
  8
SIZE
  6
CONTINUOUS
 62
    30
 10
-315.3725149999999
 20
0.0
 30
0.0
 11
-315.3725149999999
 21
17.89831099999999
 31
0.0
  0
CIRCLE
  5
1CF
  8
SIZE
  6
CONTINUOUS
 62
    30
 10
-315.3725149999999
 20
0.0
 30
0.0
 40
6.0
  0
LINE
  5
1D0
  8
SIZE
  6
CONTINUOUS
 62
    30
 10
-315.3725149999999
 20
0.0
 30
0.0
 11
-315.3725149999999
 21
-12.0
 31
0.0
  0
CIRCLE
  5
1D1
  8
SIZE
  6
CONTINUOUS
 62
    30
 10
-315.3725149999999
 20
17.89831099999999
 30
0.0
 40
6.0
  0
LINE
  5
1D2
  8
SIZE
  6
CONTINUOUS
 62
    30
 10
-315.3725149999999
 20
17.89831099999999
 30
0.0
 11
-315.3725149999999
 21
29.89831099999999
 31
0.0
  0
TEXT
  5
1D3
  8
SIZE
  6
CONTINUOUS
 62
    30
 10
-340.3725149999999
 20
49.06973942857142
 30
0.0
 40
64.0
  1
18
 50
90.0
 41
0.9
 72
     1
 11
-340.3725149999999
 21
108.041168
 31
0.0
  0
POINT
  5
1D4
  8
DEFPOINTS
  6
CONTINUOUS
 62
    30
 10
-232.6738729999999
 20
0.0
 30
0.0
  0
POINT
  5
1D5
  8
DEFPOINTS
  6
CONTINUOUS
 62
    30
 10
-110.105332
 20
17.89831099999999
 30
0.0
  0
POINT
  5
1D6
  8
DEFPOINTS
  6
CONTINUOUS
 62
    30
 10
-315.3725149999999
 20
17.89831099999999
 30
0.0
  0
LINE
  5
1D7
  8
SIZE
  6
CONTINUOUS
 62
    30
 10
-104.4999999999999
 20
27.898311
 30
0.0
 11
-442.9292799999999
 21
27.898311
 31
0.0
  0
LINE
  5
1D8
  8
SIZE
  6
CONTINUOUS
 62
    30
 10
-104.4999999999999
 20
7.898310999999998
 30
0.0
 11
-442.9292799999999
 21
7.898310999999998
 31
0.0
  0
LINE
  5
1D9
  8
SIZE
  6
CONTINUOUS
 62
    30
 10
-422.9292799999999
 20
-4.101689
 30
0.0
 11
-422.9292799999999
 21
-16.101689
 31
0.0
  0
LINE
  5
1DA
  8
SIZE
  6
CONTINUOUS
 62
    30
 10
-422.9292799999999
 20
39.89831099999999
 30
0.0
 11
-422.9292799999999
 21
195.155454
 31
0.0
  0
LINE
  5
1DB
  8
SIZE
  6
CONTINUOUS
 62
    30
 10
-422.9292799999999
 20
7.898310999999998
 30
0.0
 11
-422.9292799999999
 21
27.898311
 31
0.0
  0
CIRCLE
  5
1DC
  8
SIZE
  6
CONTINUOUS
 62
    30
 10
-422.9292799999999
 20
7.898310999999998
 30
0.0
 40
6.0
  0
LINE
  5
1DD
  8
SIZE
  6
CONTINUOUS
 62
    30
 10
-422.9292799999999
 20
7.898310999999998
 30
0.0
 11
-422.9292799999999
 21
-4.101689
 31
0.0
  0
CIRCLE
  5
1DE
  8
SIZE
  6
CONTINUOUS
 62
    30
 10
-422.9292799999999
 20
27.898311
 30
0.0
 40
6.0
  0
LINE
  5
1DF
  8
SIZE
  6
CONTINUOUS
 62
    30
 10
-422.9292799999999
 20
27.898311
 30
0.0
 11
-422.9292799999999
 21
39.89831099999999
 31
0.0
  0
TEXT
  5
1E0
  8
SIZE
  6
CONTINUOUS
 62
    30
 10
-447.9292799999999
 20
68.66973914285714
 30
0.0
 40
64.0
  1
20
 50
90.0
 41
0.9
 72
     1
 11
-447.9292799999999
 21
123.526882
 31
0.0
  0
POINT
  5
1E1
  8
DEFPOINTS
  6
CONTINUOUS
 62
    30
 10
-84.49999999999999
 20
27.898311
 30
0.0
  0
POINT
  5
1E2
  8
DEFPOINTS
  6
CONTINUOUS
 62
    30
 10
-84.49999999999999
 20
7.898310999999998
 30
0.0
  0
POINT
  5
1E3
  8
DEFPOINTS
  6
CONTINUOUS
 62
    30
 10
-422.9292799999999
 20
7.898310999999998
 30
0.0
  0
LINE
  5
1E4
  8
SIZE
  6
CONTINUOUS
 62
    30
 10
-174.9999999999999
 20
237.0
 30
0.0
 11
-622.190542
 21
237.0
 31
0.0
  0
LINE
  5
1E5
  8
SIZE
  6
CONTINUOUS
 62
    30
 10
-252.673873
 20
0.0
 30
0.0
 11
-622.190542
 21
0.0
 31
0.0
  0
LINE
  5
1E6
  8
SIZE
  6
CONTINUOUS
 62
    30
 10
-602.190542
 20
225.0
 30
0.0
 11
-602.190542
 21
12.0
 31
0.0
  0
CIRCLE
  5
1E7
  8
SIZE
  6
CONTINUOUS
 62
    30
 10
-602.190542
 20
237.0
 30
0.0
 40
6.0
  0
LINE
  5
1E8
  8
SIZE
  6
CONTINUOUS
 62
    30
 10
-602.190542
 20
237.0
 30
0.0
 11
-602.190542
 21
225.0
 31
0.0
  0
CIRCLE
  5
1E9
  8
SIZE
  6
CONTINUOUS
 62
    30
 10
-602.190542
 20
0.0
 30
0.0
 40
6.0
  0
LINE
  5
1EA
  8
SIZE
  6
CONTINUOUS
 62
    30
 10
-602.190542
 20
0.0
 30
0.0
 11
-602.190542
 21
12.0
 31
0.0
  0
TEXT
  5
1EB
  8
SIZE
  6
CONTINUOUS
 62
    30
 10
-627.190542
 20
36.21428571428571
 30
0.0
 40
64.0
  1
237
 50
90.0
 41
0.9
 72
     1
 11
-627.190542
 21
118.5
 31
0.0
  0
POINT
  5
1EC
  8
DEFPOINTS
  6
CONTINUOUS
 62
    30
 10
-155.0
 20
237.0
 30
0.0
  0
POINT
  5
1ED
  8
DEFPOINTS
  6
CONTINUOUS
 62
    30
 10
-232.6738729999999
 20
0.0
 30
0.0
  0
POINT
  5
1EE
  8
DEFPOINTS
  6
CONTINUOUS
 62
    30
 10
-602.190542
 20
0.0
 30
0.0
  0
LINE
  5
1EF
  8
SIZE
  6
CONTINUOUS
 62
    30
 10
0.0
 20
-122.65255
 30
0.0
 11
0.0
 21
-393.829071
 31
0.0
  0
LINE
  5
1F0
  8
SIZE
  6
CONTINUOUS
 62
    30
 10
-84.49999999999999
 20
-15.864148
 30
0.0
 11
-84.49999999999999
 21
-393.829071
 31
0.0
  0
LINE
  5
1F1
  8
SIZE
  6
CONTINUOUS
 62
    30
 10
-12.0
 20
-373.829071
 30
0.0
 11
-72.49999999999999
 21
-373.829071
 31
0.0
  0
LINE
  5
1F2
  8
SIZE
  6
CONTINUOUS
 62
    30
 10
-84.49999999999999
 20
-373.829071
 30
0.0
 11
-470.514785
 21
-373.829071
 31
0.0
  0
CIRCLE
  5
1F3
  8
SIZE
  6
CONTINUOUS
 62
    30
 10
0.0
 20
-373.829071
 30
0.0
 40
6.0
  0
LINE
  5
1F4
  8
SIZE
  6
CONTINUOUS
 62
    30
 10
0.0
 20
-373.829071
 30
0.0
 11
-12.0
 21
-373.829071
 31
0.0
  0
CIRCLE
  5
1F5
  8
SIZE
  6
CONTINUOUS
 62
    30
 10
-84.49999999999999
 20
-373.829071
 30
0.0
 40
6.0
  0
LINE
  5
1F6
  8
SIZE
  6
CONTINUOUS
 62
    30
 10
-84.49999999999999
 20
-373.829071
 30
0.0
 11
-72.49999999999999
 21
-373.829071
 31
0.0
  0
TEXT
  5
1F7
  8
SIZE
  6
CONTINUOUS
 62
    30
 10
-453.743357
 20
-348.829071
 30
0.0
 40
64.0
  1
84.5
 41
0.9
 72
     1
 11
-357.743357
 21
-348.829071
 31
0.0
  0
POINT
  5
1F8
  8
DEFPOINTS
  6
CONTINUOUS
 62
    30
 10
0.0
 20
-102.6525499999999
 30
0.0
  0
POINT
  5
1F9
  8
DEFPOINTS
  6
CONTINUOUS
 62
    30
 10
-84.49999999999999
 20
4.135851999999999
 30
0.0
  0
POINT
  5
1FA
  8
DEFPOINTS
  6
CONTINUOUS
 62
    30
 10
-84.49999999999999
 20
-373.829071
 30
0.0
  0
ENDSEC
  0
EOF
