  0
SECTION
  2
HEADER
  9
$ACADVER
  1
AC1009
  9
$INSBASE
 10
0.0
 20
0.0
 30
0.0
  9
$EXTMIN
 10
-589.00000000000011
 20
-821.86764700000003
 30
0.0
  9
$EXTMAX
 10
1140.849511285714
 20
616.68632000000059
 30
0.0
  9
$LIMMIN
 10
-2970.0
 20
-2100.0
  9
$LIMMAX
 10
2970.0
 20
2100.0
  9
$ORTHOMODE
 70
     1
  9
$REGENMODE
 70
     1
  9
$FILLMODE
 70
     1
  9
$QTEXTMODE
 70
     0
  9
$MIRRTEXT
 70
     0
  9
$DRAGMODE
 70
     2
  9
$LTSCALE
 40
20.0
  9
$OSMODE
 70
    37
  9
$ATTMODE
 70
     1
  9
$TEXTSIZE
 40
64.0
  9
$TRACEWID
 40
0.05
  9
$TEXTSTYLE
  7
STANDARD
  9
$CLAYER
  8
SIZE
  9
$CELTYPE
  6
CONTINUOUS
  9
$CECOLOR
 62
     7
  9
$DIMSCALE
 40
1.0
  9
$DIMASZ
 40
12.0
  9
$DIMEXO
 40
20.0
  9
$DIMDLI
 40
200.0
  9
$DIMRND
 40
0.0
  9
$DIMDLE
 40
0.0
  9
$DIMEXE
 40
20.0
  9
$DIMTP
 40
0.0
  9
$DIMTM
 40
0.0
  9
$DIMTXT
 40
64.0
  9
$DIMCEN
 40
0.09
  9
$DIMTSZ
 40
0.0
  9
$DIMTOL
 70
     0
  9
$DIMLIM
 70
     0
  9
$DIMTIH
 70
     0
  9
$DIMTOH
 70
     0
  9
$DIMSE1
 70
     0
  9
$DIMSE2
 70
     0
  9
$DIMTAD
 70
     1
  9
$DIMZIN
 70
     8
  9
$DIMBLK
  1
DOT1
  9
$DIMASO
 70
     1
  9
$DIMSHO
 70
     0
  9
$DIMPOST
  1

  9
$DIMAPOST
  1

  9
$DIMALT
 70
     0
  9
$DIMALTD
 70
     2
  9
$DIMALTF
 40
25.399999999999999
  9
$DIMLFAC
 40
1.0
  9
$DIMTOFL
 70
     1
  9
$DIMTVP
 40
0.0
  9
$DIMTIX
 70
     1
  9
$DIMSOXD
 70
     0
  9
$DIMSAH
 70
     1
  9
$DIMBLK1
  1
ORIGIN
  9
$DIMBLK2
  1
ORIGIN
  9
$DIMSTYLE
  2
STANDARD
  9
$DIMCLRD
 70
     7
  9
$DIMCLRE
 70
     7
  9
$DIMCLRT
 70
     7
  9
$DIMTFAC
 40
1.0
  9
$DIMGAP
 40
25.0
  9
$LUNITS
 70
     2
  9
$LUPREC
 70
     4
  9
$SKETCHINC
 40
0.1
  9
$FILLETRAD
 40
3.0
  9
$AUNITS
 70
     1
  9
$AUPREC
 70
     3
  9
$MENU
  1
ACAD
  9
$ELEVATION
 40
0.0
  9
$PELEVATION
 40
0.0
  9
$THICKNESS
 40
50.0
  9
$LIMCHECK
 70
     0
  9
$BLIPMODE
 70
     0
  9
$CHAMFERA
 40
0.0
  9
$CHAMFERB
 40
0.0
  9
$SKPOLY
 70
     0
  9
$TDCREATE
 40
2453019.6230103699
  9
$TDUPDATE
 40
2455629.6520057409
  9
$TDINDWG
 40
1.6380180324
  9
$TDUSRTIMER
 40
1.6380180324
  9
$USRTIMER
 70
     1
  9
$ANGBASE
 50
0.0
  9
$ANGDIR
 70
     0
  9
$PDMODE
 70
     3
  9
$PDSIZE
 40
-2.0
  9
$PLINEWID
 40
0.0
  9
$COORDS
 70
     1
  9
$SPLFRAME
 70
     0
  9
$SPLINETYPE
 70
     6
  9
$SPLINESEGS
 70
     8
  9
$ATTDIA
 70
     0
  9
$ATTREQ
 70
     1
  9
$HANDLING
 70
 22529
  9
$HANDSEED
  5
CD
  9
$SURFTAB1
 70
     6
  9
$SURFTAB2
 70
     6
  9
$SURFTYPE
 70
     6
  9
$SURFU
 70
     6
  9
$SURFV
 70
     6
  9
$UCSNAME
  2

  9
$UCSORG
 10
0.0
 20
0.0
 30
0.0
  9
$UCSXDIR
 10
1.0
 20
0.0
 30
0.0
  9
$UCSYDIR
 10
0.0
 20
1.0
 30
0.0
  9
$PUCSNAME
  2

  9
$PUCSORG
 10
0.0
 20
0.0
 30
0.0
  9
$PUCSXDIR
 10
1.0
 20
0.0
 30
0.0
  9
$PUCSYDIR
 10
0.0
 20
1.0
 30
0.0
  9
$USERI1
 70
     0
  9
$USERI2
 70
     0
  9
$USERI3
 70
     0
  9
$USERI4
 70
     0
  9
$USERI5
 70
     0
  9
$USERR1
 40
20.0
  9
$USERR2
 40
0.0
  9
$USERR3
 40
0.0
  9
$USERR4
 40
0.0
  9
$USERR5
 40
0.0
  9
$WORLDVIEW
 70
     1
  9
$SHADEDGE
 70
     3
  9
$SHADEDIF
 70
    70
  9
$TILEMODE
 70
     1
  9
$MAXACTVP
 70
    48
  9
$PLIMCHECK
 70
     0
  9
$PEXTMIN
 10
-1.0000000000000000E+020
 20
-1.0000000000000000E+020
 30
-1.0000000000000000E+020
  9
$PEXTMAX
 10
1.0000000000000000E+020
 20
1.0000000000000000E+020
 30
1.0000000000000000E+020
  9
$PLIMMIN
 10
0.0
 20
0.0
  9
$PLIMMAX
 10
12.0
 20
9.0
  9
$UNITMODE
 70
     0
  9
$VISRETAIN
 70
     0
  9
$PLINEGEN
 70
     0
  9
$PSLTSCALE
 70
     0
  0
ENDSEC
  0
SECTION
  2
TABLES
  0
TABLE
  2
VPORT
 70
     2
  0
VPORT
  2
*ACTIVE
 70
     0
 10
0.0
 20
0.0
 11
1.0
 21
1.0
 12
275.99031000000002
 22
-47.040708378038282
 13
0.0
 23
0.0
 14
1.0
 24
1.0
 15
0.0
 25
0.0
 16
0.0
 26
0.0
 36
1.0
 17
0.0
 27
0.0
 37
0.0
 40
1561.2732832439231
 41
1.513819095477386
 42
50.0
 43
0.0
 44
0.0
 50
0.0
 51
0.0
 71
     0
 72
  1000
 73
     1
 74
     0
 75
     0
 76
     0
 77
     0
 78
     0
  0
ENDTAB
  0
TABLE
  2
LTYPE
 70
     2
  0
LTYPE
  2
CONTINUOUS
 70
     0
  3
実線
 72
    65
 73
     0
 40
0.0
  0
LTYPE
  2
DASHDOT
 70
     0
  3
____ _ ____ _ ____ _ ____ _ ____ _ ____ _ ____
 72
    65
 73
     4
 40
5.5
 49
4.0
 49
-0.6
 49
0.3
 49
-0.6
  0
ENDTAB
  0
TABLE
  2
LAYER
 70
    12
  0
LAYER
  2
0
 70
     0
 62
     7
  6
CONTINUOUS
  0
LAYER
  2
SIZE
 70
     0
 62
    30
  6
CONTINUOUS
  0
LAYER
  2
DEFPOINTS
 70
     0
 62
     7
  6
CONTINUOUS
  0
LAYER
  2
ETC
 70
     0
 62
    61
  6
CONTINUOUS
  0
LAYER
  2
OUTLINE
 70
     0
 62
     3
  6
CONTINUOUS
  0
LAYER
  2
BASIS
 70
     0
 62
     6
  6
DASHDOT
  0
LAYER
  2
DETAIL
 70
     0
 62
     5
  6
CONTINUOUS
  0
LAYER
  2
ARRANGE
 70
     0
 62
     1
  6
CONTINUOUS
  0
LAYER
  2
NOTE
 70
     0
 62
     4
  6
CONTINUOUS
  0
LAYER
  2
FIX
 70
     0
 62
    11
  6
CONTINUOUS
  0
LAYER
  2
SERVICESPACE
 70
     0
 62
     2
  6
DASHDOT
  0
LAYER
  2
SYMBOLLINE
 70
     0
 62
    15
  6
CONTINUOUS
  0
ENDTAB
  0
TABLE
  2
STYLE
 70
     1
  0
STYLE
  2
STANDARD
 70
     0
 40
64.0
 41
0.9
 50
0.0
 71
     0
 42
64.0
  3
SIMPLEX.shx
  4
BIGFONT.shx
  0
ENDTAB
  0
TABLE
  2
VIEW
 70
     1
  0
VIEW
  2
ALL
 70
     0
 40
4282.6198080000004
 10
0.0
 20
41.309904000000003
 41
5940.0
 11
0.0
 21
0.0
 31
1.0
 12
0.0
 22
0.0
 32
0.0
 42
50.0
 43
0.0
 44
0.0
 50
0.0
 71
     0
  0
ENDTAB
  0
TABLE
  2
UCS
 70
     0
  0
ENDTAB
  0
TABLE
  2
APPID
 70
    15
  0
APPID
  2
ACAD
 70
     0
  0
APPID
  2
AUTOCAD_POSTSCRIPT_FIGURE
 70
     0
  0
APPID
  2
ACAD_EXEMPT_FROM_CAD_STANDARDS
 70
     0
  0
APPID
  2
ACAD_PSEXT
 70
     0
  0
APPID
  2
ACAUTHENVIRON
 70
     0
  0
APPID
  2
GENIUS_GENOENT_13
 70
     0
  0
APPID
  2
GENIUS_GENCFG_13
 70
     0
  0
APPID
  2
GENIUS_GENCFG0_13
 70
     0
  0
APPID
  2
GENIUS_GENCFG1_13
 70
     0
  0
APPID
  2
GENIUS_GENCFG2_13
 70
     0
  0
APPID
  2
GENIUS_GENCFG3_13
 70
     0
  0
APPID
  2
GENIUS_GENCFG4_13
 70
     0
  0
APPID
  2
GENIUS_GEVCFG0_13
 70
     0
  0
APPID
  2
CONTENTBLOCKICON
 70
     0
  0
APPID
  2
CONTENTBLOCKDESCRIPTION
 70
     0
  0
ENDTAB
  0
TABLE
  2
DIMSTYLE
 70
     1
  0
DIMSTYLE
  2
STANDARD
 70
     0
  3

  4

  5

  6

  7

 40
1.0
 41
0.18
 42
0.0625
 43
0.38
 44
0.18
 45
0.0
 46
0.0
 47
0.0
 48
0.0
140
0.18
141
0.09
142
0.0
143
25.399999999999999
144
1.0
145
0.0
146
1.0
147
0.09
 71
     0
 72
     0
 73
     1
 74
     1
 75
     0
 76
     0
 77
     0
 78
     0
170
     0
171
     2
172
     0
173
     0
174
     0
175
     0
176
     7
177
     7
178
     7
  0
ENDTAB
  0
ENDSEC
  0
SECTION
  2
BLOCKS
  0
BLOCK
  8
0
  2
$MODEL_SPACE
 70
     0
 10
0.0
 20
0.0
 30
0.0
  3
$MODEL_SPACE
  1

  0
ENDBLK
  5
20
  8
0
  0
BLOCK
 67
     1
  8
0
  2
$PAPER_SPACE
 70
     0
 10
0.0
 20
0.0
 30
0.0
  3
$PAPER_SPACE
  1

  0
ENDBLK
  5
1C
 67
     1
  8
0
  0
BLOCK
  8
0
  2
DOT1
 70
     0
 10
0.0
 20
0.0
 30
0.0
  3
DOT1
  1

  0
CIRCLE
  5
43
  8
SIZE
  6
CONTINUOUS
 62
     7
 10
0.0
 20
0.0
 30
0.0
 40
3.0
  0
ENDBLK
  5
44
  8
0
  0
BLOCK
  8
0
  2
_ORIGIN
 70
     0
 10
0.0
 20
0.0
 30
0.0
  3
_ORIGIN
  1

  0
CIRCLE
  5
47
  8
0
  6
CONTINUOUS
 62
     7
 10
0.0
 20
0.0
 30
0.0
 40
0.5
  0
LINE
  5
48
  8
0
  6
CONTINUOUS
 62
     7
 10
0.0
 20
0.0
 30
0.0
 11
-1.0
 21
0.0
 31
0.0
  0
ENDBLK
  5
49
  8
0
  0
ENDSEC
  0
SECTION
  2
ENTITIES
  0
TEXT
  5
4A
  8
SIZE
  6
CONTINUOUS
 62
    30
 10
-110.5371428571428
 20
396.0
 30
0.0
 40
64.0
  1
□445
 41
0.9
 72
     1
 11
0.0
 21
396.0
 31
0.0
  0
LINE
  5
4B
  8
SIZE
  6
CONTINUOUS
 62
    30
 10
210.49999999999989
 20
371.0
 30
0.0
 11
-210.49999999999989
 21
371.0
 31
0.0
  0
LINE
  5
4C
  8
DETAIL
  6
CONTINUOUS
 62
     5
 10
-207.5
 20
-222.5
 30
0.0
 11
207.5
 21
-222.5
 31
0.0
  0
LINE
  5
4D
  8
DETAIL
  6
CONTINUOUS
 62
     5
 10
-207.5
 20
222.5
 30
0.0
 11
207.5
 21
222.5
 31
0.0
  0
LINE
  5
4E
  8
DETAIL
  6
CONTINUOUS
 62
     5
 10
-196.65789399999991
 20
-196.65789399999991
 30
0.0
 11
196.65789399999991
 21
-196.65789399999991
 31
0.0
  0
LINE
  5
4F
  8
DETAIL
  6
CONTINUOUS
 62
     5
 10
-196.65789399999991
 20
196.65789399999991
 30
0.0
 11
196.65789399999991
 21
196.65789399999991
 31
0.0
  0
LINE
  5
50
  8
DETAIL
  6
CONTINUOUS
 62
     5
 10
-200.986841
 20
200.986841
 30
0.0
 11
200.986841
 21
200.986841
 31
0.0
  0
LINE
  5
51
  8
DETAIL
  6
CONTINUOUS
 62
     5
 10
-200.986841
 20
-200.986841
 30
0.0
 11
200.986841
 21
-200.986841
 31
0.0
  0
TEXT
  5
52
  8
SIZE
  6
CONTINUOUS
 62
    30
 10
-110.5371428571428
 20
536.0
 30
0.0
 40
64.0
  1
□470
 41
0.9
 72
     1
 11
0.0
 21
536.0
 31
0.0
  0
LINE
  5
53
  8
SIZE
  6
CONTINUOUS
 62
    30
 10
223.0
 20
507.0
 30
0.0
 11
-223.0
 21
507.0
 31
0.0
  0
LINE
  5
54
  8
OUTLINE
  6
CONTINUOUS
 62
     3
 10
-217.0
 20
-235.0
 30
0.0
 11
217.0
 21
-235.0
 31
0.0
  0
LINE
  5
55
  8
OUTLINE
  6
CONTINUOUS
 62
     3
 10
-217.0
 20
235.0
 30
0.0
 11
217.0
 21
235.0
 31
0.0
  0
LINE
  5
56
  8
DETAIL
  6
CONTINUOUS
 62
     5
 10
-217.0
 20
-235.0
 30
0.0
 11
217.0
 21
-235.0
 31
0.0
  0
LINE
  5
57
  8
DETAIL
  6
CONTINUOUS
 62
     5
 10
-217.0
 20
235.0
 30
0.0
 11
217.0
 21
235.0
 31
0.0
  0
POINT
  5
58
  8
ARRANGE
  6
CONTINUOUS
 62
     1
 10
0.0
 20
0.0
 30
0.0
  0
CIRCLE
  5
59
  8
ARRANGE
  6
CONTINUOUS
 62
     1
 10
0.0
 20
0.0
 30
0.0
 40
40.0
  0
LINE
  5
5A
  8
BASIS
  6
DASHDOT
 62
     6
 10
-274.0058719999999
 20
0.0
 30
0.0
 11
274.21735999999999
 21
0.0
 31
0.0
  0
LINE
  5
5B
  8
DETAIL
  6
CONTINUOUS
 62
     5
 10
-222.5
 20
-207.5
 30
0.0
 11
-222.5
 21
207.5
 31
0.0
  0
LINE
  5
5C
  8
DETAIL
  6
CONTINUOUS
 62
     5
 10
-196.65789399999991
 20
-196.65789399999991
 30
0.0
 11
-196.65789399999991
 21
196.65789399999991
 31
0.0
  0
LINE
  5
5D
  8
DETAIL
  6
CONTINUOUS
 62
     5
 10
-200.986841
 20
-200.986841
 30
0.0
 11
-200.986841
 21
200.986841
 31
0.0
  0
LINE
  5
5E
  8
OUTLINE
  6
CONTINUOUS
 62
     3
 10
-235.0
 20
-217.0
 30
0.0
 11
-235.0
 21
217.0
 31
0.0
  0
LINE
  5
5F
  8
DETAIL
  6
CONTINUOUS
 62
     5
 10
-235.0
 20
-217.0
 30
0.0
 11
-235.0
 21
217.0
 31
0.0
  0
LINE
  5
60
  8
BASIS
  6
DASHDOT
 62
     6
 10
0.0
 20
-276.49377600000003
 30
0.0
 11
0.0
 21
276.544464
 31
0.0
  0
LINE
  5
61
  8
SIZE
  6
CONTINUOUS
 62
    30
 10
-187.21122999999989
 20
-327.60827399999999
 30
0.0
 11
-187.21122999999989
 21
-821.86764700000003
 31
0.0
  0
LINE
  5
62
  8
SIZE
  6
CONTINUOUS
 62
    30
 10
-35.21123
 20
-327.60827399999999
 30
0.0
 11
-35.21123
 21
-821.86764700000003
 31
0.0
  0
CIRCLE
  5
63
  8
SIZE
  6
CONTINUOUS
 62
    30
 10
-183.0
 20
-660.18595500000004
 30
0.0
 40
6.0
  0
CIRCLE
  5
64
  8
SIZE
  6
CONTINUOUS
 62
    30
 10
-39.0
 20
-660.18595500000004
 30
0.0
 40
6.0
  0
LINE
  5
65
  8
SIZE
  6
CONTINUOUS
 62
    30
 10
-183.0
 20
-355.0
 30
0.0
 11
-183.0
 21
-680.18595500000004
 31
0.0
  0
LINE
  5
66
  8
SIZE
  6
CONTINUOUS
 62
    30
 10
-39.0
 20
-355.0
 30
0.0
 11
-39.0
 21
-680.18595500000004
 31
0.0
  0
LINE
  5
67
  8
SIZE
  6
CONTINUOUS
 62
    30
 10
-182.71122999999989
 20
-660.18595500000004
 30
0.0
 11
-445.86528299999998
 21
-660.18595500000004
 31
0.0
  0
LINE
  5
68
  8
SIZE
  6
CONTINUOUS
 62
    30
 10
-190.71123
 20
-801.86764700000003
 30
0.0
 11
-446.44879500000002
 21
-801.86764700000003
 31
0.0
  0
LINE
  5
69
  8
SIZE
  6
CONTINUOUS
 62
    30
 10
-452.32630499999988
 20
-801.86764700000003
 30
0.0
 11
-186.71123
 21
-801.86764700000003
 31
0.0
  0
LINE
  5
6A
  8
SIZE
  6
CONTINUOUS
 62
    30
 10
-454.32846799999999
 20
-660.18595500000004
 30
0.0
 11
-182.5
 21
-660.18595500000004
 31
0.0
  0
TEXT
  5
6B
  8
SIZE
  6
CONTINUOUS
 62
    30
 10
-438.8463055714285
 20
-776.86764700000003
 30
0.0
 40
64.0
  1
φ152
 41
0.9
 72
     1
 11
-329.95487700000001
 21
-776.86764700000003
 31
0.0
  0
LINE
  5
6C
  8
SIZE
  6
CONTINUOUS
 62
    30
 10
-47.21123
 20
-801.86764700000003
 30
0.0
 11
-175.21123
 21
-801.86764700000003
 31
0.0
  0
LINE
  5
6D
  8
SIZE
  6
CONTINUOUS
 62
    30
 10
-51.0
 20
-660.18595500000004
 30
0.0
 11
-171.0
 21
-660.18595500000004
 31
0.0
  0
LINE
  5
6E
  8
SIZE
  6
CONTINUOUS
 62
    30
 10
-187.21122999999989
 20
-801.86764700000003
 30
0.0
 11
-175.21123
 21
-801.86764700000003
 31
0.0
  0
CIRCLE
  5
6F
  8
SIZE
  6
CONTINUOUS
 62
    30
 10
-187.21122999999989
 20
-801.86764700000003
 30
0.0
 40
6.0
  0
LINE
  5
70
  8
SIZE
  6
CONTINUOUS
 62
    30
 10
-183.0
 20
-660.18595500000004
 30
0.0
 11
-171.0
 21
-660.18595500000004
 31
0.0
  0
LINE
  5
71
  8
SIZE
  6
CONTINUOUS
 62
    30
 10
-35.21123
 20
-801.86764700000003
 30
0.0
 11
-47.21123
 21
-801.86764700000003
 31
0.0
  0
CIRCLE
  5
72
  8
SIZE
  6
CONTINUOUS
 62
    30
 10
-35.21123
 20
-801.86764700000003
 30
0.0
 40
6.0
  0
LINE
  5
73
  8
SIZE
  6
CONTINUOUS
 62
    30
 10
-39.0
 20
-660.18595500000004
 30
0.0
 11
-51.0
 21
-660.18595500000004
 31
0.0
  0
LINE
  5
74
  8
SIZE
  6
CONTINUOUS
 62
    30
 10
-210.49999999999989
 20
-278.0
 30
0.0
 11
-517.89004899999998
 21
-278.0
 31
0.0
  0
LINE
  5
75
  8
SIZE
  6
CONTINUOUS
 62
    30
 10
-202.49999999999989
 20
-335.0
 30
0.0
 11
-517.89004899999998
 21
-335.0
 31
0.0
  0
LINE
  5
76
  8
SIZE
  6
CONTINUOUS
 62
    30
 10
-497.89004899999998
 20
-335.0
 30
0.0
 11
-497.89004899999998
 21
-278.0
 31
0.0
  0
LINE
  5
77
  8
SIZE
  6
CONTINUOUS
 62
    30
 10
-497.89004899999998
 20
-335.0
 30
0.0
 11
-497.89004899999998
 21
-278.0
 31
0.0
  0
LINE
  5
78
  8
SIZE
  6
CONTINUOUS
 62
    30
 10
-497.89004899999998
 20
-319.5
 30
0.0
 11
-497.89004899999998
 21
-468.69194499999992
 31
0.0
  0
TEXT
  5
79
  8
SIZE
  6
CONTINUOUS
 62
    30
 10
-525.0
 20
-455.28610942857142
 30
0.0
 40
64.0
  1
57
 50
90.0
 41
0.9
 72
     1
 11
-525.0
 21
-408.65753799999999
 31
0.0
  0
LINE
  5
7A
  8
SIZE
  6
CONTINUOUS
 62
    30
 10
-497.89004899999998
 20
-335.0
 30
0.0
 11
-497.89004899999998
 21
-347.0
 31
0.0
  0
CIRCLE
  5
7B
  8
SIZE
  6
CONTINUOUS
 62
    30
 10
-497.89004899999998
 20
-335.0
 30
0.0
 40
6.0
  0
LINE
  5
7C
  8
SIZE
  6
CONTINUOUS
 62
    30
 10
-497.89004899999998
 20
-347.0
 30
0.0
 11
-497.89004899999998
 21
-359.0
 31
0.0
  0
CIRCLE
  5
7D
  8
SIZE
  6
CONTINUOUS
 62
    30
 10
-497.89004899999998
 20
-278.0
 30
0.0
 40
6.0
  0
LINE
  5
7E
  8
SIZE
  6
CONTINUOUS
 62
    30
 10
-369.21174999999999
 20
-335.0
 30
0.0
 11
-369.21174999999999
 21
-308.0
 31
0.0
  0
LINE
  5
7F
  8
SIZE
  6
CONTINUOUS
 62
    30
 10
-369.21174999999999
 20
-335.0
 30
0.0
 11
-369.21174999999999
 21
-308.0
 31
0.0
  0
LINE
  5
80
  8
SIZE
  6
CONTINUOUS
 62
    30
 10
-369.21174999999999
 20
-323.49999999999989
 30
0.0
 11
-369.21174999999999
 21
-466.13275299999998
 31
0.0
  0
LINE
  5
81
  8
BASIS
  6
DASHDOT
 62
     6
 10
-110.4999999999999
 20
-375.95097900000002
 30
0.0
 11
-110.4999999999999
 21
-167.098681
 31
0.0
  0
LINE
  5
82
  8
DETAIL
  6
CONTINUOUS
 62
     5
 10
-183.0
 20
-335.0
 30
0.0
 11
-183.0
 21
-308.0
 31
0.0
  0
LINE
  5
83
  8
DETAIL
  6
CONTINUOUS
 62
     5
 10
-39.0
 20
-335.0
 30
0.0
 11
-39.0
 21
-308.0
 31
0.0
  0
LINE
  5
84
  8
SIZE
  6
CONTINUOUS
 62
    30
 10
-202.49999999999989
 20
-335.0
 30
0.0
 11
-389.21174999999988
 21
-335.0
 31
0.0
  0
TEXT
  5
85
  8
SIZE
  6
CONTINUOUS
 62
    30
 10
-440.84846814285697
 20
-635.18595500000004
 30
0.0
 40
64.0
  1
φ144
 41
0.9
 72
     1
 11
-330.58561099999991
 21
-635.18595500000004
 31
0.0
  0
TEXT
  5
86
  8
SIZE
  6
CONTINUOUS
 62
    30
 10
-400.0
 20
-454.49669242857141
 30
0.0
 40
64.0
  1
27
 50
90.0
 41
0.9
 72
     1
 11
-400.0
 21
-407.86812099999997
 31
0.0
  0
LINE
  5
87
  8
SIZE
  6
CONTINUOUS
 62
    30
 10
-369.21174999999999
 20
-335.0
 30
0.0
 11
-369.21174999999999
 21
-347.0
 31
0.0
  0
CIRCLE
  5
88
  8
SIZE
  6
CONTINUOUS
 62
    30
 10
-369.21174999999999
 20
-335.0
 30
0.0
 40
6.0
  0
LINE
  5
89
  8
SIZE
  6
CONTINUOUS
 62
    30
 10
-369.21174999999999
 20
-347.0
 30
0.0
 11
-369.21174999999999
 21
-359.0
 31
0.0
  0
LINE
  5
8A
  8
DETAIL
  6
CONTINUOUS
 62
     5
 10
-183.0
 20
-335.0
 30
0.0
 11
-39.0
 21
-335.0
 31
0.0
  0
TEXT
  5
8B
  8
NOTE
  6
CONTINUOUS
 62
     4
 10
-162.21950000000001
 20
-437.36048199999988
 30
0.0
 40
64.0
  1
EA
 41
0.9
  0
ARC
  5
8C
  8
OUTLINE
  6
CONTINUOUS
 62
     3
 10
-217.0
 20
-217.0
 30
0.0
 40
18.0
 50
180.0
 51
270.0
  0
ARC
  5
8D
  8
DETAIL
  6
CONTINUOUS
 62
     5
 10
-217.0
 20
-217.0
 30
0.0
 40
18.0
 50
180.0
 51
270.0
  0
LINE
  5
8E
  8
SIZE
  6
CONTINUOUS
 62
    30
 10
-206.49999999999989
 20
-308.0
 30
0.0
 11
-389.21174999999988
 21
-308.0
 31
0.0
  0
LINE
  5
8F
  8
SIZE
  6
CONTINUOUS
 62
    30
 10
-369.21174999999999
 20
-308.0
 30
0.0
 11
-369.21174999999999
 21
-296.0
 31
0.0
  0
CIRCLE
  5
90
  8
SIZE
  6
CONTINUOUS
 62
    30
 10
-369.21174999999999
 20
-308.0
 30
0.0
 40
6.0
  0
LINE
  5
91
  8
SIZE
  6
CONTINUOUS
 62
    30
 10
-369.21174999999999
 20
-296.0
 30
0.0
 11
-369.21174999999999
 21
-284.0
 31
0.0
  0
LINE
  5
92
  8
DETAIL
  6
CONTINUOUS
 62
     5
 10
-191.0
 20
-278.0
 30
0.0
 11
-31.0
 21
-278.0
 31
0.0
  0
LINE
  5
93
  8
DETAIL
  6
CONTINUOUS
 62
     5
 10
-187.0
 20
-308.0
 30
0.0
 11
-35.0
 21
-308.0
 31
0.0
  0
LINE
  5
94
  8
DETAIL
  6
CONTINUOUS
 62
     5
 10
-191.0
 20
-278.0
 30
0.0
 11
-191.0
 21
-235.0
 31
0.0
  0
LINE
  5
95
  8
DETAIL
  6
CONTINUOUS
 62
     5
 10
-187.0
 20
-308.0
 30
0.0
 11
-187.0
 21
-278.0
 31
0.0
  0
ARC
  5
96
  8
DETAIL
  6
CONTINUOUS
 62
     5
 10
-207.5
 20
-207.5
 30
0.0
 40
15.0
 50
180.0
 51
270.0
  0
LINE
  5
97
  8
DETAIL
  6
CONTINUOUS
 62
     5
 10
-196.65789399999991
 20
-196.65789399999991
 30
0.0
 11
-200.986841
 21
-200.986841
 31
0.0
  0
LINE
  5
98
  8
DETAIL
  6
CONTINUOUS
 62
     5
 10
-31.0
 20
-278.0
 30
0.0
 11
-31.0
 21
-235.0
 31
0.0
  0
LINE
  5
99
  8
DETAIL
  6
CONTINUOUS
 62
     5
 10
-35.0
 20
-308.0
 30
0.0
 11
-35.0
 21
-278.0
 31
0.0
  0
LINE
  5
9A
  8
SIZE
  6
CONTINUOUS
 62
    30
 10
-222.5
 20
227.49999999999989
 30
0.0
 11
-222.5
 21
391.0
 31
0.0
  0
LINE
  5
9B
  8
SIZE
  6
CONTINUOUS
 62
    30
 10
-235.0
 20
237.0
 30
0.0
 11
-235.0
 21
527.0
 31
0.0
  0
ARC
  5
9C
  8
OUTLINE
  6
CONTINUOUS
 62
     3
 10
-217.0
 20
217.0
 30
0.0
 40
18.0
 50
90.0
 51
180.0
  0
ARC
  5
9D
  8
DETAIL
  6
CONTINUOUS
 62
     5
 10
-217.0
 20
217.0
 30
0.0
 40
18.0
 50
90.0
 51
180.0
  0
ARC
  5
9E
  8
DETAIL
  6
CONTINUOUS
 62
     5
 10
-207.5
 20
207.5
 30
0.0
 40
15.0
 50
90.0
 51
180.0
  0
LINE
  5
9F
  8
DETAIL
  6
CONTINUOUS
 62
     5
 10
-196.65789399999991
 20
196.65789399999991
 30
0.0
 11
-200.986841
 21
200.986841
 31
0.0
  0
LINE
  5
A0
  8
SIZE
  6
CONTINUOUS
 62
    30
 10
-235.0
 20
507.0
 30
0.0
 11
-223.0
 21
507.0
 31
0.0
  0
CIRCLE
  5
A1
  8
SIZE
  6
CONTINUOUS
 62
    30
 10
-235.0
 20
507.0
 30
0.0
 40
6.0
  0
LINE
  5
A2
  8
SIZE
  6
CONTINUOUS
 62
    30
 10
-222.5
 20
371.0
 30
0.0
 11
-210.49999999999989
 21
371.0
 31
0.0
  0
CIRCLE
  5
A3
  8
SIZE
  6
CONTINUOUS
 62
    30
 10
-222.5
 20
371.0
 30
0.0
 40
6.0
  0
LINE
  5
A4
  8
DETAIL
  6
CONTINUOUS
 62
     5
 10
222.5
 20
-207.5
 30
0.0
 11
222.5
 21
207.5
 31
0.0
  0
LINE
  5
A5
  8
DETAIL
  6
CONTINUOUS
 62
     5
 10
196.65789399999991
 20
-196.65789399999991
 30
0.0
 11
196.65789399999991
 21
196.65789399999991
 31
0.0
  0
LINE
  5
A6
  8
DETAIL
  6
CONTINUOUS
 62
     5
 10
200.986841
 20
-200.986841
 30
0.0
 11
200.986841
 21
200.986841
 31
0.0
  0
LINE
  5
A7
  8
OUTLINE
  6
CONTINUOUS
 62
     3
 10
235.0
 20
-217.0
 30
0.0
 11
235.0
 21
217.0
 31
0.0
  0
LINE
  5
A8
  8
DETAIL
  6
CONTINUOUS
 62
     5
 10
235.0
 20
-217.0
 30
0.0
 11
235.0
 21
217.0
 31
0.0
  0
ARC
  5
A9
  8
OUTLINE
  6
CONTINUOUS
 62
     3
 10
217.0
 20
-217.0
 30
0.0
 40
18.0
 50
270.0
 51
0.0
  0
ARC
  5
AA
  8
DETAIL
  6
CONTINUOUS
 62
     5
 10
217.0
 20
-217.0
 30
0.0
 40
18.0
 50
270.0
 51
0.0
  0
ARC
  5
AB
  8
DETAIL
  6
CONTINUOUS
 62
     5
 10
207.5
 20
-207.5
 30
0.0
 40
15.0
 50
270.0
 51
0.0
  0
LINE
  5
AC
  8
DETAIL
  6
CONTINUOUS
 62
     5
 10
196.65789399999991
 20
-196.65789399999991
 30
0.0
 11
200.986841
 21
-200.986841
 31
0.0
  0
LINE
  5
AD
  8
SIZE
  6
CONTINUOUS
 62
    30
 10
222.5
 20
227.49999999999989
 30
0.0
 11
222.5
 21
391.0
 31
0.0
  0
LINE
  5
AE
  8
SIZE
  6
CONTINUOUS
 62
    30
 10
235.0
 20
237.0
 30
0.0
 11
235.0
 21
527.0
 31
0.0
  0
ARC
  5
AF
  8
OUTLINE
  6
CONTINUOUS
 62
     3
 10
217.0
 20
217.0
 30
0.0
 40
18.0
 50
0.0
 51
90.0
  0
ARC
  5
B0
  8
DETAIL
  6
CONTINUOUS
 62
     5
 10
217.0
 20
217.0
 30
0.0
 40
18.0
 50
0.0
 51
90.0
  0
ARC
  5
B1
  8
DETAIL
  6
CONTINUOUS
 62
     5
 10
207.5
 20
207.5
 30
0.0
 40
15.0
 50
0.0
 51
90.0
  0
LINE
  5
B2
  8
DETAIL
  6
CONTINUOUS
 62
     5
 10
196.65789399999991
 20
196.65789399999991
 30
0.0
 11
200.986841
 21
200.986841
 31
0.0
  0
LINE
  5
B3
  8
SIZE
  6
CONTINUOUS
 62
    30
 10
235.0
 20
507.0
 30
0.0
 11
223.0
 21
507.0
 31
0.0
  0
CIRCLE
  5
B4
  8
SIZE
  6
CONTINUOUS
 62
    30
 10
235.0
 20
507.0
 30
0.0
 40
6.0
  0
LINE
  5
B5
  8
SIZE
  6
CONTINUOUS
 62
    30
 10
222.5
 20
371.0
 30
0.0
 11
210.49999999999989
 21
371.0
 31
0.0
  0
CIRCLE
  5
B6
  8
SIZE
  6
CONTINUOUS
 62
    30
 10
222.5
 20
371.0
 30
0.0
 40
6.0
  0
TEXT
  5
B7
  8
ETC
  6
CONTINUOUS
 62
    61
 10
386.56379700000002
 20
552.68632000000002
 30
0.0
 40
64.0
  1
VD-23ZXP9-W_6
 41
0.9
  0
TEXT
  5
B8
  8
ETC
  6
CONTINUOUS
 62
    61
 10
382.37780299999991
 20
434.73101000000003
 30
0.0
 40
64.0
  1
換気扇
 41
0.9
  0
TEXT
  5
B9
  8
ETC
  6
CONTINUOUS
 62
    61
 10
432.98530599999992
 20
326.89523000000003
 30
0.0
 40
40.0
  1
VD-23ZXP9-W
 41
0.9
  0
LINE
  5
BA
  8
SIZE
  6
CONTINUOUS
 62
    30
 10
0.0
 20
-296.49377600000008
 30
0.0
 11
0.0
 21
-558.20291599999985
 31
0.0
  0
LINE
  5
BB
  8
SIZE
  6
CONTINUOUS
 62
    30
 10
-110.4999999999999
 20
-395.95097900000002
 30
0.0
 11
-110.4999999999999
 21
-558.20291599999985
 31
0.0
  0
LINE
  5
BC
  8
SIZE
  6
CONTINUOUS
 62
    30
 10
-98.500000000000014
 20
-538.20291599999996
 30
0.0
 11
-12.0
 21
-538.20291599999996
 31
0.0
  0
LINE
  5
BD
  8
SIZE
  6
CONTINUOUS
 62
    30
 10
0.0
 20
-538.20291599999996
 30
0.0
 11
163.485714
 21
-538.20291599999996
 31
0.0
  0
CIRCLE
  5
BE
  8
SIZE
  6
CONTINUOUS
 62
    30
 10
-110.4999999999999
 20
-538.20291599999996
 30
0.0
 40
6.0
  0
LINE
  5
BF
  8
SIZE
  6
CONTINUOUS
 62
    30
 10
-110.4999999999999
 20
-538.20291599999996
 30
0.0
 11
-98.500000000000014
 21
-538.20291599999996
 31
0.0
  0
CIRCLE
  5
C0
  8
SIZE
  6
CONTINUOUS
 62
    30
 10
0.0
 20
-538.20291599999996
 30
0.0
 40
6.0
  0
LINE
  5
C1
  8
SIZE
  6
CONTINUOUS
 62
    30
 10
0.0
 20
-538.20291599999996
 30
0.0
 11
-12.0
 21
-538.20291599999996
 31
0.0
  0
TEXT
  5
C2
  8
SIZE
  6
CONTINUOUS
 62
    30
 10
36.999999857142868
 20
-513.20291599999996
 30
0.0
 40
64.0
  1
111
 41
0.9
 72
     1
 11
87.742857000000001
 21
-513.20291599999996
 31
0.0
  0
POINT
  5
C3
  8
DEFPOINTS
  6
CONTINUOUS
 62
    30
 10
0.0
 20
-276.49377600000003
 30
0.0
  0
POINT
  5
C4
  8
DEFPOINTS
  6
CONTINUOUS
 62
    30
 10
-110.4999999999999
 20
-375.95097900000002
 30
0.0
  0
POINT
  5
C5
  8
DEFPOINTS
  6
CONTINUOUS
 62
    30
 10
-110.4999999999999
 20
-538.20291599999996
 30
0.0
  0
ENDSEC
  0
EOF
