  0
SECTION
  2
HEADER
  9
$ACADVER
  1
AC1009
  9
$DWGCODEPAGE
  3
dos932
  9
$INSBASE
 10
0.0
 20
0.0
 30
0.0
  9
$EXTMIN
 10
-692.46824523721443
 20
-697.90648272948602
 30
-0.0015258207003583
  9
$EXTMAX
 10
1263.4826778591159
 20
751.09864102105894
 30
0.0000000349246037
  9
$LIMMIN
 10
-2970.0
 20
-2100.0
  9
$LIMMAX
 10
2970.0
 20
2100.0
  9
$ORTHOMODE
 70
     1
  9
$REGENMODE
 70
     1
  9
$FILLMODE
 70
     1
  9
$QTEXTMODE
 70
     0
  9
$MIRRTEXT
 70
     0
  9
$LTSCALE
 40
20.0
  9
$ATTMODE
 70
     1
  9
$TEXTSIZE
 40
64.0
  9
$TRACEWID
 40
0.05
  9
$TEXTSTYLE
  7
STANDARD
  9
$CLAYER
  8
SIZE
  9
$CELTYPE
  6
CONTINUOUS
  9
$CECOLOR
 62
     7
  9
$DIMSCALE
 40
1.0
  9
$DIMASZ
 40
12.0
  9
$DIMEXO
 40
20.0
  9
$DIMDLI
 40
200.0
  9
$DIMRND
 40
0.0
  9
$DIMDLE
 40
0.0
  9
$DIMEXE
 40
20.0
  9
$DIMTP
 40
0.0
  9
$DIMTM
 40
0.0
  9
$DIMTXT
 40
64.0
  9
$DIMCEN
 40
0.09
  9
$DIMTSZ
 40
0.0
  9
$DIMTOL
 70
     0
  9
$DIMLIM
 70
     0
  9
$DIMTIH
 70
     0
  9
$DIMTOH
 70
     0
  9
$DIMSE1
 70
     0
  9
$DIMSE2
 70
     0
  9
$DIMTAD
 70
     1
  9
$DIMZIN
 70
     8
  9
$DIMBLK
  1

  9
$DIMASO
 70
     1
  9
$DIMSHO
 70
     0
  9
$DIMPOST
  1

  9
$DIMAPOST
  1

  9
$DIMALT
 70
     0
  9
$DIMALTD
 70
     2
  9
$DIMALTF
 40
25.399999999999999
  9
$DIMLFAC
 40
1.0
  9
$DIMTOFL
 70
     1
  9
$DIMTVP
 40
0.0
  9
$DIMTIX
 70
     1
  9
$DIMSOXD
 70
     0
  9
$DIMSAH
 70
     0
  9
$DIMBLK1
  1

  9
$DIMBLK2
  1

  9
$DIMSTYLE
  2
STANDARD
  9
$DIMCLRD
 70
     7
  9
$DIMCLRE
 70
     7
  9
$DIMCLRT
 70
     7
  9
$DIMTFAC
 40
1.0
  9
$DIMGAP
 40
25.0
  9
$LUNITS
 70
     2
  9
$LUPREC
 70
     4
  9
$SKETCHINC
 40
0.1
  9
$FILLETRAD
 40
3.0
  9
$AUNITS
 70
     1
  9
$AUPREC
 70
     3
  9
$MENU
  1
ACAD
  9
$ELEVATION
 40
0.0
  9
$PELEVATION
 40
0.0
  9
$THICKNESS
 40
0.0
  9
$LIMCHECK
 70
     0
  9
$CHAMFERA
 40
0.0
  9
$CHAMFERB
 40
0.0
  9
$SKPOLY
 70
     0
  9
$TDCREATE
 40
2453019.62301037
  9
$TDUPDATE
 40
2459025.524070266
  9
$TDINDWG
 40
1.7130946875
  9
$TDUSRTIMER
 40
1.7130946875
  9
$USRTIMER
 70
     1
  9
$ANGBASE
 50
0.0
  9
$ANGDIR
 70
     0
  9
$PDMODE
 70
     3
  9
$PDSIZE
 40
-2.0
  9
$PLINEWID
 40
0.0
  9
$SPLFRAME
 70
     0
  9
$SPLINETYPE
 70
     6
  9
$SPLINESEGS
 70
     8
  9
$SURFTAB1
 70
     6
  9
$SURFTAB2
 70
     6
  9
$SURFTYPE
 70
     6
  9
$SURFU
 70
     6
  9
$SURFV
 70
     6
  9
$UCSNAME
  2

  9
$UCSORG
 10
0.0
 20
0.0
 30
0.0
  9
$UCSXDIR
 10
1.0
 20
0.0
 30
0.0
  9
$UCSYDIR
 10
0.0
 20
1.0
 30
0.0
  9
$PUCSNAME
  2

  9
$PUCSORG
 10
0.0
 20
0.0
 30
0.0
  9
$PUCSXDIR
 10
1.0
 20
0.0
 30
0.0
  9
$PUCSYDIR
 10
0.0
 20
1.0
 30
0.0
  9
$USERI1
 70
     0
  9
$USERI2
 70
     0
  9
$USERI3
 70
     0
  9
$USERI4
 70
     0
  9
$USERI5
 70
     0
  9
$USERR1
 40
20.0
  9
$USERR2
 40
0.0
  9
$USERR3
 40
0.0
  9
$USERR4
 40
0.0
  9
$USERR5
 40
0.0
  9
$WORLDVIEW
 70
     1
  9
$SHADEDGE
 70
     3
  9
$SHADEDIF
 70
    70
  9
$TILEMODE
 70
     1
  9
$MAXACTVP
 70
    48
  9
$PINSBASE
 10
0.0
 20
0.0
 30
0.0
  9
$PLIMCHECK
 70
     0
  9
$PEXTMIN
 10
-100000000000000000000.0
 20
-100000000000000000000.0
 30
-100000000000000000000.0
  9
$PEXTMAX
 10
100000000000000000000.0
 20
100000000000000000000.0
 30
100000000000000000000.0
  9
$PLIMMIN
 10
0.0
 20
0.0
  9
$PLIMMAX
 10
12.0
 20
9.0
  9
$UNITMODE
 70
     0
  9
$VISRETAIN
 70
     0
  9
$PLINEGEN
 70
     0
  9
$PSLTSCALE
 70
     0
  9
$TREEDEPTH
 70
  3020
  9
$ATTDIA
 70
     0
  9
$ATTREQ
 70
     1
  9
$BLIPMODE
 70
     1
  9
$COORDS
 70
     1
  9
$DRAGMODE
 70
     2
  9
$OSMODE
 70
     0
  9
$HANDLING
 70
     0
  9
$HANDSEED
  5
F1C2
  0
ENDSEC
  0
SECTION
  2
TABLES
  0
TABLE
  2
LTYPE
 70
     2
  0
LTYPE
  2
CONTINUOUS
 70
     0
  3
実線
 72
    65
 73
     0
 40
0.0
  0
LTYPE
  2
DASHDOT
 70
     0
  3
____ _ ____ _ ____ _ ____ _ ____ _ ____ _ ____
 72
    65
 73
     4
 40
5.5
 49
4.0
 49
-0.6
 49
0.3
 49
-0.6
  0
ENDTAB
  0
TABLE
  2
LAYER
 70
    12
  0
LAYER
  2
0
 70
     0
 62
     7
  6
CONTINUOUS
  0
LAYER
  2
BASIS
 70
     0
 62
     6
  6
DASHDOT
  0
LAYER
  2
OUTLINE
 70
     0
 62
     3
  6
CONTINUOUS
  0
LAYER
  2
DETAIL
 70
     0
 62
     5
  6
CONTINUOUS
  0
LAYER
  2
SIZE
 70
     0
 62
    30
  6
CONTINUOUS
  0
LAYER
  2
ARRANGE
 70
     0
 62
     1
  6
CONTINUOUS
  0
LAYER
  2
DEFPOINTS
 70
     0
 62
     7
  6
CONTINUOUS
  0
LAYER
  2
ETC
 70
     0
 62
    61
  6
CONTINUOUS
  0
LAYER
  2
FIX
 70
     0
 62
    11
  6
CONTINUOUS
  0
LAYER
  2
NOTE
 70
     0
 62
     4
  6
CONTINUOUS
  0
LAYER
  2
SERVICESPACE
 70
    64
 62
     2
  6
DASHDOT
  0
LAYER
  2
SYMBOLLINE
 70
    64
 62
    15
  6
CONTINUOUS
  0
ENDTAB
  0
TABLE
  2
STYLE
 70
     1
  0
STYLE
  2
STANDARD
 70
     0
 40
64.0
 41
0.9
 50
0.0
 71
     0
 42
64.0
  3
SIMPLEX.shx
  4
BIGFONT.shx
  0
ENDTAB
  0
TABLE
  2
APPID
 70
    19
  0
APPID
  2
ACAD
 70
     0
  0
APPID
  2
AUTOCAD_POSTSCRIPT_FIGURE
 70
     0
  0
APPID
  2
ACAD_EXEMPT_FROM_CAD_STANDARDS
 70
     0
  0
APPID
  2
ACAD_PSEXT
 70
     0
  0
APPID
  2
ACAUTHENVIRON
 70
     0
  0
APPID
  2
GENIUS_GENOENT_13
 70
     0
  0
APPID
  2
GENIUS_GENCFG_13
 70
     0
  0
APPID
  2
GENIUS_GENCFG0_13
 70
     0
  0
APPID
  2
GENIUS_GENCFG1_13
 70
     0
  0
APPID
  2
GENIUS_GENCFG2_13
 70
     0
  0
APPID
  2
GENIUS_GENCFG3_13
 70
     0
  0
APPID
  2
GENIUS_GENCFG4_13
 70
     0
  0
APPID
  2
GENIUS_GEVCFG0_13
 70
     0
  0
APPID
  2
CONTENTBLOCKICON
 70
     0
  0
APPID
  2
CONTENTBLOCKDESCRIPTION
 70
     0
  0
APPID
  2
ACAD_NAV_VCDISPLAY
 70
     0
  0
APPID
  2
ACAD_MLEADERVER
 70
     0
  0
APPID
  2
ACDBDYNAMICBLOCKTRUENAME
 70
     0
  0
APPID
  2
ACDBDYNAMICBLOCKGUID
 70
     0
  0
ENDTAB
  0
TABLE
  2
DIMSTYLE
 70
     1
  0
DIMSTYLE
  2
STANDARD
 70
     0
  3

  4

  5
_ORIGIN
  6

  7

 40
1.0
 41
12.0
 42
20.0
 43
200.0
 44
20.0
 45
0.0
 46
0.0
 47
0.0
 48
0.0
140
64.0
141
0.09
142
0.0
143
25.399999999999999
144
1.0
145
0.0
146
1.0
147
25.0
 71
     0
 72
     0
 73
     0
 74
     0
 75
     0
 76
     0
 77
     1
 78
     8
170
     0
171
     2
172
     1
173
     0
174
     1
175
     0
176
     7
177
     7
178
     7
  0
ENDTAB
  0
TABLE
  2
VIEW
 70
     1
  0
VIEW
  2
ALL
 70
     0
 40
4282.6198079999986
 10
0.0
 20
41.309904000000003
 41
5940.0
 11
0.0
 21
0.0
 31
1.0
 12
0.0
 22
0.0
 32
0.0
 42
50.0
 43
0.0
 44
0.0
 50
0.0
 71
     0
  0
ENDTAB
  0
TABLE
  2
UCS
 70
     0
  0
ENDTAB
  0
TABLE
  2
VPORT
 70
     1
  0
VPORT
  2
*ACTIVE
 70
     0
 10
0.0
 20
0.0
 11
1.0
 21
1.0
 12
285.50721631095081
 22
26.596079145786462
 13
0.0
 23
0.0
 14
1.0
 24
1.0
 15
0.0
 25
0.0
 16
0.0
 26
0.0
 36
1.0
 17
0.0
 27
0.0
 37
0.0
 40
1458.611787554416
 41
1.747787610619469
 42
50.0
 43
0.0
 44
0.0
 50
0.0
 51
0.0
 71
     0
 72
  1000
 73
     1
 74
     3
 75
     0
 76
     0
 77
     0
 78
     0
  0
ENDTAB
  0
ENDSEC
  0
SECTION
  2
BLOCKS
  0
BLOCK
  8
0
  2
_ORIGIN
 70
     0
 10
0.0
 20
0.0
 30
0.0
  3
_ORIGIN
  1
_ORIGIN
  0
CIRCLE
  8
0
  6
CONTINUOUS
 62
     7
 10
0.0
 20
0.0
 30
0.0
 40
0.5
  0
LINE
  8
0
  6
CONTINUOUS
 62
     7
 10
0.0
 20
0.0
 30
0.0
 11
-1.0
 21
0.0
 31
0.0
  0
ENDBLK
  8
0
  0
ENDSEC
  0
SECTION
  2
ENTITIES
  0
POINT
  8
ARRANGE
  6
CONTINUOUS
 62
     1
 10
0.0
 20
0.0
 30
0.0
  0
CIRCLE
  8
ARRANGE
  6
CONTINUOUS
 62
     1
 10
0.0
 20
0.0
 30
0.0
 40
40.0
  0
TEXT
  8
ETC
  6
CONTINUOUS
 62
    61
 10
481.61274281011077
 20
663.59936260397694
 30
0.0
 40
64.0
  1
VD-25ZE13-FP_3
 41
0.9
  0
TEXT
  8
ETC
  6
CONTINUOUS
 62
    61
 10
477.42674881011038
 20
545.64405258914576
 30
0.0
 40
64.0
  1
換気扇
 41
0.9
  0
TEXT
  8
ETC
  6
CONTINUOUS
 62
    61
 10
528.1281470586664
 20
437.49527970292053
 30
0.0
 40
40.0
  1
VD-25ZE13-FP
 41
0.9
  0
LINE
  8
OUTLINE
  6
CONTINUOUS
 62
     3
 10
-235.0
 20
0.0
 30
0.0
 11
235.0
 21
0.0
 31
0.0
  0
LINE
  8
OUTLINE
  6
CONTINUOUS
 62
     3
 10
-193.0
 20
230.0
 30
0.0
 11
193.0
 21
230.0
 31
0.0
  0
LINE
  8
DETAIL
  6
CONTINUOUS
 62
     5
 10
-234.97260899999989
 20
0.0
 30
0.0
 11
235.02739100000011
 21
0.0
 31
0.0
  0
TEXT
  8
SIZE
  6
CONTINUOUS
 62
    30
 10
-110.5097518571428
 20
-652.60625135539112
 30
0.0
 40
64.0
  1
□470
 41
0.9
 72
     1
 11
0.0273910000000797
 21
-652.60625135539112
 31
0.0
  0
LINE
  8
SIZE
  6
CONTINUOUS
 62
    30
 10
-222.97260899999989
 20
-677.60625135539112
 30
0.0
 11
223.02739100000011
 21
-677.60625135539112
 31
0.0
  0
LINE
  8
DETAIL
  6
CONTINUOUS
 62
     5
 10
-81.5
 20
278.0
 30
0.0
 11
6.5
 21
278.0
 31
0.0
  0
LINE
  8
DETAIL
  6
CONTINUOUS
 62
     5
 10
-86.5
 20
242.0
 30
0.0
 11
11.5
 21
242.0
 31
0.0
  0
LINE
  8
SIZE
  6
CONTINUOUS
 62
    30
 10
11.5
 20
418.94878885368831
 30
0.0
 11
-0.5
 21
418.94878885368831
 31
0.0
  0
LINE
  8
DETAIL
  6
CONTINUOUS
 62
     5
 10
-193.0
 20
223.0
 30
0.0
 11
193.0
 21
223.0
 31
0.0
  0
TEXT
  8
SIZE
  6
CONTINUOUS
 62
    30
 10
-68.571428571428555
 20
687.0566622151523
 30
0.0
 40
64.0
  1
418
 41
0.9
 72
     1
 11
0.0
 21
687.0566622151523
 31
0.0
  0
LINE
  8
SIZE
  6
CONTINUOUS
 62
    30
 10
-197.0
 20
669.01168221515218
 30
0.0
 11
197.0
 21
669.01168221515218
 31
0.0
  0
TEXT
  8
SIZE
  6
CONTINUOUS
 62
    30
 10
-68.571428571428555
 20
-507.66523171515882
 30
0.0
 40
64.0
  1
410
 41
0.9
 72
     1
 11
0.0
 21
-507.66523171515882
 31
0.0
  0
LINE
  8
SIZE
  6
CONTINUOUS
 62
    30
 10
-193.0
 20
-535.8639537151588
 30
0.0
 11
193.0
 21
-535.8639537151588
 31
0.0
  0
TEXT
  8
SIZE
  6
CONTINUOUS
 62
    30
 10
-109.1657142857143
 20
566.13060377657166
 30
0.0
 40
64.0
  1
□386
 41
0.9
 72
     1
 11
0.0
 21
566.13060377657166
 31
0.0
  0
LINE
  8
SIZE
  6
CONTINUOUS
 62
    30
 10
181.0
 20
540.90618242362962
 30
0.0
 11
-181.0
 21
540.90618242362962
 31
0.0
  0
TEXT
  8
SIZE
  6
CONTINUOUS
 62
    30
 10
-74.05714285714285
 20
-235.0291970000001
 30
0.0
 40
64.0
  1
300
 41
0.9
 72
     1
 11
0.0
 21
-235.0291970000001
 31
0.0
  0
LINE
  8
SIZE
  6
CONTINUOUS
 62
    30
 10
-138.0
 20
-260.611535
 30
0.0
 11
138.0
 21
-260.611535
 31
0.0
  0
LINE
  8
DETAIL
  6
CONTINUOUS
 62
     5
 10
-193.0
 20
230.0
 30
0.0
 11
193.0
 21
230.0
 31
0.0
  0
LINE
  8
OUTLINE
  6
CONTINUOUS
 62
     3
 10
-193.0
 20
0.0
 30
0.0
 11
-193.0
 21
230.0
 31
0.0
  0
LINE
  8
NOTE
  6
CONTINUOUS
 62
     4
 10
-205.0
 20
-20.0
 30
0.0
 11
-205.0
 21
20.0
 31
0.0
  0
LINE
  8
NOTE
  6
CONTINUOUS
 62
     4
 10
-150.0
 20
-20.0
 30
0.0
 11
-150.0
 21
20.0
 31
0.0
  0
CIRCLE
  8
FIX
  6
CONTINUOUS
 62
    11
 10
-150.0
 20
0.0
 30
0.0
 40
2.5
  0
CIRCLE
  8
FIX
  6
CONTINUOUS
 62
    11
 10
-205.0
 20
0.0
 30
0.0
 40
2.5
  0
LINE
  8
DETAIL
  6
CONTINUOUS
 62
     5
 10
-193.0
 20
0.0
 30
0.0
 11
-193.0
 21
230.0
 31
0.0
  0
LINE
  8
BASIS
  6
DASHDOT
 62
     6
 10
0.0
 20
-72.855032999999935
 30
0.0
 11
0.0
 21
326.0
 31
0.0
  0
LINE
  8
NOTE
  6
CONTINUOUS
 62
     4
 10
-205.0
 20
0.0
 30
0.0
 11
-301.68764599999992
 21
-171.08835899999991
 31
0.0
  0
LINE
  8
SIZE
  6
CONTINUOUS
 62
    30
 10
-234.97260899999989
 20
-20.0
 30
0.0
 11
-234.97260899999989
 21
-697.60625135539078
 31
0.0
  0
LINE
  8
SIZE
  6
CONTINUOUS
 62
    30
 10
-234.97260899999989
 20
-677.60625135539112
 30
0.0
 11
-222.97260899999989
 21
-677.60625135539112
 31
0.0
  0
CIRCLE
  8
SIZE
  6
CONTINUOUS
 62
    30
 10
-234.97260899999989
 20
-677.60625135539112
 30
0.0
 40
6.0
  0
LINE
  8
NOTE
  6
CONTINUOUS
 62
     4
 10
-692.05751399999986
 20
-171.08835899999991
 30
0.0
 11
-301.68764599999992
 21
-171.08835899999991
 31
0.0
  0
TEXT
  8
NOTE
  6
CONTINUOUS
 62
     4
 10
-683.01962300000014
 20
-138.124088
 30
0.0
 40
64.0
  1
8-φ5×8
 41
0.9
  0
LINE
  8
SIZE
  6
CONTINUOUS
 62
    30
 10
-205.0
 20
-40.0
 30
0.0
 11
-205.0
 21
-555.8639537151588
 31
0.0
  0
LINE
  8
SIZE
  6
CONTINUOUS
 62
    30
 10
-193.0
 20
251.6227631978048
 30
0.0
 11
-193.0
 21
560.90618242362962
 31
0.0
  0
LINE
  8
SIZE
  6
CONTINUOUS
 62
    30
 10
-205.0
 20
-535.8639537151588
 30
0.0
 11
-193.0
 21
-535.8639537151588
 31
0.0
  0
CIRCLE
  8
SIZE
  6
CONTINUOUS
 62
    30
 10
-205.0
 20
-535.8639537151588
 30
0.0
 40
6.0
  0
LINE
  8
SIZE
  6
CONTINUOUS
 62
    30
 10
-193.0
 20
540.90618242362962
 30
0.0
 11
-181.0
 21
540.90618242362962
 31
0.0
  0
CIRCLE
  8
SIZE
  6
CONTINUOUS
 62
    30
 10
-193.0
 20
540.90618242362962
 30
0.0
 40
6.0
  0
LINE
  8
NOTE
  6
CONTINUOUS
 62
     4
 10
-232.98486399999999
 20
-28.58054200000004
 30
0.0
 11
-205.0
 21
0.0
 31
0.0
  0
LINE
  8
DETAIL
  6
CONTINUOUS
 62
     5
 10
-234.97260899999989
 20
0.0
 30
0.0
 11
-234.97260899999989
 21
-1.0
 31
0.0
  0
LINE
  8
SIZE
  6
CONTINUOUS
 62
    30
 10
-150.0
 20
-40.0
 30
0.0
 11
-150.0
 21
-280.611535
 31
0.0
  0
LINE
  8
SIZE
  6
CONTINUOUS
 62
    30
 10
-150.0
 20
-260.611535
 30
0.0
 11
-138.0
 21
-260.611535
 31
0.0
  0
CIRCLE
  8
SIZE
  6
CONTINUOUS
 62
    30
 10
-150.0
 20
-260.611535
 30
0.0
 40
6.0
  0
LINE
  8
NOTE
  6
CONTINUOUS
 62
     4
 10
-205.0
 20
0.0
 30
0.0
 11
-214.9453309999999
 21
-38.743908000000033
 31
0.0
  0
LINE
  8
NOTE
  6
CONTINUOUS
 62
     4
 10
-185.0
 20
0.0
 30
0.0
 11
-225.0
 21
0.0
 31
0.0
  0
LINE
  8
NOTE
  6
CONTINUOUS
 62
     4
 10
-130.0
 20
0.0
 30
0.0
 11
-170.0
 21
0.0
 31
0.0
  0
CIRCLE
  8
FIX
  6
CONTINUOUS
 62
    11
 10
-209.0
 20
237.0
 30
0.0
 40
6.0
  0
TEXT
  8
SIZE
  6
CONTINUOUS
 62
    30
 10
-133.89509742645379
 20
443.94878885368831
 30
0.0
 40
64.0
  1
φ98
 41
0.9
 72
     1
 11
-46.946525997882418
 21
443.94878885368831
 31
0.0
  0
LINE
  8
SIZE
  6
CONTINUOUS
 62
    30
 10
-209.0
 20
274.5
 30
0.0
 11
-209.0
 21
689.01168221515218
 31
0.0
  0
TEXT
  8
NOTE
  6
CONTINUOUS
 62
     4
 10
-396.66088103634252
 20
485.30504282657898
 30
0.0
 40
64.0
  1
EL
 41
0.9
  0
LINE
  8
NOTE
  6
CONTINUOUS
 62
     4
 10
-275.31187019973089
 20
458.35135682657909
 30
0.0
 11
-410.55343403634288
 21
458.35135682657909
 31
0.0
  0
LINE
  8
SIZE
  6
CONTINUOUS
 62
    30
 10
-86.5
 20
292.94001400000002
 30
0.0
 11
-86.5
 21
438.94878885368831
 31
0.0
  0
LINE
  8
NOTE
  6
CONTINUOUS
 62
     4
 10
-169.0
 20
230.0
 30
0.0
 11
-275.31187019973089
 21
458.35135682657909
 31
0.0
  0
LINE
  8
NOTE
  6
CONTINUOUS
 62
     4
 10
-169.0
 20
230.0
 30
0.0
 11
-194.62137867262459
 21
260.71717705408412
 31
0.0
  0
LINE
  8
NOTE
  6
CONTINUOUS
 62
     4
 10
-175.83017556314871
 20
269.41254472208038
 30
0.0
 11
-169.0
 21
230.0
 31
0.0
  0
LINE
  8
NOTE
  6
CONTINUOUS
 62
     4
 10
-169.0
 20
210.0
 30
0.0
 11
-169.0
 21
250.0
 31
0.0
  0
LINE
  8
NOTE
  6
CONTINUOUS
 62
     4
 10
-209.0
 20
218.0
 30
0.0
 11
-209.0
 21
258.0
 31
0.0
  0
LINE
  8
NOTE
  6
CONTINUOUS
 62
     4
 10
-149.0
 20
230.0
 30
0.0
 11
-188.9999999999998
 21
230.0
 31
0.0
  0
LINE
  8
NOTE
  6
CONTINUOUS
 62
     4
 10
-189.0
 20
237.0
 30
0.0
 11
-229.0
 21
237.0
 31
0.0
  0
LINE
  8
DETAIL
  6
CONTINUOUS
 62
     5
 10
-86.5
 20
230.0
 30
0.0
 11
-86.5
 21
273.0
 31
0.0
  0
ARC
  8
DETAIL
  6
CONTINUOUS
 62
     5
 10
-81.5
 20
273.0
 30
0.0
 40
5.0
 50
90.0
 51
180.0
  0
LINE
  8
SIZE
  6
CONTINUOUS
 62
    30
 10
-74.5
 20
418.94878885368831
 30
0.0
 11
-0.5
 21
418.94878885368831
 31
0.0
  0
LINE
  8
SIZE
  6
CONTINUOUS
 62
    30
 10
-86.5
 20
418.94878885368831
 30
0.0
 11
-74.5
 21
418.94878885368831
 31
0.0
  0
CIRCLE
  8
SIZE
  6
CONTINUOUS
 62
    30
 10
-86.5
 20
418.94878885368831
 30
0.0
 40
6.0
  0
LINE
  8
SIZE
  6
CONTINUOUS
 62
    30
 10
-209.0
 20
669.01168221515218
 30
0.0
 11
-197.0
 21
669.01168221515218
 31
0.0
  0
CIRCLE
  8
SIZE
  6
CONTINUOUS
 62
    30
 10
-209.0
 20
669.01168221515218
 30
0.0
 40
6.0
  0
LINE
  8
OUTLINE
  6
CONTINUOUS
 62
     3
 10
193.0
 20
0.0
 30
0.0
 11
193.0
 21
230.0
 31
0.0
  0
LINE
  8
DETAIL
  6
CONTINUOUS
 62
     5
 10
193.0
 20
0.0
 30
0.0
 11
193.0
 21
230.0
 31
0.0
  0
LINE
  8
SIZE
  6
CONTINUOUS
 62
    30
 10
429.17409794500139
 20
0.0
 30
0.0
 11
429.17409794500139
 21
12.0
 31
0.0
  0
CIRCLE
  8
SIZE
  6
CONTINUOUS
 62
    30
 10
429.17409794500139
 20
0.0
 30
0.0
 40
6.0
  0
LINE
  8
SIZE
  6
CONTINUOUS
 62
    30
 10
429.17409794500139
 20
0.0
 30
0.0
 11
429.17409794500139
 21
12.0
 31
0.0
  0
CIRCLE
  8
SIZE
  6
CONTINUOUS
 62
    30
 10
429.17409794500139
 20
0.0
 30
0.0
 40
6.0
  0
LINE
  8
NOTE
  6
CONTINUOUS
 62
     4
 10
150.0
 20
-20.0
 30
0.0
 11
150.0
 21
20.0
 31
0.0
  0
CIRCLE
  8
FIX
  6
CONTINUOUS
 62
    11
 10
150.0
 20
0.0
 30
0.0
 40
2.5
  0
CIRCLE
  8
FIX
  6
CONTINUOUS
 62
    11
 10
205.0
 20
0.0
 30
0.0
 40
2.5
  0
LINE
  8
NOTE
  6
CONTINUOUS
 62
     4
 10
205.0
 20
-20.0
 30
0.0
 11
205.0
 21
20.0
 31
0.0
  0
LINE
  8
SIZE
  6
CONTINUOUS
 62
    30
 10
235.02739100000011
 20
-20.0
 30
0.0
 11
235.02739100000011
 21
-697.60625135539078
 31
0.0
  0
LINE
  8
SIZE
  6
CONTINUOUS
 62
    30
 10
235.02739100000011
 20
-677.60625135539112
 30
0.0
 11
223.02739100000011
 21
-677.60625135539112
 31
0.0
  0
CIRCLE
  8
SIZE
  6
CONTINUOUS
 62
    30
 10
235.02739100000011
 20
-677.60625135539112
 30
0.0
 40
6.0
  0
LINE
  8
SIZE
  6
CONTINUOUS
 62
    30
 10
255.02739100000011
 20
0.0
 30
0.0
 11
318.4401829450012
 21
0.0
 31
0.0
  0
LINE
  8
SIZE
  6
CONTINUOUS
 62
    30
 10
234.09269199999989
 20
-55.0
 30
0.0
 11
449.17409794500139
 21
-55.0
 31
0.0
  0
LINE
  8
SIZE
  6
CONTINUOUS
 62
    30
 10
255.02739100000011
 20
0.0
 30
0.0
 11
449.17409794500139
 21
0.0
 31
0.0
  0
LINE
  8
SIZE
  6
CONTINUOUS
 62
    30
 10
255.02739100000011
 20
0.0
 30
0.0
 11
449.17409794500139
 21
0.0
 31
0.0
  0
LINE
  8
SIZE
  6
CONTINUOUS
 62
    30
 10
205.0
 20
-40.0
 30
0.0
 11
205.0
 21
-555.8639537151588
 31
0.0
  0
LINE
  8
SIZE
  6
CONTINUOUS
 62
    30
 10
193.0
 20
258.0
 30
0.0
 11
193.0
 21
560.90618242362962
 31
0.0
  0
LINE
  8
SIZE
  6
CONTINUOUS
 62
    30
 10
205.0
 20
-535.8639537151588
 30
0.0
 11
193.0
 21
-535.8639537151588
 31
0.0
  0
CIRCLE
  8
SIZE
  6
CONTINUOUS
 62
    30
 10
205.0
 20
-535.8639537151588
 30
0.0
 40
6.0
  0
LINE
  8
SIZE
  6
CONTINUOUS
 62
    30
 10
193.0
 20
540.90618242362962
 30
0.0
 11
181.0
 21
540.90618242362962
 31
0.0
  0
CIRCLE
  8
SIZE
  6
CONTINUOUS
 62
    30
 10
193.0
 20
540.90618242362962
 30
0.0
 40
6.0
  0
LINE
  8
SIZE
  6
CONTINUOUS
 62
    30
 10
150.0
 20
-40.0
 30
0.0
 11
150.0
 21
-280.611535
 31
0.0
  0
LINE
  8
SIZE
  6
CONTINUOUS
 62
    30
 10
150.0
 20
-260.611535
 30
0.0
 11
138.0
 21
-260.611535
 31
0.0
  0
CIRCLE
  8
SIZE
  6
CONTINUOUS
 62
    30
 10
150.0
 20
-260.611535
 30
0.0
 40
6.0
  0
LINE
  8
NOTE
  6
CONTINUOUS
 62
     4
 10
130.0
 20
0.0
 30
0.0
 11
170.0
 21
0.0
 31
0.0
  0
LINE
  8
NOTE
  6
CONTINUOUS
 62
     4
 10
185.0
 20
0.0
 30
0.0
 11
225.0
 21
0.0
 31
0.0
  0
LINE
  8
DETAIL
  6
CONTINUOUS
 62
     5
 10
235.02739100000011
 20
0.0
 30
0.0
 11
235.02739100000011
 21
-1.0
 31
0.0
  0
TEXT
  8
SIZE
  6
CONTINUOUS
 62
    30
 10
404.13207294500131
 20
-194.8556714285715
 30
0.0
 40
64.0
  1
55
 50
90.0
 41
0.9
 72
     1
 11
404.13207294500131
 21
-148.22710000000009
 31
0.0
  0
LINE
  8
SIZE
  6
CONTINUOUS
 62
    30
 10
429.17409794500139
 20
-22.5
 30
0.0
 11
429.17409794500139
 21
-241.2404299999998
 31
0.0
  0
CIRCLE
  8
SIZE
  6
CONTINUOUS
 62
    30
 10
429.17409794500139
 20
-55.0
 30
0.0
 40
6.0
  0
LINE
  8
SIZE
  6
CONTINUOUS
 62
    30
 10
429.17409794500139
 20
-55.0
 30
0.0
 11
429.17409794500139
 21
-67.0
 31
0.0
  0
LINE
  8
SIZE
  6
CONTINUOUS
 62
    30
 10
429.17409794500139
 20
0.0
 30
0.0
 11
429.17409794500139
 21
-55.0
 31
0.0
  0
LINE
  8
SIZE
  6
CONTINUOUS
 62
    30
 10
429.17409794500139
 20
0.0
 30
0.0
 11
429.17409794500139
 21
-55.0
 31
0.0
  0
LINE
  8
SIZE
  6
CONTINUOUS
 62
    30
 10
429.17409794500139
 20
-67.0
 30
0.0
 11
429.17409794500139
 21
-79.0
 31
0.0
  0
CIRCLE
  8
FIX
  6
CONTINUOUS
 62
    11
 10
209.0
 20
237.0
 30
0.0
 40
6.0
  0
LINE
  8
NOTE
  6
CONTINUOUS
 62
     4
 10
-305.76774007181018
 20
319.28418855406562
 30
0.0
 11
-527.92735185766651
 21
319.28418855406562
 31
0.0
  0
TEXT
  8
NOTE
  6
CONTINUOUS
 62
     4
 10
-518.36639485766636
 20
357.37502355406559
 30
0.0
 40
64.0
  1
AH 4
 41
0.9
  0
TEXT
  8
SIZE
  6
CONTINUOUS
 62
    30
 10
299.5136775714281
 20
565.90618242362962
 30
0.0
 40
64.0
  1
35
 41
0.9
 72
     1
 11
346.14224899999948
 21
565.90618242362962
 31
0.0
  0
LINE
  8
SIZE
  6
CONTINUOUS
 62
    30
 10
209.0
 20
274.5
 30
0.0
 11
209.0
 21
689.01168221515218
 31
0.0
  0
LINE
  8
SIZE
  6
CONTINUOUS
 62
    30
 10
26.5
 20
278.0
 30
0.0
 11
449.17409794500139
 21
278.0
 31
0.0
  0
LINE
  8
SIZE
  6
CONTINUOUS
 62
    30
 10
228.0
 20
181.4999999999998
 30
0.0
 11
228.0
 21
560.90618242362916
 31
0.0
  0
LINE
  8
SIZE
  6
CONTINUOUS
 62
    30
 10
193.0
 20
258.0
 30
0.0
 11
193.0
 21
560.90618242362916
 31
0.0
  0
LINE
  8
SIZE
  6
CONTINUOUS
 62
    30
 10
11.5
 20
292.94001400000002
 30
0.0
 11
11.5
 21
438.94878885368831
 31
0.0
  0
LINE
  8
NOTE
  6
CONTINUOUS
 62
     4
 10
-209.00082639520431
 20
236.87500273174601
 30
0.0
 11
-305.76774007181018
 21
319.28418855406562
 31
0.0
  0
LINE
  8
NOTE
  6
CONTINUOUS
 62
     4
 10
-231.3226510112149
 20
270.72506068033317
 30
0.0
 11
-209.00082639520431
 21
236.87500273174601
 31
0.0
  0
ARC
  8
DETAIL
  6
CONTINUOUS
 62
     5
 10
111.8289119863482
 20
160.9929302851335
 30
0.0
 40
116.1714340578956
 50
314.32425023817183
 51
39.828642089976157
  0
LINE
  8
DETAIL
  6
CONTINUOUS
 62
     5
 10
11.5
 20
269.49999999999977
 30
0.0
 11
170.5
 21
269.49999999999977
 31
0.0
  0
LINE
  8
DETAIL
  6
CONTINUOUS
 62
     5
 10
11.5
 20
230.0
 30
0.0
 11
11.5
 21
273.0
 31
0.0
  0
ARC
  8
DETAIL
  6
CONTINUOUS
 62
     5
 10
6.5
 20
273.0
 30
0.0
 40
5.0
 50
0.0
 51
90.0
  0
ARC
  8
DETAIL
  6
CONTINUOUS
 62
     5
 10
106.1154366579181
 20
159.46425655648071
 30
0.0
 40
121.51992524143201
 50
39.64653847994731
 51
58.006218738374258
  0
LINE
  8
NOTE
  6
CONTINUOUS
 62
     4
 10
209.0
 20
218.0
 30
0.0
 11
209.0
 21
258.0
 31
0.0
  0
LINE
  8
NOTE
  6
CONTINUOUS
 62
     4
 10
-209.00082639520431
 20
236.87500273174601
 30
0.0
 11
-245.38778856102979
 21
255.52997450515829
 31
0.0
  0
LINE
  8
NOTE
  6
CONTINUOUS
 62
     4
 10
189.0
 20
237.0
 30
0.0
 11
229.0
 21
237.0
 31
0.0
  0
LINE
  8
DETAIL
  6
CONTINUOUS
 62
     5
 10
170.5
 20
262.52598699999999
 30
0.0
 11
170.5
 21
269.49999999999977
 31
0.0
  0
LINE
  8
SIZE
  6
CONTINUOUS
 62
    30
 10
228.0
 20
540.90618242362962
 30
0.0
 11
240.0
 21
540.90618242362962
 31
0.0
  0
CIRCLE
  8
SIZE
  6
CONTINUOUS
 62
    30
 10
228.0
 20
540.90618242362962
 30
0.0
 40
6.0
  0
LINE
  8
SIZE
  6
CONTINUOUS
 62
    30
 10
417.77081999999967
 20
540.90618242362962
 30
0.0
 11
228.0
 21
540.90618242362962
 31
0.0
  0
CIRCLE
  8
SIZE
  6
CONTINUOUS
 62
    30
 10
11.5
 20
418.94878885368831
 30
0.0
 40
6.0
  0
LINE
  8
SIZE
  6
CONTINUOUS
 62
    30
 10
181.0
 20
540.90618242362962
 30
0.0
 11
169.0
 21
540.90618242362962
 31
0.0
  0
LINE
  8
SIZE
  6
CONTINUOUS
 62
    30
 10
193.0
 20
540.90618242362962
 30
0.0
 11
181.0
 21
540.90618242362962
 31
0.0
  0
CIRCLE
  8
SIZE
  6
CONTINUOUS
 62
    30
 10
193.0
 20
540.90618242362962
 30
0.0
 40
6.0
  0
LINE
  8
SIZE
  6
CONTINUOUS
 62
    30
 10
193.0
 20
540.90618242362962
 30
0.0
 11
228.0
 21
540.90618242362962
 31
0.0
  0
LINE
  8
SIZE
  6
CONTINUOUS
 62
    30
 10
193.0
 20
540.90618242362962
 30
0.0
 11
228.0
 21
540.90618242362962
 31
0.0
  0
LINE
  8
SIZE
  6
CONTINUOUS
 62
    30
 10
240.0
 20
540.90618242362962
 30
0.0
 11
252.0
 21
540.90618242362962
 31
0.0
  0
TEXT
  8
SIZE
  6
CONTINUOUS
 62
    30
 10
412.27224294500138
 20
69.007852142856891
 30
0.0
 40
64.0
  1
278
 50
90.0
 41
0.9
 72
     1
 11
412.27224294500138
 21
143.0649949999997
 31
0.0
  0
LINE
  8
SIZE
  6
CONTINUOUS
 62
    30
 10
429.17409794500139
 20
12.0
 30
0.0
 11
429.17409794500139
 21
266.0
 31
0.0
  0
LINE
  8
SIZE
  6
CONTINUOUS
 62
    30
 10
429.17409794500139
 20
12.0
 30
0.0
 11
429.17409794500139
 21
24.0
 31
0.0
  0
CIRCLE
  8
SIZE
  6
CONTINUOUS
 62
    30
 10
429.17409794500139
 20
278.0
 30
0.0
 40
6.0
  0
LINE
  8
SIZE
  6
CONTINUOUS
 62
    30
 10
429.17409794500139
 20
278.0
 30
0.0
 11
429.17409794500139
 21
266.0
 31
0.0
  0
LINE
  8
SIZE
  6
CONTINUOUS
 62
    30
 10
209.0
 20
669.01168221515218
 30
0.0
 11
197.0
 21
669.01168221515218
 31
0.0
  0
CIRCLE
  8
SIZE
  6
CONTINUOUS
 62
    30
 10
209.0
 20
669.01168221515218
 30
0.0
 40
6.0
  0
LINE
  8
DETAIL
  6
CONTINUOUS
 62
     5
 10
-196.0
 20
8.0
 30
0.0
 11
-196.0
 21
28.0
 31
0.0
  0
LINE
  8
DETAIL
  6
CONTINUOUS
 62
     5
 10
-196.0
 20
8.0
 30
0.0
 11
-193.0
 21
8.0
 31
0.0
  0
LINE
  8
DETAIL
  6
CONTINUOUS
 62
     5
 10
-196.0
 20
28.0
 30
0.0
 11
-193.0
 21
28.0
 31
0.0
  0
LINE
  8
DETAIL
  6
CONTINUOUS
 62
     5
 10
196.0
 20
8.0
 30
0.0
 11
196.0
 21
28.0
 31
0.0
  0
LINE
  8
DETAIL
  6
CONTINUOUS
 62
     5
 10
196.0
 20
8.0
 30
0.0
 11
193.0
 21
8.0
 31
0.0
  0
LINE
  8
DETAIL
  6
CONTINUOUS
 62
     5
 10
196.0
 20
28.0
 30
0.0
 11
193.0
 21
28.0
 31
0.0
  0
LINE
  8
SIZE
  6
CONTINUOUS
 62
    30
 10
196.0
 20
-12.0
 30
0.0
 11
196.0
 21
-431.09400273431532
 31
0.0
  0
LINE
  8
SIZE
  6
CONTINUOUS
 62
    30
 10
-196.0
 20
-12.0
 30
0.0
 11
-196.0
 21
-431.09400273431532
 31
0.0
  0
LINE
  8
SIZE
  6
CONTINUOUS
 62
    30
 10
184.0
 20
-411.09400273431532
 30
0.0
 11
-184.0
 21
-411.09400273431532
 31
0.0
  0
CIRCLE
  8
SIZE
  6
CONTINUOUS
 62
    30
 10
196.0
 20
-411.09400273431532
 30
0.0
 40
6.0
  0
LINE
  8
SIZE
  6
CONTINUOUS
 62
    30
 10
196.0
 20
-411.09400273431532
 30
0.0
 11
184.0
 21
-411.09400273431532
 31
0.0
  0
CIRCLE
  8
SIZE
  6
CONTINUOUS
 62
    30
 10
-196.0
 20
-411.09400273431532
 30
0.0
 40
6.0
  0
LINE
  8
SIZE
  6
CONTINUOUS
 62
    30
 10
-196.0
 20
-411.09400273431532
 30
0.0
 11
-184.0
 21
-411.09400273431532
 31
0.0
  0
TEXT
  8
SIZE
  6
CONTINUOUS
 62
    30
 10
-74.05714285714285
 20
-386.09400273431532
 30
0.0
 40
64.0
  1
392
 41
0.9
 72
     1
 11
0.0
 21
-386.09400273431532
 31
0.0
  0
POINT
  8
DEFPOINTS
  6
CONTINUOUS
 62
    30
 10
196.0
 20
8.0
 30
0.0
  0
POINT
  8
DEFPOINTS
  6
CONTINUOUS
 62
    30
 10
-196.0
 20
8.0
 30
0.0
  0
POINT
  8
DEFPOINTS
  6
CONTINUOUS
 62
    30
 10
-196.0
 20
-411.09400273431532
 30
0.0
  0
LINE
  8
SIZE
  6
CONTINUOUS
 62
    30
 10
-245.25
 20
237.0
 30
0.0
 11
-346.41631414159002
 21
237.0
 31
0.0
  0
LINE
  8
SIZE
  6
CONTINUOUS
 62
    30
 10
-255.0
 20
0.0
 30
0.0
 11
-346.41631414159019
 21
0.0
 31
0.0
  0
LINE
  8
SIZE
  6
CONTINUOUS
 62
    30
 10
-326.41631414159019
 20
225.0
 30
0.0
 11
-326.41631414159019
 21
12.0
 31
0.0
  0
CIRCLE
  8
SIZE
  6
CONTINUOUS
 62
    30
 10
-326.41631414159019
 20
237.0
 30
0.0
 40
6.0
  0
LINE
  8
SIZE
  6
CONTINUOUS
 62
    30
 10
-326.41631414159019
 20
237.0
 30
0.0
 11
-326.41631414159019
 21
225.0
 31
0.0
  0
CIRCLE
  8
SIZE
  6
CONTINUOUS
 62
    30
 10
-326.41631414159019
 20
0.0
 30
0.0
 40
6.0
  0
LINE
  8
SIZE
  6
CONTINUOUS
 62
    30
 10
-326.41631414159019
 20
0.0
 30
0.0
 11
-326.41631414159019
 21
12.0
 31
0.0
  0
TEXT
  8
SIZE
  6
CONTINUOUS
 62
    30
 10
-351.41631414159019
 20
44.442857142857143
 30
0.0
 40
64.0
  1
237
 50
90.0
 41
0.9
 72
     1
 11
-351.41631414159019
 21
118.5
 31
0.0
  0
POINT
  8
DEFPOINTS
  6
CONTINUOUS
 62
    30
 10
-225.25
 20
237.0
 30
0.0
  0
POINT
  8
DEFPOINTS
  6
CONTINUOUS
 62
    30
 10
-235.0
 20
0.0
 30
0.0
  0
POINT
  8
DEFPOINTS
  6
CONTINUOUS
 62
    30
 10
-326.41631414159019
 20
0.0
 30
0.0
  0
LINE
  8
OUTLINE
  6
CONTINUOUS
 62
     3
 10
192.9535761799234
 20
0.0000366575404769
 30
0.0
 11
189.10348425391931
 21
0.0000366575404769
 31
0.0
  0
LINE
  8
OUTLINE
  6
CONTINUOUS
 62
     3
 10
-181.93933015145379
 20
-31.819548315455901
 30
0.0
 11
-181.57154834347969
 21
-31.819548315455901
 31
0.0
  0
LINE
  8
OUTLINE
  6
CONTINUOUS
 62
     3
 10
-181.91313345403611
 20
-34.821392496161018
 30
0.0
 11
-181.57154834347969
 21
-34.821392496161018
 31
0.0
  0
LINE
  8
OUTLINE
  6
CONTINUOUS
 62
     3
 10
-180.77105656195999
 20
-46.22840038283266
 30
0.0
 11
-180.77105656195999
 21
-27.116659099019671
 31
0.0
  0
LINE
  8
OUTLINE
  6
CONTINUOUS
 62
     3
 10
-180.77105656195999
 20
-27.116659099019671
 30
0.0
 11
-181.57154834347969
 21
-27.116659099019671
 31
0.0
  0
LINE
  8
OUTLINE
  6
CONTINUOUS
 62
     3
 10
-181.57154834347969
 20
-46.22840038283266
 30
0.0
 11
-181.57154834347969
 21
-27.116659099019671
 31
0.0
  0
ARC
  8
OUTLINE
  6
CONTINUOUS
 62
     3
 10
-179.9705647804403
 20
-46.22840038283266
 30
0.0
 40
0.8004917815212951
 50
180.0
 51
269.39604809247078
  0
ARC
  8
OUTLINE
  6
CONTINUOUS
 62
     3
 10
-179.9705647804403
 20
-46.22840038283266
 30
0.0
 40
1.6009835630417031
 50
180.0
 51
210.01911603936861
  0
LINE
  8
OUTLINE
  6
CONTINUOUS
 62
     3
 10
-179.57031888967691
 20
-34.821392496161018
 30
0.0
 11
-177.36896649049581
 21
-34.821392496161018
 31
0.0
  0
LINE
  8
OUTLINE
  6
CONTINUOUS
 62
     3
 10
-179.57031888967691
 20
-31.819548315455901
 30
0.0
 11
-177.36896649049581
 21
-31.819548315455901
 31
0.0
  0
ARC
  8
OUTLINE
  6
CONTINUOUS
 62
     3
 10
-179.9705647804403
 20
-30.118503279724791
 30
0.0
 40
0.8004917815212951
 50
180.0
 51
270.0
  0
LINE
  8
OUTLINE
  6
CONTINUOUS
 62
     3
 10
-179.57031888967691
 20
-30.918995061245369
 30
0.0
 11
-179.9705647804403
 21
-30.918995061245369
 31
0.0
  0
LINE
  8
OUTLINE
  6
CONTINUOUS
 62
     3
 10
-179.57031888967691
 20
-35.721880293155657
 30
0.0
 11
-179.57031888967691
 21
-30.919060517957401
 31
0.0
  0
LINE
  8
OUTLINE
  6
CONTINUOUS
 62
     3
 10
-179.57031888967691
 20
-35.721945750369741
 30
0.0
 11
-179.9705647804403
 21
-35.721945750369741
 31
0.0
  0
ARC
  8
OUTLINE
  6
CONTINUOUS
 62
     3
 10
-179.9705647804403
 20
-36.522437531891228
 30
0.0
 40
0.8004917815213827
 50
90.0
 51
180.0
  0
LINE
  8
OUTLINE
  6
CONTINUOUS
 62
     3
 10
-177.36896649049581
 20
-31.819548315455901
 30
0.0
 11
-177.36896649049581
 21
-34.821392496161018
 31
0.0
  0
ARC
  8
OUTLINE
  6
CONTINUOUS
 62
     3
 10
-183.2301233037542
 20
-10.306331687082089
 30
0.0
 40
0.3001844180698356
 50
90.0
 51
178.99999999999829
  0
ARC
  8
OUTLINE
  6
CONTINUOUS
 62
     3
 10
-185.01249361210651
 20
-13.5082988131644
 30
0.0
 40
2.0012294538030631
 50
358.89829388475329
 51
43.505196684255473
  0
LINE
  8
OUTLINE
  6
CONTINUOUS
 62
     3
 10
-183.2610478247116
 20
-26.51629026287992
 30
0.0
 11
-183.01163410557999
 21
-13.54677688013726
 31
0.0
  0
LINE
  8
OUTLINE
  6
CONTINUOUS
 62
     3
 10
-202.184211717642
 20
-47.000290806629891
 30
0.0
 11
-202.184211717642
 21
-47.028892164353238
 31
0.0
  0
ARC
  8
OUTLINE
  6
CONTINUOUS
 62
     3
 10
-202.72698915655201
 20
-10.306331687082089
 30
0.0
 40
0.3001844180697731
 50
0.9999999999952488
 51
90.0
  0
LINE
  8
OUTLINE
  6
CONTINUOUS
 62
     3
 10
-202.4268504580688
 20
-10.30109274654205
 30
0.0
 11
-201.78576433479611
 21
-47.028892164353238
 31
0.0
  0
ARC
  8
OUTLINE
  6
CONTINUOUS
 62
     3
 10
-201.18359699074429
 20
-47.000290806629891
 30
0.0
 40
1.0006147269011689
 50
160.5462185838862
 51
180.0
  0
LINE
  8
OUTLINE
  6
CONTINUOUS
 62
     3
 10
-201.80785631348769
 20
-45.7632435295709
 30
0.0
 11
-202.1270870781627
 21
-46.667039720578032
 31
0.0
  0
LINE
  8
OUTLINE
  6
CONTINUOUS
 62
     3
 10
-183.53026200223761
 20
-10.30109274654205
 30
0.0
 11
-184.17134812551009
 21
-47.028892164353238
 31
0.0
  0
LINE
  8
OUTLINE
  6
CONTINUOUS
 62
     3
 10
-183.2610478247116
 20
-26.51629026287992
 30
0.0
 11
-183.01163410557999
 21
-13.54677688013726
 31
0.0
  0
LINE
  8
OUTLINE
  6
CONTINUOUS
 62
     3
 10
-183.53026200223761
 20
-10.30109274654205
 30
0.0
 11
-184.17134812551009
 21
-47.028892164353238
 31
0.0
  0
ARC
  8
OUTLINE
  6
CONTINUOUS
 62
     3
 10
-185.01249361210651
 20
-13.5082988131644
 30
0.0
 40
2.0012294538030631
 50
358.89829388475329
 51
43.505196684255473
  0
LINE
  8
OUTLINE
  6
CONTINUOUS
 62
     3
 10
-183.81329932750299
 20
-26.51629026287992
 30
0.0
 11
-182.2831871622511
 21
-26.51629026287992
 31
0.0
  0
LINE
  8
OUTLINE
  6
CONTINUOUS
 62
     3
 10
-181.98301417420231
 20
-26.813855110620349
 30
0.0
 11
-181.8066002184205
 21
-47.028892164353238
 31
0.0
  0
ARC
  8
OUTLINE
  6
CONTINUOUS
 62
     3
 10
-182.2831871622511
 20
-26.816474680949799
 30
0.0
 40
0.3001844180707482
 50
0.4999999999068708
 51
90.0
  0
LINE
  8
OUTLINE
  6
CONTINUOUS
 62
     3
 10
181.93933015145379
 20
-31.819548315455901
 30
0.0
 11
181.57154834347969
 21
-31.819548315455901
 31
0.0
  0
LINE
  8
OUTLINE
  6
CONTINUOUS
 62
     3
 10
181.9131334540325
 20
-34.821392496161018
 30
0.0
 11
181.57154834347969
 21
-34.821392496161018
 31
0.0
  0
LINE
  8
OUTLINE
  6
CONTINUOUS
 62
     3
 10
180.77105656195641
 20
-46.22840038283266
 30
0.0
 11
180.77105656195641
 21
-27.116659099019671
 31
0.0
  0
LINE
  8
OUTLINE
  6
CONTINUOUS
 62
     3
 10
180.77105656195641
 20
-27.116659099019671
 30
0.0
 11
181.57154834347969
 21
-27.116659099019671
 31
0.0
  0
LINE
  8
OUTLINE
  6
CONTINUOUS
 62
     3
 10
181.57154834347969
 20
-46.22840038283266
 30
0.0
 11
181.57154834347969
 21
-27.116659099019671
 31
0.0
  0
ARC
  8
OUTLINE
  6
CONTINUOUS
 62
     3
 10
179.97056478043669
 20
-46.22840038283266
 30
0.0
 40
0.8004917815204575
 50
270.60395190752922
 51
0.0
  0
ARC
  8
OUTLINE
  6
CONTINUOUS
 62
     3
 10
179.97056478043669
 20
-46.22840038283266
 30
0.0
 40
1.6009835630418781
 50
329.98088396063139
 51
0.0
  0
LINE
  8
OUTLINE
  6
CONTINUOUS
 62
     3
 10
179.57031888967691
 20
-34.821392496161018
 30
0.0
 11
177.36896649049231
 21
-34.821392496161018
 31
0.0
  0
LINE
  8
OUTLINE
  6
CONTINUOUS
 62
     3
 10
179.57031888967691
 20
-31.819548315455901
 30
0.0
 11
177.36896649049231
 21
-31.819548315455901
 31
0.0
  0
ARC
  8
OUTLINE
  6
CONTINUOUS
 62
     3
 10
179.97056478043669
 20
-30.118503279724791
 30
0.0
 40
0.8004917815204951
 50
270.0
 51
0.0
  0
LINE
  8
OUTLINE
  6
CONTINUOUS
 62
     3
 10
179.57031888967691
 20
-30.918995061245369
 30
0.0
 11
179.97056478043669
 21
-30.918995061245369
 31
0.0
  0
LINE
  8
OUTLINE
  6
CONTINUOUS
 62
     3
 10
179.57031888967691
 20
-35.721880293155657
 30
0.0
 11
179.57031888967691
 21
-30.919060517957401
 31
0.0
  0
LINE
  8
OUTLINE
  6
CONTINUOUS
 62
     3
 10
179.57031888967691
 20
-35.721945750369741
 30
0.0
 11
179.97056478043669
 21
-35.721945750369741
 31
0.0
  0
ARC
  8
OUTLINE
  6
CONTINUOUS
 62
     3
 10
179.97056478043669
 20
-36.522437531891228
 30
0.0
 40
0.8004917815212951
 50
0.0
 51
90.0
  0
LINE
  8
OUTLINE
  6
CONTINUOUS
 62
     3
 10
177.36896649049231
 20
-31.819548315455901
 30
0.0
 11
177.36896649049231
 21
-34.821392496161018
 31
0.0
  0
ARC
  8
OUTLINE
  6
CONTINUOUS
 62
     3
 10
183.23012330375059
 20
-10.306331687082089
 30
0.0
 40
0.3001844180697857
 50
0.9999999999952488
 51
90.0
  0
LINE
  8
OUTLINE
  6
CONTINUOUS
 62
     3
 10
-235.00454167105639
 20
-1.000614726401182
 30
0.0
 11
-235.0025220157768
 21
-0.962077409529229
 31
0.0
  0
ARC
  8
OUTLINE
  6
CONTINUOUS
 62
     3
 10
185.01249361210279
 20
-13.5082988131644
 30
0.0
 40
2.0012294538016011
 50
136.49480331574449
 51
181.10170611524671
  0
LINE
  8
OUTLINE
  6
CONTINUOUS
 62
     3
 10
130.90828166038409
 20
-45.18636094919475
 30
0.0
 11
130.94044316228249
 21
-47.028892164353238
 31
0.0
  0
LINE
  8
OUTLINE
  6
CONTINUOUS
 62
     3
 10
183.2610478247079
 20
-26.51629026287992
 30
0.0
 11
183.01163410557641
 21
-13.54677688013726
 31
0.0
  0
ARC
  8
OUTLINE
  6
CONTINUOUS
 62
     3
 10
-233.8640481622277
 20
-9.0055325416096821
 30
0.0
 40
1.000614726901194
 50
181.0000000000278
 51
270.0
  0
LINE
  8
OUTLINE
  6
CONTINUOUS
 62
     3
 10
-234.97694940276409
 20
-0.4741228870379928
 30
0.0
 11
-234.99616253233759
 21
-0.8407312325980456
 31
0.0
  0
LINE
  8
OUTLINE
  6
CONTINUOUS
 62
     3
 10
-234.8645104905045
 20
-9.0229956765742827
 30
0.0
 11
-235.00454167105639
 21
-1.000614726401182
 31
0.0
  0
ARC
  8
OUTLINE
  6
CONTINUOUS
 62
     3
 10
-234.4773277150598
 20
-0.5003073629495702
 30
0.0
 40
0.5003073634495969
 50
90.0
 51
176.99995277846449
  0
LINE
  8
OUTLINE
  6
CONTINUOUS
 62
     3
 10
-234.47732769354479
 20
0.0000000005002221
 30
0.0
 11
-224.99839440204229
 21
0.0000000005002221
 31
0.0
  0
ARC
  8
OUTLINE
  6
CONTINUOUS
 62
     3
 10
-234.4773277150598
 20
-47.529199527303717
 30
0.0
 40
0.5003073634506721
 50
90.0
 51
182.999999999973
  0
LINE
  8
OUTLINE
  6
CONTINUOUS
 62
     3
 10
202.184211717642
 20
-47.000290806629891
 30
0.0
 11
202.184211717642
 21
-47.028892164353238
 31
0.0
  0
LINE
  8
OUTLINE
  6
CONTINUOUS
 62
     3
 10
234.4027960921012
 20
-53.116905134519577
 30
0.0
 11
234.40058094922639
 21
-53.114709410077921
 31
0.0
  0
ARC
  8
OUTLINE
  6
CONTINUOUS
 62
     3
 10
234.47716080400281
 20
-0.5003073634507018
 30
0.0
 40
0.5003073634502594
 50
2.999999999966481
 51
90.0
  0
LINE
  8
OUTLINE
  6
CONTINUOUS
 62
     3
 10
234.9767825132221
 20
-0.4741232987908006
 30
0.0
 11
235.00437475999931
 21
-1.0006147269004939
 31
0.0
  0
ARC
  8
OUTLINE
  6
CONTINUOUS
 62
     3
 10
233.86388125117449
 20
-9.0055325421099042
 30
0.0
 40
1.000614726902044
 50
270.0
 51
359.00000000001779
  0
LINE
  8
OUTLINE
  6
CONTINUOUS
 62
     3
 10
235.00437475999931
 20
-1.0006147269004939
 30
0.0
 11
234.86434357944719
 21
-9.0229956765733732
 31
0.0
  0
ARC
  8
OUTLINE
  6
CONTINUOUS
 62
     3
 10
202.7269891565484
 20
-10.306331687082089
 30
0.0
 40
0.3001844180698356
 50
90.0
 51
178.99999999999829
  0
LINE
  8
OUTLINE
  6
CONTINUOUS
 62
     3
 10
-233.8640481622277
 20
-10.006147269012221
 30
0.0
 11
233.86388125117449
 21
-10.006147269012221
 31
0.0
  0
LINE
  8
OUTLINE
  6
CONTINUOUS
 62
     3
 10
202.4268504580688
 20
-10.30109274654205
 30
0.0
 11
201.7857643347925
 21
-47.028892164353238
 31
0.0
  0
ARC
  8
OUTLINE
  6
CONTINUOUS
 62
     3
 10
201.1835969907406
 20
-47.000290806629891
 30
0.0
 40
1.0006147269011689
 50
0.0
 51
19.453781416113831
  0
LINE
  8
OUTLINE
  6
CONTINUOUS
 62
     3
 10
201.80785631348411
 20
-45.7632435295709
 30
0.0
 11
202.1270870781627
 21
-46.667039720578032
 31
0.0
  0
ARC
  8
OUTLINE
  6
CONTINUOUS
 62
     3
 10
234.47716080400281
 20
-47.529199527803939
 30
0.0
 40
0.5003073634503094
 50
356.99999999992269
 51
90.0
  0
LINE
  8
OUTLINE
  6
CONTINUOUS
 62
     3
 10
234.47716080400281
 20
-47.028892164353238
 30
0.0
 11
-235.0045416713148
 21
-47.028892164353238
 31
0.0
  0
LINE
  8
OUTLINE
  6
CONTINUOUS
 62
     3
 10
183.53026200223391
 20
-10.30109274654205
 30
0.0
 11
184.17134812551009
 21
-47.028892164353238
 31
0.0
  0
LINE
  8
OUTLINE
  6
CONTINUOUS
 62
     3
 10
183.2610478247079
 20
-26.51629026287992
 30
0.0
 11
183.01163410557641
 21
-13.54677688013726
 31
0.0
  0
LINE
  8
OUTLINE
  6
CONTINUOUS
 62
     3
 10
183.53026200223391
 20
-10.30109274654205
 30
0.0
 11
184.17134812551009
 21
-47.028892164353238
 31
0.0
  0
ARC
  8
OUTLINE
  6
CONTINUOUS
 62
     3
 10
185.01249361210279
 20
-13.5082988131644
 30
0.0
 40
2.0012294538016011
 50
136.49480331574449
 51
181.10170611524671
  0
LINE
  8
OUTLINE
  6
CONTINUOUS
 62
     3
 10
183.81329932749941
 20
-26.51629026287992
 30
0.0
 11
182.28318716224749
 21
-26.51629026287992
 31
0.0
  0
LINE
  8
OUTLINE
  6
CONTINUOUS
 62
     3
 10
181.98301417419859
 20
-26.813855110620349
 30
0.0
 11
181.8066002184205
 21
-47.028892164353238
 31
0.0
  0
ARC
  8
OUTLINE
  6
CONTINUOUS
 62
     3
 10
182.28318716224749
 20
-26.816474680949799
 30
0.0
 40
0.3001844180698356
 50
90.0
 51
179.50000000009311
  0
LINE
  8
OUTLINE
  6
CONTINUOUS
 62
     3
 10
-224.99839440204229
 20
0.0
 30
0.0
 11
234.47716080400281
 21
0.0
 31
0.0
  0
LINE
  8
OUTLINE
  6
CONTINUOUS
 62
     3
 10
234.9767825132221
 20
-47.555383591964528
 30
0.0
 11
234.6871793682549
 21
-53.081340790839022
 31
0.0
  0
LINE
  8
OUTLINE
  6
CONTINUOUS
 62
     3
 10
-234.68734627951201
 20
-53.081340790892682
 30
0.0
 11
-234.97694942477759
 21
-47.555383591964528
 31
0.0
  0
ARC
  8
OUTLINE
  6
CONTINUOUS
 62
     3
 10
-233.68869815427021
 20
-53.029003860353441
 30
0.0
 40
1.0000186159994131
 50
183.00000000058611
 51
270.0
  0
ARC
  8
OUTLINE
  6
CONTINUOUS
 62
     3
 10
233.68853124300949
 20
-53.029003860353441
 30
0.0
 40
1.0000186159999751
 50
270.0
 51
357.00000000246001
  0
LINE
  8
OUTLINE
  6
CONTINUOUS
 62
     3
 10
233.68853124300949
 20
-54.02902247635302
 30
0.0
 11
-233.68869815427021
 21
-54.02902247635302
 31
0.0
  0
LINE
  8
DETAIL
  6
CONTINUOUS
 62
     5
 10
192.9535761799234
 20
0.0000366575404769
 30
0.0
 11
189.10348425391931
 21
0.0000366575404769
 31
0.0
  0
LINE
  8
DETAIL
  6
CONTINUOUS
 62
     5
 10
-181.93933015145379
 20
-31.819548315455901
 30
0.0
 11
-181.57154834347969
 21
-31.819548315455901
 31
0.0
  0
LINE
  8
DETAIL
  6
CONTINUOUS
 62
     5
 10
-181.91313345403611
 20
-34.821392496161018
 30
0.0
 11
-181.57154834347969
 21
-34.821392496161018
 31
0.0
  0
LINE
  8
DETAIL
  6
CONTINUOUS
 62
     5
 10
-180.77105656195999
 20
-46.22840038283266
 30
0.0
 11
-180.77105656195999
 21
-27.116659099019671
 31
0.0
  0
LINE
  8
DETAIL
  6
CONTINUOUS
 62
     5
 10
-180.77105656195999
 20
-27.116659099019671
 30
0.0
 11
-181.57154834347969
 21
-27.116659099019671
 31
0.0
  0
LINE
  8
DETAIL
  6
CONTINUOUS
 62
     5
 10
-181.57154834347969
 20
-46.22840038283266
 30
0.0
 11
-181.57154834347969
 21
-27.116659099019671
 31
0.0
  0
ARC
  8
DETAIL
  6
CONTINUOUS
 62
     5
 10
-179.9705647804403
 20
-46.22840038283266
 30
0.0
 40
0.8004917815212951
 50
180.0
 51
269.3960480924838
  0
ARC
  8
DETAIL
  6
CONTINUOUS
 62
     5
 10
-179.9705647804403
 20
-46.22840038283266
 30
0.0
 40
1.6009835630417031
 50
180.0
 51
210.0191160393795
  0
LINE
  8
DETAIL
  6
CONTINUOUS
 62
     5
 10
-179.57031888967691
 20
-34.821392496161018
 30
0.0
 11
-177.36896649049581
 21
-34.821392496161018
 31
0.0
  0
LINE
  8
DETAIL
  6
CONTINUOUS
 62
     5
 10
-179.57031888967691
 20
-31.819548315455901
 30
0.0
 11
-177.36896649049581
 21
-31.819548315455901
 31
0.0
  0
ARC
  8
DETAIL
  6
CONTINUOUS
 62
     5
 10
-179.9705647804403
 20
-30.118503279724791
 30
0.0
 40
0.8004917815212951
 50
180.0
 51
270.0
  0
LINE
  8
DETAIL
  6
CONTINUOUS
 62
     5
 10
-179.57031888967691
 20
-30.918995061245369
 30
0.0
 11
-179.9705647804403
 21
-30.918995061245369
 31
0.0
  0
LINE
  8
DETAIL
  6
CONTINUOUS
 62
     5
 10
-179.57031888967691
 20
-35.721880293155657
 30
0.0
 11
-179.57031888967691
 21
-30.919060517957401
 31
0.0
  0
LINE
  8
DETAIL
  6
CONTINUOUS
 62
     5
 10
-179.57031888967691
 20
-35.721945750369741
 30
0.0
 11
-179.9705647804403
 21
-35.721945750369741
 31
0.0
  0
ARC
  8
DETAIL
  6
CONTINUOUS
 62
     5
 10
-179.9705647804403
 20
-36.522437531891228
 30
0.0
 40
0.8004917815213827
 50
90.0
 51
180.0
  0
LINE
  8
DETAIL
  6
CONTINUOUS
 62
     5
 10
-177.36896649049581
 20
-31.819548315455901
 30
0.0
 11
-177.36896649049581
 21
-34.821392496161018
 31
0.0
  0
ARC
  8
DETAIL
  6
CONTINUOUS
 62
     5
 10
-183.2301233037542
 20
-10.306331687082089
 30
0.0
 40
0.3001844180698356
 50
90.0
 51
178.99999999999829
  0
ARC
  8
DETAIL
  6
CONTINUOUS
 62
     5
 10
-185.01249361210651
 20
-13.5082988131644
 30
0.0
 40
2.0012294538030631
 50
358.89829388475329
 51
43.505196684255473
  0
LINE
  8
DETAIL
  6
CONTINUOUS
 62
     5
 10
-183.2610478247116
 20
-26.51629026287992
 30
0.0
 11
-183.01163410557999
 21
-13.54677688013726
 31
0.0
  0
LINE
  8
DETAIL
  6
CONTINUOUS
 62
     5
 10
-202.184211717642
 20
-47.000290806629891
 30
0.0
 11
-202.184211717642
 21
-47.028892164353238
 31
0.0
  0
ARC
  8
DETAIL
  6
CONTINUOUS
 62
     5
 10
-202.72698915655201
 20
-10.306331687082089
 30
0.0
 40
0.3001844180697731
 50
0.9999999999952488
 51
90.0
  0
LINE
  8
DETAIL
  6
CONTINUOUS
 62
     5
 10
-202.4268504580688
 20
-10.30109274654205
 30
0.0
 11
-201.78576433479611
 21
-47.028892164353238
 31
0.0
  0
ARC
  8
DETAIL
  6
CONTINUOUS
 62
     5
 10
-201.18359699074429
 20
-47.000290806629891
 30
0.0
 40
1.0006147269011689
 50
160.54621858388981
 51
180.0
  0
LINE
  8
DETAIL
  6
CONTINUOUS
 62
     5
 10
-201.80785631348769
 20
-45.7632435295709
 30
0.0
 11
-202.1270870781627
 21
-46.667039720578032
 31
0.0
  0
LINE
  8
DETAIL
  6
CONTINUOUS
 62
     5
 10
-183.53026200223761
 20
-10.30109274654205
 30
0.0
 11
-184.17134812551009
 21
-47.028892164353238
 31
0.0
  0
LINE
  8
DETAIL
  6
CONTINUOUS
 62
     5
 10
-183.2610478247116
 20
-26.51629026287992
 30
0.0
 11
-183.01163410557999
 21
-13.54677688013726
 31
0.0
  0
LINE
  8
DETAIL
  6
CONTINUOUS
 62
     5
 10
-183.53026200223761
 20
-10.30109274654205
 30
0.0
 11
-184.17134812551009
 21
-47.028892164353238
 31
0.0
  0
ARC
  8
DETAIL
  6
CONTINUOUS
 62
     5
 10
-185.01249361210651
 20
-13.5082988131644
 30
0.0
 40
2.0012294538030631
 50
358.89829388475329
 51
43.505196684255473
  0
LINE
  8
DETAIL
  6
CONTINUOUS
 62
     5
 10
-183.81329932750299
 20
-26.51629026287992
 30
0.0
 11
-182.2831871622511
 21
-26.51629026287992
 31
0.0
  0
LINE
  8
DETAIL
  6
CONTINUOUS
 62
     5
 10
-181.98301417420231
 20
-26.813855110620349
 30
0.0
 11
-181.8066002184205
 21
-47.028892164353238
 31
0.0
  0
ARC
  8
DETAIL
  6
CONTINUOUS
 62
     5
 10
-182.2831871622511
 20
-26.816474680949799
 30
0.0
 40
0.3001844180707482
 50
0.4999999999068708
 51
90.0
  0
LINE
  8
DETAIL
  6
CONTINUOUS
 62
     5
 10
181.93933015145379
 20
-31.819548315455901
 30
0.0
 11
181.57154834347969
 21
-31.819548315455901
 31
0.0
  0
LINE
  8
DETAIL
  6
CONTINUOUS
 62
     5
 10
181.9131334540325
 20
-34.821392496161018
 30
0.0
 11
181.57154834347969
 21
-34.821392496161018
 31
0.0
  0
LINE
  8
DETAIL
  6
CONTINUOUS
 62
     5
 10
180.77105656195641
 20
-46.22840038283266
 30
0.0
 11
180.77105656195641
 21
-27.116659099019671
 31
0.0
  0
LINE
  8
DETAIL
  6
CONTINUOUS
 62
     5
 10
180.77105656195641
 20
-27.116659099019671
 30
0.0
 11
181.57154834347969
 21
-27.116659099019671
 31
0.0
  0
LINE
  8
DETAIL
  6
CONTINUOUS
 62
     5
 10
181.57154834347969
 20
-46.22840038283266
 30
0.0
 11
181.57154834347969
 21
-27.116659099019671
 31
0.0
  0
ARC
  8
DETAIL
  6
CONTINUOUS
 62
     5
 10
179.97056478043669
 20
-46.22840038283266
 30
0.0
 40
0.8004917815204575
 50
270.6039519075162
 51
0.0
  0
ARC
  8
DETAIL
  6
CONTINUOUS
 62
     5
 10
179.97056478043669
 20
-46.22840038283266
 30
0.0
 40
1.6009835630418781
 50
329.98088396062047
 51
0.0
  0
LINE
  8
DETAIL
  6
CONTINUOUS
 62
     5
 10
179.57031888967691
 20
-34.821392496161018
 30
0.0
 11
177.36896649049231
 21
-34.821392496161018
 31
0.0
  0
LINE
  8
DETAIL
  6
CONTINUOUS
 62
     5
 10
179.57031888967691
 20
-31.819548315455901
 30
0.0
 11
177.36896649049231
 21
-31.819548315455901
 31
0.0
  0
ARC
  8
DETAIL
  6
CONTINUOUS
 62
     5
 10
179.97056478043669
 20
-30.118503279724791
 30
0.0
 40
0.8004917815204951
 50
270.0
 51
0.0
  0
LINE
  8
DETAIL
  6
CONTINUOUS
 62
     5
 10
179.57031888967691
 20
-30.918995061245369
 30
0.0
 11
179.97056478043669
 21
-30.918995061245369
 31
0.0
  0
LINE
  8
DETAIL
  6
CONTINUOUS
 62
     5
 10
179.57031888967691
 20
-35.721880293155657
 30
0.0
 11
179.57031888967691
 21
-30.919060517957401
 31
0.0
  0
LINE
  8
DETAIL
  6
CONTINUOUS
 62
     5
 10
179.57031888967691
 20
-35.721945750369741
 30
0.0
 11
179.97056478043669
 21
-35.721945750369741
 31
0.0
  0
ARC
  8
DETAIL
  6
CONTINUOUS
 62
     5
 10
179.97056478043669
 20
-36.522437531891228
 30
0.0
 40
0.8004917815212951
 50
0.0
 51
90.0
  0
LINE
  8
DETAIL
  6
CONTINUOUS
 62
     5
 10
177.36896649049231
 20
-31.819548315455901
 30
0.0
 11
177.36896649049231
 21
-34.821392496161018
 31
0.0
  0
ARC
  8
DETAIL
  6
CONTINUOUS
 62
     5
 10
183.23012330375059
 20
-10.306331687082089
 30
0.0
 40
0.3001844180697857
 50
0.9999999999952488
 51
90.0
  0
LINE
  8
DETAIL
  6
CONTINUOUS
 62
     5
 10
-235.00454167105639
 20
-1.000614726401182
 30
0.0
 11
-235.0025220157768
 21
-0.962077409529229
 31
0.0
  0
ARC
  8
DETAIL
  6
CONTINUOUS
 62
     5
 10
185.01249361210279
 20
-13.5082988131644
 30
0.0
 40
2.0012294538016011
 50
136.49480331574449
 51
181.10170611524671
  0
LINE
  8
DETAIL
  6
CONTINUOUS
 62
     5
 10
130.90828166038409
 20
-45.18636094919475
 30
0.0
 11
130.94044316228249
 21
-47.028892164353238
 31
0.0
  0
LINE
  8
DETAIL
  6
CONTINUOUS
 62
     5
 10
183.2610478247079
 20
-26.51629026287992
 30
0.0
 11
183.01163410557641
 21
-13.54677688013726
 31
0.0
  0
ARC
  8
DETAIL
  6
CONTINUOUS
 62
     5
 10
-233.8640481622277
 20
-9.0055325416096821
 30
0.0
 40
1.000614726901194
 50
181.0000000000278
 51
270.0
  0
LINE
  8
DETAIL
  6
CONTINUOUS
 62
     5
 10
-234.97694940276409
 20
-0.4741228870379928
 30
0.0
 11
-234.99616253233759
 21
-0.8407312325980456
 31
0.0
  0
LINE
  8
DETAIL
  6
CONTINUOUS
 62
     5
 10
-234.8645104905045
 20
-9.0229956765742827
 30
0.0
 11
-235.00454167105639
 21
-1.000614726401182
 31
0.0
  0
ARC
  8
DETAIL
  6
CONTINUOUS
 62
     5
 10
-234.4773277150598
 20
-0.5003073629495702
 30
0.0
 40
0.5003073634495969
 50
90.0
 51
176.99995277846449
  0
LINE
  8
DETAIL
  6
CONTINUOUS
 62
     5
 10
-234.47732769354479
 20
0.0000000005002221
 30
0.0
 11
-224.99839440204229
 21
0.0000000005002221
 31
0.0
  0
ARC
  8
DETAIL
  6
CONTINUOUS
 62
     5
 10
-234.4773277150598
 20
-47.529199527303717
 30
0.0
 40
0.5003073634506721
 50
90.0
 51
182.999999999973
  0
LINE
  8
DETAIL
  6
CONTINUOUS
 62
     5
 10
202.184211717642
 20
-47.000290806629891
 30
0.0
 11
202.184211717642
 21
-47.028892164353238
 31
0.0
  0
LINE
  8
DETAIL
  6
CONTINUOUS
 62
     5
 10
234.4027960921012
 20
-53.116905134519577
 30
0.0
 11
234.40058094922639
 21
-53.114709410077921
 31
0.0
  0
ARC
  8
DETAIL
  6
CONTINUOUS
 62
     5
 10
234.47716080400281
 20
-0.5003073634507018
 30
0.0
 40
0.5003073634502594
 50
2.999999999966481
 51
90.0
  0
LINE
  8
DETAIL
  6
CONTINUOUS
 62
     5
 10
234.9767825132221
 20
-0.4741232987908006
 30
0.0
 11
235.00437475999931
 21
-1.0006147269004939
 31
0.0
  0
ARC
  8
DETAIL
  6
CONTINUOUS
 62
     5
 10
233.86388125117449
 20
-9.0055325421099042
 30
0.0
 40
1.000614726902044
 50
270.0
 51
359.00000000001779
  0
LINE
  8
DETAIL
  6
CONTINUOUS
 62
     5
 10
235.00437475999931
 20
-1.0006147269004939
 30
0.0
 11
234.86434357944719
 21
-9.0229956765733732
 31
0.0
  0
ARC
  8
DETAIL
  6
CONTINUOUS
 62
     5
 10
202.7269891565484
 20
-10.306331687082089
 30
0.0
 40
0.3001844180698356
 50
90.0
 51
178.99999999999829
  0
LINE
  8
DETAIL
  6
CONTINUOUS
 62
     5
 10
-233.8640481622277
 20
-10.006147269012221
 30
0.0
 11
233.86388125117449
 21
-10.006147269012221
 31
0.0
  0
LINE
  8
DETAIL
  6
CONTINUOUS
 62
     5
 10
202.4268504580688
 20
-10.30109274654205
 30
0.0
 11
201.7857643347925
 21
-47.028892164353238
 31
0.0
  0
ARC
  8
DETAIL
  6
CONTINUOUS
 62
     5
 10
201.1835969907406
 20
-47.000290806629891
 30
0.0
 40
1.0006147269011689
 50
0.0
 51
19.453781416110221
  0
LINE
  8
DETAIL
  6
CONTINUOUS
 62
     5
 10
201.80785631348411
 20
-45.7632435295709
 30
0.0
 11
202.1270870781627
 21
-46.667039720578032
 31
0.0
  0
ARC
  8
DETAIL
  6
CONTINUOUS
 62
     5
 10
234.47716080400281
 20
-47.529199527803939
 30
0.0
 40
0.5003073634503094
 50
356.99999999992269
 51
90.0
  0
LINE
  8
DETAIL
  6
CONTINUOUS
 62
     5
 10
234.47716080400281
 20
-47.028892164353238
 30
0.0
 11
-235.0045416713148
 21
-47.028892164353238
 31
0.0
  0
LINE
  8
DETAIL
  6
CONTINUOUS
 62
     5
 10
183.53026200223391
 20
-10.30109274654205
 30
0.0
 11
184.17134812551009
 21
-47.028892164353238
 31
0.0
  0
LINE
  8
DETAIL
  6
CONTINUOUS
 62
     5
 10
183.2610478247079
 20
-26.51629026287992
 30
0.0
 11
183.01163410557641
 21
-13.54677688013726
 31
0.0
  0
LINE
  8
DETAIL
  6
CONTINUOUS
 62
     5
 10
183.53026200223391
 20
-10.30109274654205
 30
0.0
 11
184.17134812551009
 21
-47.028892164353238
 31
0.0
  0
ARC
  8
DETAIL
  6
CONTINUOUS
 62
     5
 10
185.01249361210279
 20
-13.5082988131644
 30
0.0
 40
2.0012294538016011
 50
136.49480331574449
 51
181.10170611524671
  0
LINE
  8
DETAIL
  6
CONTINUOUS
 62
     5
 10
183.81329932749941
 20
-26.51629026287992
 30
0.0
 11
182.28318716224749
 21
-26.51629026287992
 31
0.0
  0
LINE
  8
DETAIL
  6
CONTINUOUS
 62
     5
 10
181.98301417419859
 20
-26.813855110620349
 30
0.0
 11
181.8066002184205
 21
-47.028892164353238
 31
0.0
  0
ARC
  8
DETAIL
  6
CONTINUOUS
 62
     5
 10
182.28318716224749
 20
-26.816474680949799
 30
0.0
 40
0.3001844180698356
 50
90.0
 51
179.50000000009311
  0
LINE
  8
DETAIL
  6
CONTINUOUS
 62
     5
 10
-224.99839440204229
 20
0.0
 30
0.0
 11
234.47716080400281
 21
0.0
 31
0.0
  0
LINE
  8
DETAIL
  6
CONTINUOUS
 62
     5
 10
234.9767825132221
 20
-47.555383591964528
 30
0.0
 11
234.6871793682549
 21
-53.081340790839022
 31
0.0
  0
LINE
  8
DETAIL
  6
CONTINUOUS
 62
     5
 10
-234.68734627951201
 20
-53.081340790892682
 30
0.0
 11
-234.97694942477759
 21
-47.555383591964528
 31
0.0
  0
ARC
  8
DETAIL
  6
CONTINUOUS
 62
     5
 10
-233.68869815427021
 20
-53.029003860353441
 30
0.0
 40
1.0000186159994131
 50
183.00000000058611
 51
270.0
  0
ARC
  8
DETAIL
  6
CONTINUOUS
 62
     5
 10
233.68853124300949
 20
-53.029003860353441
 30
0.0
 40
1.0000186159999751
 50
270.0
 51
357.00000000246001
  0
LINE
  8
DETAIL
  6
CONTINUOUS
 62
     5
 10
233.68853124300949
 20
-54.02902247635302
 30
0.0
 11
-233.68869815427021
 21
-54.02902247635302
 31
0.0
  0
ARC
  8
DETAIL
  6
CONTINUOUS
 62
     5
 10
196.0
 20
234.0
 30
0.0
 40
3.0
 50
90.0
 51
180.0
  0
ARC
  8
DETAIL
  6
CONTINUOUS
 62
     5
 10
195.99998400000001
 20
234.0
 30
0.0
 40
1.3999999999999999
 50
90.0
 51
180.0
  0
LINE
  8
DETAIL
  6
CONTINUOUS
 62
     5
 10
222.0
 20
235.40000000000001
 30
0.0
 11
222.0
 21
237.0
 31
0.0
  0
LINE
  8
DETAIL
  6
CONTINUOUS
 62
     5
 10
222.0
 20
235.40000000000001
 30
0.0
 11
195.99998400000001
 21
235.40000000000001
 31
0.0
  0
LINE
  8
DETAIL
  6
CONTINUOUS
 62
     5
 10
193.0
 20
188.0
 30
0.0
 11
194.59998999999991
 21
188.0
 31
0.0
  0
LINE
  8
DETAIL
  6
CONTINUOUS
 62
     5
 10
222.0
 20
237.0
 30
0.0
 11
196.0
 21
237.0
 31
0.0
  0
LINE
  8
DETAIL
  6
CONTINUOUS
 62
     5
 10
193.0
 20
188.0
 30
0.0
 11
193.0
 21
234.0
 31
0.0
  0
LINE
  8
DETAIL
  6
CONTINUOUS
 62
     5
 10
194.59998999999991
 20
188.0
 30
0.0
 11
194.59998999999991
 21
234.0
 31
0.0
  0
ARC
  8
DETAIL
  6
CONTINUOUS
 62
     5
 10
-196.0
 20
234.0
 30
0.0
 40
3.0
 50
0.0
 51
90.0
  0
ARC
  8
DETAIL
  6
CONTINUOUS
 62
     5
 10
-195.99998400000001
 20
234.0
 30
0.0
 40
1.3999999999999999
 50
0.0
 51
90.0
  0
LINE
  8
DETAIL
  6
CONTINUOUS
 62
     5
 10
-222.0
 20
235.40000000000001
 30
0.0
 11
-222.0
 21
237.0
 31
0.0
  0
LINE
  8
DETAIL
  6
CONTINUOUS
 62
     5
 10
-222.0
 20
235.40000000000001
 30
0.0
 11
-195.99998400000001
 21
235.40000000000001
 31
0.0
  0
LINE
  8
DETAIL
  6
CONTINUOUS
 62
     5
 10
-193.0
 20
188.0
 30
0.0
 11
-194.59998999999999
 21
188.0
 31
0.0
  0
LINE
  8
DETAIL
  6
CONTINUOUS
 62
     5
 10
-222.0
 20
237.0
 30
0.0
 11
-196.0
 21
237.0
 31
0.0
  0
LINE
  8
DETAIL
  6
CONTINUOUS
 62
     5
 10
-193.0
 20
188.0
 30
0.0
 11
-193.0
 21
234.0
 31
0.0
  0
LINE
  8
DETAIL
  6
CONTINUOUS
 62
     5
 10
-194.59998999999999
 20
188.0
 30
0.0
 11
-194.59998999999999
 21
234.0
 31
0.0
  0
ENDSEC
  0
EOF
