  0
SECTION
  2
HEADER
  9
$ACADVER
  1
AC1009
  9
$DWGCODEPAGE
  3
dos932
  9
$INSBASE
 10
0.0
 20
0.0
 30
0.0
  9
$EXTMIN
 10
-823.43900954984201
 20
-809.09727875736644
 30
-0.0000002793804338
  9
$EXTMAX
 10
1323.7564206050649
 20
940.47547229620977
 30
0.0000000116489898
  9
$LIMMIN
 10
-2970.0
 20
-2100.0
  9
$LIMMAX
 10
2970.0
 20
2100.0
  9
$ORTHOMODE
 70
     1
  9
$REGENMODE
 70
     1
  9
$FILLMODE
 70
     1
  9
$QTEXTMODE
 70
     0
  9
$MIRRTEXT
 70
     0
  9
$LTSCALE
 40
20.0
  9
$ATTMODE
 70
     1
  9
$TEXTSIZE
 40
64.0
  9
$TRACEWID
 40
0.05
  9
$TEXTSTYLE
  7
STANDARD
  9
$CLAYER
  8
ETC
  9
$CELTYPE
  6
CONTINUOUS
  9
$CECOLOR
 62
     7
  9
$DIMSCALE
 40
1.0
  9
$DIMASZ
 40
12.0
  9
$DIMEXO
 40
20.0
  9
$DIMDLI
 40
200.0
  9
$DIMRND
 40
0.0
  9
$DIMDLE
 40
0.0
  9
$DIMEXE
 40
20.0
  9
$DIMTP
 40
0.0
  9
$DIMTM
 40
0.0
  9
$DIMTXT
 40
64.0
  9
$DIMCEN
 40
0.09
  9
$DIMTSZ
 40
0.0
  9
$DIMTOL
 70
     0
  9
$DIMLIM
 70
     0
  9
$DIMTIH
 70
     0
  9
$DIMTOH
 70
     0
  9
$DIMSE1
 70
     0
  9
$DIMSE2
 70
     0
  9
$DIMTAD
 70
     1
  9
$DIMZIN
 70
     8
  9
$DIMBLK
  1

  9
$DIMASO
 70
     1
  9
$DIMSHO
 70
     0
  9
$DIMPOST
  1

  9
$DIMAPOST
  1

  9
$DIMALT
 70
     0
  9
$DIMALTD
 70
     2
  9
$DIMALTF
 40
25.399999999999999
  9
$DIMLFAC
 40
1.0
  9
$DIMTOFL
 70
     1
  9
$DIMTVP
 40
0.0
  9
$DIMTIX
 70
     1
  9
$DIMSOXD
 70
     0
  9
$DIMSAH
 70
     0
  9
$DIMBLK1
  1

  9
$DIMBLK2
  1

  9
$DIMSTYLE
  2
STANDARD
  9
$DIMCLRD
 70
     7
  9
$DIMCLRE
 70
     7
  9
$DIMCLRT
 70
     7
  9
$DIMTFAC
 40
1.0
  9
$DIMGAP
 40
25.0
  9
$LUNITS
 70
     2
  9
$LUPREC
 70
     4
  9
$SKETCHINC
 40
0.1
  9
$FILLETRAD
 40
3.0
  9
$AUNITS
 70
     1
  9
$AUPREC
 70
     3
  9
$MENU
  1
ACAD
  9
$ELEVATION
 40
0.0
  9
$PELEVATION
 40
0.0
  9
$THICKNESS
 40
50.0
  9
$LIMCHECK
 70
     0
  9
$CHAMFERA
 40
0.0
  9
$CHAMFERB
 40
0.0
  9
$SKPOLY
 70
     0
  9
$TDCREATE
 40
2453019.62301037
  9
$TDUPDATE
 40
2458899.640026181
  9
$TDINDWG
 40
1.8378999074
  9
$TDUSRTIMER
 40
1.8378999074
  9
$USRTIMER
 70
     1
  9
$ANGBASE
 50
0.0
  9
$ANGDIR
 70
     0
  9
$PDMODE
 70
     3
  9
$PDSIZE
 40
-2.0
  9
$PLINEWID
 40
0.0
  9
$SPLFRAME
 70
     0
  9
$SPLINETYPE
 70
     6
  9
$SPLINESEGS
 70
     8
  9
$SURFTAB1
 70
     6
  9
$SURFTAB2
 70
     6
  9
$SURFTYPE
 70
     6
  9
$SURFU
 70
     6
  9
$SURFV
 70
     6
  9
$UCSNAME
  2

  9
$UCSORG
 10
0.0
 20
0.0
 30
0.0
  9
$UCSXDIR
 10
1.0
 20
0.0
 30
0.0
  9
$UCSYDIR
 10
0.0
 20
1.0
 30
0.0
  9
$PUCSNAME
  2

  9
$PUCSORG
 10
0.0
 20
0.0
 30
0.0
  9
$PUCSXDIR
 10
1.0
 20
0.0
 30
0.0
  9
$PUCSYDIR
 10
0.0
 20
1.0
 30
0.0
  9
$USERI1
 70
     0
  9
$USERI2
 70
     0
  9
$USERI3
 70
     0
  9
$USERI4
 70
     0
  9
$USERI5
 70
     0
  9
$USERR1
 40
20.0
  9
$USERR2
 40
0.0
  9
$USERR3
 40
0.0
  9
$USERR4
 40
0.0
  9
$USERR5
 40
0.0
  9
$WORLDVIEW
 70
     1
  9
$SHADEDGE
 70
     3
  9
$SHADEDIF
 70
    70
  9
$TILEMODE
 70
     1
  9
$MAXACTVP
 70
    48
  9
$PINSBASE
 10
0.0
 20
0.0
 30
0.0
  9
$PLIMCHECK
 70
     0
  9
$PEXTMIN
 10
-100000000000000000000.0
 20
-100000000000000000000.0
 30
-100000000000000000000.0
  9
$PEXTMAX
 10
100000000000000000000.0
 20
100000000000000000000.0
 30
100000000000000000000.0
  9
$PLIMMIN
 10
0.0
 20
0.0
  9
$PLIMMAX
 10
12.0
 20
9.0
  9
$UNITMODE
 70
     0
  9
$VISRETAIN
 70
     0
  9
$PLINEGEN
 70
     0
  9
$PSLTSCALE
 70
     0
  9
$TREEDEPTH
 70
  3020
  9
$ATTDIA
 70
     0
  9
$ATTREQ
 70
     1
  9
$BLIPMODE
 70
     1
  9
$COORDS
 70
     1
  9
$DRAGMODE
 70
     2
  9
$OSMODE
 70
     0
  9
$HANDLING
 70
     0
  9
$HANDSEED
  5
438C4
  0
ENDSEC
  0
SECTION
  2
TABLES
  0
TABLE
  2
LTYPE
 70
     3
  0
LTYPE
  2
CONTINUOUS
 70
     0
  3
実線
 72
    65
 73
     0
 40
0.0
  0
LTYPE
  2
DASHDOT
 70
     0
  3
____ _ ____ _ ____ _ ____ _ ____ _ ____ _ ____
 72
    65
 73
     4
 40
5.5
 49
4.0
 49
-0.6
 49
0.3
 49
-0.6
  0
LTYPE
  2
DASHED
 70
     0
  3
-- -- -- -- -- -- -- -- -- -- -- -- -- -- --
 72
    65
 73
     2
 40
0.75
 49
0.5
 49
-0.25
  0
ENDTAB
  0
TABLE
  2
LAYER
 70
    12
  0
LAYER
  2
0
 70
     0
 62
     7
  6
CONTINUOUS
  0
LAYER
  2
BASIS
 70
     0
 62
     6
  6
DASHDOT
  0
LAYER
  2
OUTLINE
 70
     0
 62
     3
  6
CONTINUOUS
  0
LAYER
  2
DETAIL
 70
     0
 62
     5
  6
CONTINUOUS
  0
LAYER
  2
SIZE
 70
     0
 62
    30
  6
CONTINUOUS
  0
LAYER
  2
ARRANGE
 70
     0
 62
     1
  6
CONTINUOUS
  0
LAYER
  2
DEFPOINTS
 70
     0
 62
     7
  6
CONTINUOUS
  0
LAYER
  2
ETC
 70
     0
 62
    61
  6
CONTINUOUS
  0
LAYER
  2
FIX
 70
     0
 62
    11
  6
CONTINUOUS
  0
LAYER
  2
NOTE
 70
     0
 62
     4
  6
CONTINUOUS
  0
LAYER
  2
SERVICESPACE
 70
    64
 62
     2
  6
DASHDOT
  0
LAYER
  2
SYMBOLLINE
 70
    64
 62
    15
  6
CONTINUOUS
  0
ENDTAB
  0
TABLE
  2
STYLE
 70
     1
  0
STYLE
  2
STANDARD
 70
     0
 40
64.0
 41
0.9
 50
0.0
 71
     0
 42
64.0
  3
SIMPLEX.shx
  4
BIGFONT.shx
  0
ENDTAB
  0
TABLE
  2
APPID
 70
    17
  0
APPID
  2
ACAD
 70
     0
  0
APPID
  2
AUTOCAD_POSTSCRIPT_FIGURE
 70
     0
  0
APPID
  2
ACAD_EXEMPT_FROM_CAD_STANDARDS
 70
     0
  0
APPID
  2
ACAD_PSEXT
 70
     0
  0
APPID
  2
ACAUTHENVIRON
 70
     0
  0
APPID
  2
GENIUS_GENOENT_13
 70
     0
  0
APPID
  2
GENIUS_GENCFG_13
 70
     0
  0
APPID
  2
GENIUS_GENCFG0_13
 70
     0
  0
APPID
  2
GENIUS_GENCFG1_13
 70
     0
  0
APPID
  2
GENIUS_GENCFG2_13
 70
     0
  0
APPID
  2
GENIUS_GENCFG3_13
 70
     0
  0
APPID
  2
GENIUS_GENCFG4_13
 70
     0
  0
APPID
  2
GENIUS_GEVCFG0_13
 70
     0
  0
APPID
  2
CONTENTBLOCKICON
 70
     0
  0
APPID
  2
CONTENTBLOCKDESCRIPTION
 70
     0
  0
APPID
  2
ACAD_NAV_VCDISPLAY
 70
     0
  0
APPID
  2
ACAD_MLEADERVER
 70
     0
  0
ENDTAB
  0
TABLE
  2
DIMSTYLE
 70
     1
  0
DIMSTYLE
  2
STANDARD
 70
     0
  3

  4

  5
_ORIGIN
  6

  7

 40
1.0
 41
12.0
 42
20.0
 43
200.0
 44
20.0
 45
0.0
 46
0.0
 47
0.0
 48
0.0
140
64.0
141
0.09
142
0.0
143
25.399999999999999
144
1.0
145
0.0
146
1.0
147
25.0
 71
     0
 72
     0
 73
     0
 74
     0
 75
     0
 76
     0
 77
     1
 78
     8
170
     0
171
     2
172
     1
173
     0
174
     1
175
     0
176
     7
177
     7
178
     7
  0
ENDTAB
  0
TABLE
  2
VIEW
 70
     1
  0
VIEW
  2
ALL
 70
     0
 40
4282.6198079999986
 10
0.0
 20
41.309904000000003
 41
5940.0
 11
0.0
 21
0.0
 31
1.0
 12
0.0
 22
0.0
 32
0.0
 42
50.0
 43
0.0
 44
0.0
 50
0.0
 71
     0
  0
ENDTAB
  0
TABLE
  2
UCS
 70
     0
  0
ENDTAB
  0
TABLE
  2
VPORT
 70
     1
  0
VPORT
  2
*ACTIVE
 70
     0
 10
0.0
 20
0.0
 11
1.0
 21
1.0
 12
250.15870552761129
 22
65.689096769421667
 13
0.0
 23
0.0
 14
1.0
 24
1.0
 15
0.0
 25
0.0
 16
0.0
 26
0.0
 36
1.0
 17
0.0
 27
0.0
 37
0.0
 40
1760.4172102543221
 41
1.6339193381592549
 42
50.0
 43
0.0
 44
0.0
 50
0.0
 51
0.0
 71
     0
 72
  1000
 73
     1
 74
     3
 75
     0
 76
     0
 77
     0
 78
     0
  0
ENDTAB
  0
ENDSEC
  0
SECTION
  2
BLOCKS
  0
BLOCK
  8
0
  2
_ORIGIN
 70
     0
 10
0.0
 20
0.0
 30
0.0
  3
_ORIGIN
  1
_ORIGIN
  0
CIRCLE
  8
0
  6
CONTINUOUS
 62
     7
 10
0.0
 20
0.0
 30
0.0
 40
0.5
  0
LINE
  8
0
  6
CONTINUOUS
 62
     7
 10
0.0
 20
0.0
 30
0.0
 11
-1.0
 21
0.0
 31
0.0
  0
ENDBLK
  8
0
  0
ENDSEC
  0
SECTION
  2
ENTITIES
  0
POINT
  8
ARRANGE
  6
CONTINUOUS
 62
     1
 10
0.0
 20
0.0
 30
0.0
  0
CIRCLE
  8
ARRANGE
  6
CONTINUOUS
 62
     1
 10
0.0
 20
0.0
 30
0.0
 40
40.0
  0
TEXT
  8
ETC
  6
CONTINUOUS
 62
    61
 10
541.89120862208529
 20
867.43277490379251
 30
0.0
 40
64.0
  1
VD-25ZE13-FP_5
 41
0.9
  0
TEXT
  8
ETC
  6
CONTINUOUS
 62
    61
 10
537.7052146220849
 20
749.47746488896155
 30
0.0
 40
64.0
  1
換気扇
 41
0.9
  0
TEXT
  8
ETC
  6
CONTINUOUS
 62
    61
 10
588.40661287064086
 20
641.32869200273626
 30
0.0
 40
40.0
  1
VD-25ZE13-FP
 41
0.9
  0
LINE
  8
OUTLINE
  6
CONTINUOUS
 62
     3
 10
181.95723614143941
 20
-31.822679911646901
 30
0.0
 11
181.589418137346
 21
-31.822679911646901
 31
0.0
  0
LINE
  8
OUTLINE
  6
CONTINUOUS
 62
     3
 10
181.93103686580801
 20
-34.824819525954808
 30
0.0
 11
181.589418137346
 21
-34.824819525954808
 31
0.0
  0
LINE
  8
OUTLINE
  6
CONTINUOUS
 62
     3
 10
180.7888475735308
 20
-46.232950060318217
 30
0.0
 11
180.7888475735308
 21
-27.119327849232828
 31
0.0
  0
LINE
  8
OUTLINE
  6
CONTINUOUS
 62
     3
 10
180.7888475735308
 20
-27.119327849232828
 30
0.0
 11
181.589418137346
 21
-27.119327849232828
 31
0.0
  0
LINE
  8
OUTLINE
  6
CONTINUOUS
 62
     3
 10
181.589418137346
 20
-46.232950060318217
 30
0.0
 11
181.589418137346
 21
-27.119327849232828
 31
0.0
  0
ARC
  8
OUTLINE
  6
CONTINUOUS
 62
     3
 10
179.9882770097156
 20
-46.232950060318217
 30
0.0
 40
0.8005705638145402
 50
270.60395190749011
 51
0.0
  0
ARC
  8
OUTLINE
  6
CONTINUOUS
 62
     3
 10
179.9882770097156
 20
-46.232950060318217
 30
0.0
 40
1.6011411276297121
 50
329.98088396060882
 51
0.0
  0
LINE
  8
OUTLINE
  6
CONTINUOUS
 62
     3
 10
179.58799172780891
 20
-34.824819525954808
 30
0.0
 11
177.38642267731669
 21
-34.824819525954808
 31
0.0
  0
LINE
  8
OUTLINE
  6
CONTINUOUS
 62
     3
 10
179.58799172780891
 20
-31.822679911646901
 30
0.0
 11
177.38642267731669
 21
-31.822679911646901
 31
0.0
  0
ARC
  8
OUTLINE
  6
CONTINUOUS
 62
     3
 10
179.9882770097156
 20
-30.121467463540739
 30
0.0
 40
0.8005705638144965
 50
270.0
 51
0.0
  0
LINE
  8
OUTLINE
  6
CONTINUOUS
 62
     3
 10
179.58799172780891
 20
-30.922038027355029
 30
0.0
 11
179.9882770097156
 21
-30.922038027355029
 31
0.0
  0
LINE
  8
OUTLINE
  6
CONTINUOUS
 62
     3
 10
179.58799172780891
 20
-35.725395946588378
 30
0.0
 11
179.58799172780891
 21
-30.922103490509471
 31
0.0
  0
LINE
  8
OUTLINE
  6
CONTINUOUS
 62
     3
 10
179.58799172780891
 20
-35.725461410244407
 30
0.0
 11
179.9882770097156
 21
-35.725461410244407
 31
0.0
  0
ARC
  8
OUTLINE
  6
CONTINUOUS
 62
     3
 10
179.9882770097156
 20
-36.526031974060523
 30
0.0
 40
0.8005705638151653
 50
0.0
 51
90.0
  0
LINE
  8
OUTLINE
  6
CONTINUOUS
 62
     3
 10
177.38642267731669
 20
-31.822679911646901
 30
0.0
 11
177.38642267731669
 21
-34.824819525954808
 31
0.0
  0
ARC
  8
OUTLINE
  6
CONTINUOUS
 62
     3
 10
183.2481563302008
 20
-10.30734600911774
 30
0.0
 40
0.3002139614305104
 50
0.9999999999952488
 51
90.0
  0
LINE
  8
OUTLINE
  6
CONTINUOUS
 62
     3
 10
183.15078495596569
 20
-10.007132047687721
 30
0.0
 11
183.5491983969896
 21
-10.352168208430159
 31
0.0
  0
LINE
  8
OUTLINE
  6
CONTINUOUS
 62
     3
 10
182.57302291750059
 20
-10.007132047687721
 30
0.0
 11
183.55806620444309
 21
-10.860204557392541
 31
0.0
  0
ARC
  8
OUTLINE
  6
CONTINUOUS
 62
     3
 10
185.03070205474799
 20
-13.50962826437717
 30
0.0
 40
2.0014264095365371
 50
136.49480331574449
 51
181.10170611524671
  0
LINE
  8
OUTLINE
  6
CONTINUOUS
 62
     3
 10
183.27908389466759
 20
-26.5188999263728
 30
0.0
 11
183.02964562889611
 21
-13.548110118260411
 31
0.0
  0
LINE
  8
OUTLINE
  6
CONTINUOUS
 62
     3
 10
202.20411015558241
 20
-47.00491645153943
 30
0.0
 11
202.20411015558241
 21
-47.033520624132962
 31
0.0
  0
ARC
  8
OUTLINE
  6
CONTINUOUS
 62
     3
 10
202.74694101321799
 20
-10.30734600911774
 30
0.0
 40
0.3002139614300854
 50
90.0
 51
179.00000000000469
  0
LINE
  8
OUTLINE
  6
CONTINUOUS
 62
     3
 10
202.44677277587471
 20
-10.30210655297515
 30
0.0
 11
201.8056235585918
 21
-47.033520624132962
 31
0.0
  0
ARC
  8
OUTLINE
  6
CONTINUOUS
 62
     3
 10
201.20339695081569
 20
-47.00491645153943
 30
0.0
 40
1.00071320476891
 50
0.0
 51
19.453781416099918
  0
LINE
  8
OUTLINE
  6
CONTINUOUS
 62
     3
 10
201.82771771151599
 20
-45.767747427543782
 30
0.0
 11
202.14697989404701
 21
-46.671632567792592
 31
0.0
  0
LINE
  8
OUTLINE
  6
CONTINUOUS
 62
     3
 10
183.54832456754411
 20
-10.30210655297515
 30
0.0
 11
184.18947378482881
 21
-47.033520624132962
 31
0.0
  0
LINE
  8
OUTLINE
  6
CONTINUOUS
 62
     3
 10
183.27908389466759
 20
-26.5188999263728
 30
0.0
 11
183.02964562889611
 21
-13.548110118260411
 31
0.0
  0
LINE
  8
OUTLINE
  6
CONTINUOUS
 62
     3
 10
183.54832456754411
 20
-10.30210655297515
 30
0.0
 11
184.18947378482881
 21
-47.033520624132962
 31
0.0
  0
ARC
  8
OUTLINE
  6
CONTINUOUS
 62
     3
 10
185.03070205474799
 20
-13.50962826437717
 30
0.0
 40
2.0014264095365371
 50
136.49480331574449
 51
181.10170611524671
  0
LINE
  8
OUTLINE
  6
CONTINUOUS
 62
     3
 10
183.83138974860049
 20
-26.5188999263728
 30
0.0
 11
182.30112699373601
 21
-26.5188999263728
 31
0.0
  0
LINE
  8
OUTLINE
  6
CONTINUOUS
 62
     3
 10
182.000924463453
 20
-26.816494059661181
 30
0.0
 11
181.82449314547381
 21
-47.033520624132962
 31
0.0
  0
ARC
  8
OUTLINE
  6
CONTINUOUS
 62
     3
 10
182.30112699373601
 20
-26.819113887802811
 30
0.0
 40
0.3002139614300854
 50
90.0
 51
179.5000000000866
  0
LINE
  8
OUTLINE
  6
CONTINUOUS
 62
     3
 10
-181.95723614143941
 20
-31.822679911646901
 30
0.0
 11
-181.589418137346
 21
-31.822679911646901
 31
0.0
  0
LINE
  8
OUTLINE
  6
CONTINUOUS
 62
     3
 10
-181.93103686580801
 20
-34.824819525954808
 30
0.0
 11
-181.589418137346
 21
-34.824819525954808
 31
0.0
  0
LINE
  8
OUTLINE
  6
CONTINUOUS
 62
     3
 10
-180.78884757353259
 20
-46.232950060318217
 30
0.0
 11
-180.78884757353259
 21
-27.119327849232828
 31
0.0
  0
LINE
  8
OUTLINE
  6
CONTINUOUS
 62
     3
 10
-180.78884757353259
 20
-27.119327849232828
 30
0.0
 11
-181.589418137346
 21
-27.119327849232828
 31
0.0
  0
LINE
  8
OUTLINE
  6
CONTINUOUS
 62
     3
 10
-181.589418137346
 20
-46.232950060318217
 30
0.0
 11
-181.589418137346
 21
-27.119327849232828
 31
0.0
  0
ARC
  8
OUTLINE
  6
CONTINUOUS
 62
     3
 10
-179.9882770097156
 20
-46.232950060318217
 30
0.0
 40
0.8005705638153404
 50
180.0
 51
269.39604809250989
  0
ARC
  8
OUTLINE
  6
CONTINUOUS
 62
     3
 10
-179.9882770097156
 20
-46.232950060318217
 30
0.0
 40
1.601141127629975
 50
180.0
 51
210.01911603939121
  0
LINE
  8
OUTLINE
  6
CONTINUOUS
 62
     3
 10
-179.58799172780891
 20
-34.824819525954808
 30
0.0
 11
-177.38642267731669
 21
-34.824819525954808
 31
0.0
  0
LINE
  8
OUTLINE
  6
CONTINUOUS
 62
     3
 10
-179.58799172780891
 20
-31.822679911646901
 30
0.0
 11
-177.38642267731669
 21
-31.822679911646901
 31
0.0
  0
ARC
  8
OUTLINE
  6
CONTINUOUS
 62
     3
 10
-179.9882770097156
 20
-30.121467463540739
 30
0.0
 40
0.8005705638153404
 50
180.0
 51
270.0
  0
LINE
  8
OUTLINE
  6
CONTINUOUS
 62
     3
 10
-179.58799172780891
 20
-30.922038027355029
 30
0.0
 11
-179.9882770097156
 21
-30.922038027355029
 31
0.0
  0
LINE
  8
OUTLINE
  6
CONTINUOUS
 62
     3
 10
-179.58799172780891
 20
-35.725395946588378
 30
0.0
 11
-179.58799172780891
 21
-30.922103490509471
 31
0.0
  0
LINE
  8
OUTLINE
  6
CONTINUOUS
 62
     3
 10
-179.58799172780891
 20
-35.725461410244407
 30
0.0
 11
-179.9882770097156
 21
-35.725461410244407
 31
0.0
  0
ARC
  8
OUTLINE
  6
CONTINUOUS
 62
     3
 10
-179.9882770097156
 20
-36.526031974060523
 30
0.0
 40
0.8005705638154341
 50
90.0
 51
180.0
  0
LINE
  8
OUTLINE
  6
CONTINUOUS
 62
     3
 10
-177.38642267731669
 20
-31.822679911646901
 30
0.0
 11
-177.38642267731669
 21
-34.824819525954808
 31
0.0
  0
ARC
  8
OUTLINE
  6
CONTINUOUS
 62
     3
 10
-183.2481563302008
 20
-10.30734600911774
 30
0.0
 40
0.3002139614300854
 50
90.0
 51
179.00000000000469
  0
LINE
  8
OUTLINE
  6
CONTINUOUS
 62
     3
 10
-183.15078495596751
 20
-10.007132047687721
 30
0.0
 11
-183.5491983969896
 21
-10.352168208430159
 31
0.0
  0
LINE
  8
OUTLINE
  6
CONTINUOUS
 62
     3
 10
-182.57302291750059
 20
-10.007132047687721
 30
0.0
 11
-183.55806620444491
 21
-10.860204557392541
 31
0.0
  0
ARC
  8
OUTLINE
  6
CONTINUOUS
 62
     3
 10
-185.03070205474799
 20
-13.50962826437717
 30
0.0
 40
2.001426409537864
 50
358.89829388475329
 51
43.505196684255473
  0
LINE
  8
OUTLINE
  6
CONTINUOUS
 62
     3
 10
-183.27908389466759
 20
-26.5188999263728
 30
0.0
 11
-183.02964562889611
 21
-13.548110118260411
 31
0.0
  0
ARC
  8
OUTLINE
  6
CONTINUOUS
 62
     3
 10
233.8870644462859
 20
-9.0064188424175882
 30
0.0
 40
1.0007132047688221
 50
270.0
 51
358.9999999999722
  0
LINE
  8
OUTLINE
  6
CONTINUOUS
 62
     3
 10
234.88762523742841
 20
-9.0238836960579647
 30
0.0
 11
235.02767019947899
 21
-1.000713204268322
 31
0.0
  0
ARC
  8
OUTLINE
  6
CONTINUOUS
 62
     3
 10
234.500404356475
 20
-47.533877226017012
 30
0.0
 40
0.5003566023842863
 50
357.000000000027
 51
90.0
  0
LINE
  8
OUTLINE
  6
CONTINUOUS
 62
     3
 10
-202.2041101555842
 20
-47.00491645153943
 30
0.0
 11
-202.2041101555842
 21
-47.033520624132962
 31
0.0
  0
LINE
  8
OUTLINE
  6
CONTINUOUS
 62
     3
 10
-234.42586539831061
 20
-53.122132760511697
 30
0.0
 11
-234.4236500374318
 21
-53.119936819971826
 31
0.0
  0
ARC
  8
OUTLINE
  6
CONTINUOUS
 62
     3
 10
-233.8868975188052
 20
-9.0064188429178103
 30
0.0
 40
1.00071320476831
 50
180.99999999998221
 51
270.0
  0
LINE
  8
OUTLINE
  6
CONTINUOUS
 62
     3
 10
-235.0275032720001
 20
-1.0007132047671801
 30
0.0
 11
-234.88745830994961
 21
-9.02388369605751
 31
0.0
  0
ARC
  8
OUTLINE
  6
CONTINUOUS
 62
     3
 10
-202.74694101321799
 20
-10.30734600911774
 30
0.0
 40
0.3002139614304229
 50
0.9999999999952488
 51
90.0
  0
LINE
  8
OUTLINE
  6
CONTINUOUS
 62
     3
 10
-202.4467727758765
 20
-10.30210655297515
 30
0.0
 11
-201.8056235585918
 21
-47.033520624132962
 31
0.0
  0
ARC
  8
OUTLINE
  6
CONTINUOUS
 62
     3
 10
-201.20339695081569
 20
-47.00491645153943
 30
0.0
 40
1.000713204768922
 50
160.5462185838918
 51
180.0
  0
LINE
  8
OUTLINE
  6
CONTINUOUS
 62
     3
 10
-201.82771771151781
 20
-45.767747427543782
 30
0.0
 11
-202.14697989404701
 21
-46.671632567792592
 31
0.0
  0
ARC
  8
OUTLINE
  6
CONTINUOUS
 62
     3
 10
-234.5002374289943
 20
-47.533877226517227
 30
0.0
 40
0.5003566023844112
 50
90.0
 51
183.00000000007731
  0
LINE
  8
OUTLINE
  6
CONTINUOUS
 62
     3
 10
-234.5002374289943
 20
-47.033520624132962
 30
0.0
 11
234.500404356475
 21
-47.033520624132962
 31
0.0
  0
LINE
  8
OUTLINE
  6
CONTINUOUS
 62
     3
 10
-183.54832456754411
 20
-10.30210655297515
 30
0.0
 11
-184.18947378482881
 21
-47.033520624132962
 31
0.0
  0
LINE
  8
OUTLINE
  6
CONTINUOUS
 62
     3
 10
-183.27908389466759
 20
-26.5188999263728
 30
0.0
 11
-183.02964562889611
 21
-13.548110118260411
 31
0.0
  0
LINE
  8
OUTLINE
  6
CONTINUOUS
 62
     3
 10
-183.54832456754411
 20
-10.30210655297515
 30
0.0
 11
-184.18947378482881
 21
-47.033520624132962
 31
0.0
  0
ARC
  8
OUTLINE
  6
CONTINUOUS
 62
     3
 10
-185.03070205474799
 20
-13.50962826437717
 30
0.0
 40
2.001426409537864
 50
358.89829388475329
 51
43.505196684255473
  0
LINE
  8
OUTLINE
  6
CONTINUOUS
 62
     3
 10
-183.83138974860049
 20
-26.5188999263728
 30
0.0
 11
-182.30112699373601
 21
-26.5188999263728
 31
0.0
  0
LINE
  8
OUTLINE
  6
CONTINUOUS
 62
     3
 10
-182.000924463453
 20
-26.816494059661181
 30
0.0
 11
-181.8244931454756
 21
-47.033520624132962
 31
0.0
  0
ARC
  8
OUTLINE
  6
CONTINUOUS
 62
     3
 10
-182.30112699373601
 20
-26.819113887802811
 30
0.0
 40
0.3002139614306041
 50
0.4999999999133842
 51
90.0
  0
LINE
  8
OUTLINE
  6
CONTINUOUS
 62
     3
 10
-234.9999083096682
 20
-47.560063867644203
 30
0.0
 11
-234.7102766627213
 21
-53.086564916681709
 31
0.0
  0
ARC
  8
OUTLINE
  6
CONTINUOUS
 62
     3
 10
-233.7115302531565
 20
-53.034222835332912
 30
0.0
 40
1.0001170352001809
 50
182.99999999753999
 51
270.0
  0
LINE
  8
OUTLINE
  6
CONTINUOUS
 62
     3
 10
-233.7115302531565
 20
-54.034339870532683
 30
0.0
 11
233.7116971808409
 21
-54.034339870532683
 31
0.0
  0
LINE
  8
OUTLINE
  6
CONTINUOUS
 62
     3
 10
234.71044359040209
 20
-53.086564916734908
 30
0.0
 11
235.00007523764731
 21
-47.560063867644203
 31
0.0
  0
ARC
  8
OUTLINE
  6
CONTINUOUS
 62
     3
 10
233.7116971808409
 20
-53.034222835332912
 30
0.0
 40
1.0001170351999811
 50
270.0
 51
356.99999999941377
  0
LINE
  8
OUTLINE
  6
CONTINUOUS
 62
     3
 10
233.8870644462859
 20
-10.007132047687721
 30
0.0
 11
-233.8868975188052
 21
-10.007132047687721
 31
0.0
  0
LINE
  8
DETAIL
  6
CONTINUOUS
 62
     5
 10
181.95723614143941
 20
-31.822679911646901
 30
0.0
 11
181.589418137346
 21
-31.822679911646901
 31
0.0
  0
LINE
  8
DETAIL
  6
CONTINUOUS
 62
     5
 10
181.93103686580801
 20
-34.824819525954808
 30
0.0
 11
181.589418137346
 21
-34.824819525954808
 31
0.0
  0
LINE
  8
DETAIL
  6
CONTINUOUS
 62
     5
 10
180.7888475735308
 20
-46.232950060318217
 30
0.0
 11
180.7888475735308
 21
-27.119327849232828
 31
0.0
  0
LINE
  8
DETAIL
  6
CONTINUOUS
 62
     5
 10
180.7888475735308
 20
-27.119327849232828
 30
0.0
 11
181.589418137346
 21
-27.119327849232828
 31
0.0
  0
LINE
  8
DETAIL
  6
CONTINUOUS
 62
     5
 10
181.589418137346
 20
-46.232950060318217
 30
0.0
 11
181.589418137346
 21
-27.119327849232828
 31
0.0
  0
ARC
  8
DETAIL
  6
CONTINUOUS
 62
     5
 10
179.9882770097156
 20
-46.232950060318217
 30
0.0
 40
0.8005705638145402
 50
270.60395190749011
 51
0.0
  0
ARC
  8
DETAIL
  6
CONTINUOUS
 62
     5
 10
179.9882770097156
 20
-46.232950060318217
 30
0.0
 40
1.6011411276297121
 50
329.98088396060882
 51
0.0
  0
LINE
  8
DETAIL
  6
CONTINUOUS
 62
     5
 10
179.58799172780891
 20
-34.824819525954808
 30
0.0
 11
177.38642267731669
 21
-34.824819525954808
 31
0.0
  0
LINE
  8
DETAIL
  6
CONTINUOUS
 62
     5
 10
179.58799172780891
 20
-31.822679911646901
 30
0.0
 11
177.38642267731669
 21
-31.822679911646901
 31
0.0
  0
ARC
  8
DETAIL
  6
CONTINUOUS
 62
     5
 10
179.9882770097156
 20
-30.121467463540739
 30
0.0
 40
0.8005705638144965
 50
270.0
 51
0.0
  0
LINE
  8
DETAIL
  6
CONTINUOUS
 62
     5
 10
179.58799172780891
 20
-30.922038027355029
 30
0.0
 11
179.9882770097156
 21
-30.922038027355029
 31
0.0
  0
LINE
  8
DETAIL
  6
CONTINUOUS
 62
     5
 10
179.58799172780891
 20
-35.725395946588378
 30
0.0
 11
179.58799172780891
 21
-30.922103490509471
 31
0.0
  0
LINE
  8
DETAIL
  6
CONTINUOUS
 62
     5
 10
179.58799172780891
 20
-35.725461410244407
 30
0.0
 11
179.9882770097156
 21
-35.725461410244407
 31
0.0
  0
ARC
  8
DETAIL
  6
CONTINUOUS
 62
     5
 10
179.9882770097156
 20
-36.526031974060523
 30
0.0
 40
0.8005705638151653
 50
0.0
 51
90.0
  0
LINE
  8
DETAIL
  6
CONTINUOUS
 62
     5
 10
177.38642267731669
 20
-31.822679911646901
 30
0.0
 11
177.38642267731669
 21
-34.824819525954808
 31
0.0
  0
ARC
  8
DETAIL
  6
CONTINUOUS
 62
     5
 10
183.2481563302008
 20
-10.30734600911774
 30
0.0
 40
0.3002139614305104
 50
0.9999999999952488
 51
90.0
  0
LINE
  8
DETAIL
  6
CONTINUOUS
 62
     5
 10
183.15078495596569
 20
-10.007132047687721
 30
0.0
 11
183.5491983969896
 21
-10.352168208430159
 31
0.0
  0
LINE
  8
DETAIL
  6
CONTINUOUS
 62
     5
 10
182.57302291750059
 20
-10.007132047687721
 30
0.0
 11
183.55806620444309
 21
-10.860204557392541
 31
0.0
  0
ARC
  8
DETAIL
  6
CONTINUOUS
 62
     5
 10
185.03070205474799
 20
-13.50962826437717
 30
0.0
 40
2.0014264095365371
 50
136.49480331574449
 51
181.10170611524671
  0
LINE
  8
DETAIL
  6
CONTINUOUS
 62
     5
 10
183.27908389466759
 20
-26.5188999263728
 30
0.0
 11
183.02964562889611
 21
-13.548110118260411
 31
0.0
  0
LINE
  8
DETAIL
  6
CONTINUOUS
 62
     5
 10
202.20411015558241
 20
-47.00491645153943
 30
0.0
 11
202.20411015558241
 21
-47.033520624132962
 31
0.0
  0
ARC
  8
DETAIL
  6
CONTINUOUS
 62
     5
 10
202.74694101321799
 20
-10.30734600911774
 30
0.0
 40
0.3002139614300854
 50
90.0
 51
178.99999999999821
  0
LINE
  8
DETAIL
  6
CONTINUOUS
 62
     5
 10
202.44677277587471
 20
-10.30210655297515
 30
0.0
 11
201.8056235585918
 21
-47.033520624132962
 31
0.0
  0
ARC
  8
DETAIL
  6
CONTINUOUS
 62
     5
 10
201.20339695081569
 20
-47.00491645153943
 30
0.0
 40
1.00071320476891
 50
0.0
 51
19.453781416099918
  0
LINE
  8
DETAIL
  6
CONTINUOUS
 62
     5
 10
201.82771771151599
 20
-45.767747427543782
 30
0.0
 11
202.14697989404701
 21
-46.671632567792592
 31
0.0
  0
LINE
  8
DETAIL
  6
CONTINUOUS
 62
     5
 10
183.54832456754411
 20
-10.30210655297515
 30
0.0
 11
184.18947378482881
 21
-47.033520624132962
 31
0.0
  0
LINE
  8
DETAIL
  6
CONTINUOUS
 62
     5
 10
183.27908389466759
 20
-26.5188999263728
 30
0.0
 11
183.02964562889611
 21
-13.548110118260411
 31
0.0
  0
LINE
  8
DETAIL
  6
CONTINUOUS
 62
     5
 10
183.54832456754411
 20
-10.30210655297515
 30
0.0
 11
184.18947378482881
 21
-47.033520624132962
 31
0.0
  0
ARC
  8
DETAIL
  6
CONTINUOUS
 62
     5
 10
185.03070205474799
 20
-13.50962826437717
 30
0.0
 40
2.0014264095365371
 50
136.49480331574449
 51
181.10170611524671
  0
LINE
  8
DETAIL
  6
CONTINUOUS
 62
     5
 10
183.83138974860049
 20
-26.5188999263728
 30
0.0
 11
182.30112699373601
 21
-26.5188999263728
 31
0.0
  0
LINE
  8
DETAIL
  6
CONTINUOUS
 62
     5
 10
182.000924463453
 20
-26.816494059661181
 30
0.0
 11
181.82449314547381
 21
-47.033520624132962
 31
0.0
  0
ARC
  8
DETAIL
  6
CONTINUOUS
 62
     5
 10
182.30112699373601
 20
-26.819113887802811
 30
0.0
 40
0.3002139614300854
 50
90.0
 51
179.5000000000866
  0
LINE
  8
DETAIL
  6
CONTINUOUS
 62
     5
 10
-181.95723614143941
 20
-31.822679911646901
 30
0.0
 11
-181.589418137346
 21
-31.822679911646901
 31
0.0
  0
LINE
  8
DETAIL
  6
CONTINUOUS
 62
     5
 10
-181.93103686580801
 20
-34.824819525954808
 30
0.0
 11
-181.589418137346
 21
-34.824819525954808
 31
0.0
  0
LINE
  8
DETAIL
  6
CONTINUOUS
 62
     5
 10
-180.78884757353259
 20
-46.232950060318217
 30
0.0
 11
-180.78884757353259
 21
-27.119327849232828
 31
0.0
  0
LINE
  8
DETAIL
  6
CONTINUOUS
 62
     5
 10
-180.78884757353259
 20
-27.119327849232828
 30
0.0
 11
-181.589418137346
 21
-27.119327849232828
 31
0.0
  0
LINE
  8
DETAIL
  6
CONTINUOUS
 62
     5
 10
-181.589418137346
 20
-46.232950060318217
 30
0.0
 11
-181.589418137346
 21
-27.119327849232828
 31
0.0
  0
ARC
  8
DETAIL
  6
CONTINUOUS
 62
     5
 10
-179.9882770097156
 20
-46.232950060318217
 30
0.0
 40
0.8005705638153404
 50
180.0
 51
269.39604809250989
  0
ARC
  8
DETAIL
  6
CONTINUOUS
 62
     5
 10
-179.9882770097156
 20
-46.232950060318217
 30
0.0
 40
1.601141127629975
 50
180.0
 51
210.01911603939121
  0
LINE
  8
DETAIL
  6
CONTINUOUS
 62
     5
 10
-179.58799172780891
 20
-34.824819525954808
 30
0.0
 11
-177.38642267731669
 21
-34.824819525954808
 31
0.0
  0
LINE
  8
DETAIL
  6
CONTINUOUS
 62
     5
 10
-179.58799172780891
 20
-31.822679911646901
 30
0.0
 11
-177.38642267731669
 21
-31.822679911646901
 31
0.0
  0
ARC
  8
DETAIL
  6
CONTINUOUS
 62
     5
 10
-179.9882770097156
 20
-30.121467463540739
 30
0.0
 40
0.8005705638153404
 50
180.0
 51
270.0
  0
LINE
  8
DETAIL
  6
CONTINUOUS
 62
     5
 10
-179.58799172780891
 20
-30.922038027355029
 30
0.0
 11
-179.9882770097156
 21
-30.922038027355029
 31
0.0
  0
LINE
  8
DETAIL
  6
CONTINUOUS
 62
     5
 10
-179.58799172780891
 20
-35.725395946588378
 30
0.0
 11
-179.58799172780891
 21
-30.922103490509471
 31
0.0
  0
LINE
  8
DETAIL
  6
CONTINUOUS
 62
     5
 10
-179.58799172780891
 20
-35.725461410244407
 30
0.0
 11
-179.9882770097156
 21
-35.725461410244407
 31
0.0
  0
ARC
  8
DETAIL
  6
CONTINUOUS
 62
     5
 10
-179.9882770097156
 20
-36.526031974060523
 30
0.0
 40
0.8005705638154341
 50
90.0
 51
180.0
  0
LINE
  8
DETAIL
  6
CONTINUOUS
 62
     5
 10
-177.38642267731669
 20
-31.822679911646901
 30
0.0
 11
-177.38642267731669
 21
-34.824819525954808
 31
0.0
  0
ARC
  8
DETAIL
  6
CONTINUOUS
 62
     5
 10
-183.2481563302008
 20
-10.30734600911774
 30
0.0
 40
0.3002139614300854
 50
90.0
 51
178.99999999999821
  0
LINE
  8
DETAIL
  6
CONTINUOUS
 62
     5
 10
-183.15078495596751
 20
-10.007132047687721
 30
0.0
 11
-183.5491983969896
 21
-10.352168208430159
 31
0.0
  0
LINE
  8
DETAIL
  6
CONTINUOUS
 62
     5
 10
-182.57302291750059
 20
-10.007132047687721
 30
0.0
 11
-183.55806620444491
 21
-10.860204557392541
 31
0.0
  0
ARC
  8
DETAIL
  6
CONTINUOUS
 62
     5
 10
-185.03070205474799
 20
-13.50962826437717
 30
0.0
 40
2.001426409537864
 50
358.89829388475329
 51
43.505196684255473
  0
LINE
  8
DETAIL
  6
CONTINUOUS
 62
     5
 10
-183.27908389466759
 20
-26.5188999263728
 30
0.0
 11
-183.02964562889611
 21
-13.548110118260411
 31
0.0
  0
ARC
  8
DETAIL
  6
CONTINUOUS
 62
     5
 10
233.8870644462859
 20
-9.0064188424175882
 30
0.0
 40
1.0007132047688221
 50
270.0
 51
358.99999999996572
  0
LINE
  8
DETAIL
  6
CONTINUOUS
 62
     5
 10
234.88762523742841
 20
-9.0238836960579647
 30
0.0
 11
235.02767019947899
 21
-1.000713204268322
 31
0.0
  0
ARC
  8
DETAIL
  6
CONTINUOUS
 62
     5
 10
234.500404356475
 20
-47.533877226017012
 30
0.0
 40
0.5003566023842863
 50
357.000000000027
 51
90.0
  0
LINE
  8
DETAIL
  6
CONTINUOUS
 62
     5
 10
-202.2041101555842
 20
-47.00491645153943
 30
0.0
 11
-202.2041101555842
 21
-47.033520624132962
 31
0.0
  0
LINE
  8
DETAIL
  6
CONTINUOUS
 62
     5
 10
-234.42586539831061
 20
-53.122132760511697
 30
0.0
 11
-234.4236500374318
 21
-53.119936819971826
 31
0.0
  0
ARC
  8
DETAIL
  6
CONTINUOUS
 62
     5
 10
-233.8868975188052
 20
-9.0064188429178103
 30
0.0
 40
1.00071320476831
 50
180.99999999998221
 51
270.0
  0
LINE
  8
DETAIL
  6
CONTINUOUS
 62
     5
 10
-235.0275032720001
 20
-1.0007132047671801
 30
0.0
 11
-234.88745830994961
 21
-9.02388369605751
 31
0.0
  0
ARC
  8
DETAIL
  6
CONTINUOUS
 62
     5
 10
-202.74694101321799
 20
-10.30734600911774
 30
0.0
 40
0.3002139614304229
 50
0.9999999999952488
 51
90.0
  0
LINE
  8
DETAIL
  6
CONTINUOUS
 62
     5
 10
-202.4467727758765
 20
-10.30210655297515
 30
0.0
 11
-201.8056235585918
 21
-47.033520624132962
 31
0.0
  0
ARC
  8
DETAIL
  6
CONTINUOUS
 62
     5
 10
-201.20339695081569
 20
-47.00491645153943
 30
0.0
 40
1.000713204768922
 50
160.5462185839001
 51
180.0
  0
LINE
  8
DETAIL
  6
CONTINUOUS
 62
     5
 10
-201.82771771151781
 20
-45.767747427543782
 30
0.0
 11
-202.14697989404701
 21
-46.671632567792592
 31
0.0
  0
ARC
  8
DETAIL
  6
CONTINUOUS
 62
     5
 10
-234.5002374289943
 20
-47.533877226517227
 30
0.0
 40
0.5003566023844112
 50
90.0
 51
183.00000000007731
  0
LINE
  8
DETAIL
  6
CONTINUOUS
 62
     5
 10
-234.5002374289943
 20
-47.033520624132962
 30
0.0
 11
234.500404356475
 21
-47.033520624132962
 31
0.0
  0
LINE
  8
DETAIL
  6
CONTINUOUS
 62
     5
 10
-183.54832456754411
 20
-10.30210655297515
 30
0.0
 11
-184.18947378482881
 21
-47.033520624132962
 31
0.0
  0
LINE
  8
DETAIL
  6
CONTINUOUS
 62
     5
 10
-183.27908389466759
 20
-26.5188999263728
 30
0.0
 11
-183.02964562889611
 21
-13.548110118260411
 31
0.0
  0
LINE
  8
DETAIL
  6
CONTINUOUS
 62
     5
 10
-183.54832456754411
 20
-10.30210655297515
 30
0.0
 11
-184.18947378482881
 21
-47.033520624132962
 31
0.0
  0
ARC
  8
DETAIL
  6
CONTINUOUS
 62
     5
 10
-185.03070205474799
 20
-13.50962826437717
 30
0.0
 40
2.001426409537864
 50
358.89829388475329
 51
43.505196684255473
  0
LINE
  8
DETAIL
  6
CONTINUOUS
 62
     5
 10
-183.83138974860049
 20
-26.5188999263728
 30
0.0
 11
-182.30112699373601
 21
-26.5188999263728
 31
0.0
  0
LINE
  8
DETAIL
  6
CONTINUOUS
 62
     5
 10
-182.000924463453
 20
-26.816494059661181
 30
0.0
 11
-181.8244931454756
 21
-47.033520624132962
 31
0.0
  0
ARC
  8
DETAIL
  6
CONTINUOUS
 62
     5
 10
-182.30112699373601
 20
-26.819113887802811
 30
0.0
 40
0.3002139614306041
 50
0.4999999999133842
 51
90.0
  0
LINE
  8
DETAIL
  6
CONTINUOUS
 62
     5
 10
-234.9999083096682
 20
-47.560063867644203
 30
0.0
 11
-234.7102766627213
 21
-53.086564916681709
 31
0.0
  0
ARC
  8
DETAIL
  6
CONTINUOUS
 62
     5
 10
-233.7115302531565
 20
-53.034222835332912
 30
0.0
 40
1.0001170352001809
 50
182.99999999753999
 51
270.0
  0
LINE
  8
DETAIL
  6
CONTINUOUS
 62
     5
 10
-233.7115302531565
 20
-54.034339870532683
 30
0.0
 11
233.7116971808409
 21
-54.034339870532683
 31
0.0
  0
LINE
  8
DETAIL
  6
CONTINUOUS
 62
     5
 10
234.71044359040209
 20
-53.086564916734908
 30
0.0
 11
235.00007523764731
 21
-47.560063867644203
 31
0.0
  0
ARC
  8
DETAIL
  6
CONTINUOUS
 62
     5
 10
233.7116971808409
 20
-53.034222835332912
 30
0.0
 40
1.0001170351999811
 50
270.0
 51
356.99999999941377
  0
LINE
  8
DETAIL
  6
CONTINUOUS
 62
     5
 10
233.8870644462859
 20
-10.007132047687721
 30
0.0
 11
-233.8868975188052
 21
-10.007132047687721
 31
0.0
  0
LINE
  8
OUTLINE
  6
CONTINUOUS
 62
     3
 10
-234.97260899999989
 20
0.0
 30
0.0
 11
235.02739100000011
 21
0.0
 31
0.0
  0
LINE
  8
OUTLINE
  6
CONTINUOUS
 62
     3
 10
-192.97260899999989
 20
230.0
 30
0.0
 11
193.02739100000011
 21
230.0
 31
0.0
  0
LINE
  8
SIZE
  6
CONTINUOUS
 62
    30
 10
0.0
 20
629.93957340328461
 30
0.0
 11
12.0
 21
629.93957340328461
 31
0.0
  0
CIRCLE
  8
SIZE
  6
CONTINUOUS
 62
    30
 10
0.0
 20
629.93957340328461
 30
0.0
 40
6.0
  0
TEXT
  8
SIZE
  6
CONTINUOUS
 62
    30
 10
-110.5097518571428
 20
-764.03813084428782
 30
0.0
 40
64.0
  1
□470
 41
0.9
 72
     1
 11
0.0273910000000797
 21
-764.03813084428782
 31
0.0
  0
LINE
  8
SIZE
  6
CONTINUOUS
 62
    30
 10
-222.97260899999989
 20
-789.03813084428782
 30
0.0
 11
223.02739100000011
 21
-789.03813084428782
 31
0.0
  0
LINE
  8
DETAIL
  6
CONTINUOUS
 62
     5
 10
-234.97260899999989
 20
0.0
 30
0.0
 11
235.02739100000011
 21
0.0
 31
0.0
  0
CIRCLE
  8
SIZE
  6
CONTINUOUS
 62
    30
 10
0.0
 20
727.9564924032843
 30
0.0
 40
6.0
  0
LINE
  8
SIZE
  6
CONTINUOUS
 62
    30
 10
0.0
 20
727.9564924032843
 30
0.0
 11
12.0
 21
727.9564924032843
 31
0.0
  0
CIRCLE
  8
SIZE
  6
CONTINUOUS
 62
    30
 10
0.0
 20
727.9564924032843
 30
0.0
 40
6.0
  0
TEXT
  8
SIZE
  6
CONTINUOUS
 62
    30
 10
-109.1657142857143
 20
876.35878440328452
 30
0.0
 40
64.0
  1
□386
 41
0.9
 72
     1
 11
0.0
 21
876.35878440328452
 31
0.0
  0
LINE
  8
SIZE
  6
CONTINUOUS
 62
    30
 10
181.0
 20
851.35878440328452
 30
0.0
 11
-181.0
 21
851.35878440328452
 31
0.0
  0
LINE
  8
DETAIL
  6
CONTINUOUS
 62
     5
 10
-53.0
 20
239.0
 30
0.0
 11
45.0
 21
239.0
 31
0.0
  0
LINE
  8
SIZE
  6
CONTINUOUS
 62
    30
 10
33.0
 20
492.26075547133308
 30
0.0
 11
-41.000002000000222
 21
492.26075547133308
 31
0.0
  0
LINE
  8
DETAIL
  6
CONTINUOUS
 62
     5
 10
-107.5
 20
230.0
 30
0.0
 11
107.5
 21
230.0
 31
0.0
  0
LINE
  8
DETAIL
  6
CONTINUOUS
 62
     5
 10
-107.5
 20
223.0
 30
0.0
 11
107.5
 21
223.0
 31
0.0
  0
TEXT
  8
SIZE
  6
CONTINUOUS
 62
    30
 10
-68.571428571428555
 20
-628.30263817871685
 30
0.0
 40
64.0
  1
410
 41
0.9
 72
     1
 11
0.0
 21
-628.30263817871685
 31
0.0
  0
LINE
  8
SIZE
  6
CONTINUOUS
 62
    30
 10
-193.0
 20
-653.30263817871685
 30
0.0
 11
193.0
 21
-653.30263817871685
 31
0.0
  0
TEXT
  8
SIZE
  6
CONTINUOUS
 62
    30
 10
-74.05714285714285
 20
-487.8728025795906
 30
0.0
 40
64.0
  1
300
 41
0.9
 72
     1
 11
0.0
 21
-487.8728025795906
 31
0.0
  0
LINE
  8
SIZE
  6
CONTINUOUS
 62
    30
 10
-138.0
 20
-512.8728025795906
 30
0.0
 11
138.0
 21
-512.8728025795906
 31
0.0
  0
LINE
  8
DETAIL
  6
CONTINUOUS
 62
     5
 10
39.952641999999742
 20
278.0
 30
0.0
 11
-4.0
 21
278.0
 31
0.0
  0
LINE
  8
OUTLINE
  6
CONTINUOUS
 62
     3
 10
-192.97260899999989
 20
0.0
 30
0.0
 11
-192.97260899999989
 21
230.0
 31
0.0
  0
LINE
  8
SIZE
  6
CONTINUOUS
 62
    30
 10
-734.19344700000011
 20
0.0
 30
0.0
 11
-734.19344700000011
 21
12.0
 31
0.0
  0
CIRCLE
  8
SIZE
  6
CONTINUOUS
 62
    30
 10
-734.19344700000011
 20
0.0
 30
0.0
 40
6.0
  0
LINE
  8
SIZE
  6
CONTINUOUS
 62
    30
 10
-734.19344700000011
 20
0.0
 30
0.0
 11
-734.19344700000011
 21
12.0
 31
0.0
  0
CIRCLE
  8
SIZE
  6
CONTINUOUS
 62
    30
 10
-734.19344700000011
 20
0.0
 30
0.0
 40
6.0
  0
LINE
  8
NOTE
  6
CONTINUOUS
 62
     4
 10
-204.98601300000021
 20
0.0799839999999676
 30
0.0
 11
-230.65418199999979
 21
-30.598104000000031
 31
0.0
  0
LINE
  8
NOTE
  6
CONTINUOUS
 62
     4
 10
-211.8762549999997
 20
-39.322103999999968
 30
0.0
 11
-204.98601300000021
 21
0.0799839999999676
 31
0.0
  0
LINE
  8
NOTE
  6
CONTINUOUS
 62
     4
 10
-204.98852500000021
 20
0.0256140000001324
 30
0.0
 11
-287.05333599999989
 21
-183.15480600000001
 31
0.0
  0
LINE
  8
NOTE
  6
CONTINUOUS
 62
     4
 10
-205.0
 20
-20.0
 30
0.0
 11
-205.0
 21
20.0
 31
0.0
  0
LINE
  8
NOTE
  6
CONTINUOUS
 62
     4
 10
-150.0
 20
-20.0
 30
0.0
 11
-150.0
 21
20.0
 31
0.0
  0
CIRCLE
  8
FIX
  6
CONTINUOUS
 62
    11
 10
-150.0
 20
0.0
 30
0.0
 40
2.5
  0
CIRCLE
  8
FIX
  6
CONTINUOUS
 62
    11
 10
-205.0
 20
0.0
 30
0.0
 40
2.5
  0
LINE
  8
DETAIL
  6
CONTINUOUS
 62
     5
 10
-193.0
 20
0.0
 30
0.0
 11
-193.0
 21
230.0
 31
0.0
  0
LINE
  8
BASIS
  6
DASHDOT
 62
     6
 10
0.0
 20
-102.65254999999991
 30
0.0
 11
0.0
 21
328.47680999999989
 31
0.0
  0
LINE
  8
SIZE
  6
CONTINUOUS
 62
    30
 10
-234.97260899999989
 20
-20.0
 30
0.0
 11
-234.97260899999989
 21
-809.03813084428805
 31
0.0
  0
LINE
  8
SIZE
  6
CONTINUOUS
 62
    30
 10
-234.97260899999989
 20
-789.03813084428782
 30
0.0
 11
-222.97260899999989
 21
-789.03813084428782
 31
0.0
  0
CIRCLE
  8
SIZE
  6
CONTINUOUS
 62
    30
 10
-234.97260899999989
 20
-789.03813084428782
 30
0.0
 40
6.0
  0
LINE
  8
SIZE
  6
CONTINUOUS
 62
    30
 10
-234.03791099999989
 20
-55.0
 30
0.0
 11
-754.19344700000011
 21
-55.0
 31
0.0
  0
LINE
  8
SIZE
  6
CONTINUOUS
 62
    30
 10
-254.97260899999989
 20
0.0
 30
0.0
 11
-754.19344700000011
 21
0.0
 31
0.0
  0
LINE
  8
SIZE
  6
CONTINUOUS
 62
    30
 10
-255.0
 20
0.0
 30
0.0
 11
-754.19344700000011
 21
0.0
 31
0.0
  0
LINE
  8
SIZE
  6
CONTINUOUS
 62
    30
 10
-255.0
 20
0.0
 30
0.0
 11
-616.02669100000003
 21
0.0
 31
0.0
  0
LINE
  8
NOTE
  6
CONTINUOUS
 62
     4
 10
-287.05333599999989
 20
-183.15480600000001
 30
0.0
 11
-676.03285499999981
 21
-183.15480600000001
 31
0.0
  0
TEXT
  8
NOTE
  6
CONTINUOUS
 62
     4
 10
-654.60453099999995
 20
-150.19053500000001
 30
0.0
 40
64.0
  1
8-φ5×8
 41
0.9
  0
TEXT
  8
SIZE
  6
CONTINUOUS
 62
    30
 10
-759.19344700000011
 20
-205.90000042857139
 30
0.0
 40
64.0
  1
55
 50
90.0
 41
0.9
 72
     1
 11
-759.19344700000011
 21
-159.27142900000001
 31
0.0
  0
LINE
  8
SIZE
  6
CONTINUOUS
 62
    30
 10
-734.19344700000011
 20
-67.0
 30
0.0
 11
-734.19344700000011
 21
-230.90000000000001
 31
0.0
  0
LINE
  8
SIZE
  6
CONTINUOUS
 62
    30
 10
-734.19344700000011
 20
-55.0
 30
0.0
 11
-734.19344700000011
 21
-67.0
 31
0.0
  0
CIRCLE
  8
SIZE
  6
CONTINUOUS
 62
    30
 10
-734.19344700000011
 20
-55.0
 30
0.0
 40
6.0
  0
LINE
  8
SIZE
  6
CONTINUOUS
 62
    30
 10
-734.19344700000011
 20
0.0
 30
0.0
 11
-734.19344700000011
 21
-55.0
 31
0.0
  0
LINE
  8
SIZE
  6
CONTINUOUS
 62
    30
 10
-205.0
 20
-40.0
 30
0.0
 11
-205.0
 21
-673.30263817871673
 31
0.0
  0
LINE
  8
SIZE
  6
CONTINUOUS
 62
    30
 10
-205.0
 20
-653.30263817871685
 30
0.0
 11
-193.0
 21
-653.30263817871685
 31
0.0
  0
CIRCLE
  8
SIZE
  6
CONTINUOUS
 62
    30
 10
-205.0
 20
-653.30263817871685
 30
0.0
 40
6.0
  0
LINE
  8
SIZE
  6
CONTINUOUS
 62
    30
 10
-150.0
 20
-40.0
 30
0.0
 11
-150.0
 21
-532.87280257959083
 31
0.0
  0
LINE
  8
SIZE
  6
CONTINUOUS
 62
    30
 10
-150.0
 20
-512.8728025795906
 30
0.0
 11
-138.0
 21
-512.8728025795906
 31
0.0
  0
CIRCLE
  8
SIZE
  6
CONTINUOUS
 62
    30
 10
-150.0
 20
-512.8728025795906
 30
0.0
 40
6.0
  0
LINE
  8
NOTE
  6
CONTINUOUS
 62
     4
 10
-185.0
 20
0.0
 30
0.0
 11
-225.0
 21
0.0
 31
0.0
  0
LINE
  8
NOTE
  6
CONTINUOUS
 62
     4
 10
-130.0
 20
0.0
 30
0.0
 11
-170.0
 21
0.0
 31
0.0
  0
LINE
  8
NOTE
  6
CONTINUOUS
 62
     4
 10
-286.64927202554048
 20
335.80493444741069
 30
0.0
 11
-508.36470957498261
 21
335.80493444741069
 31
0.0
  0
TEXT
  8
NOTE
  6
CONTINUOUS
 62
     4
 10
-497.51981641712649
 20
358.55895115123622
 30
0.0
 40
64.0
  1
AH 4
 41
0.9
  0
LINE
  8
SIZE
  6
CONTINUOUS
 62
    30
 10
0.0
 20
348.47681000000011
 30
0.0
 11
0.0
 21
649.93957340328461
 31
0.0
  0
LINE
  8
SIZE
  6
CONTINUOUS
 62
    30
 10
-140.0
 20
278.0
 30
0.0
 11
-140.0
 21
747.9564924032843
 31
0.0
  0
LINE
  8
SIZE
  6
CONTINUOUS
 62
    30
 10
0.0
 20
346.0
 30
0.0
 11
0.0
 21
747.9564924032843
 31
0.0
  0
LINE
  8
SIZE
  6
CONTINUOUS
 62
    30
 10
0.0
 20
346.0
 30
0.0
 11
0.0
 21
747.9564924032843
 31
0.0
  0
LINE
  8
SIZE
  6
CONTINUOUS
 62
    30
 10
-193.0
 20
250.0
 30
0.0
 11
-193.0
 21
871.35878440328452
 31
0.0
  0
LINE
  8
SIZE
  6
CONTINUOUS
 62
    30
 10
-67.940000000000055
 20
278.00001600000002
 30
0.0
 11
-754.19344700000011
 21
278.00001600000002
 31
0.0
  0
TEXT
  8
SIZE
  6
CONTINUOUS
 62
    30
 10
-759.19344700000011
 20
64.942865142857144
 30
0.0
 40
64.0
  1
278
 50
90.0
 41
0.9
 72
     1
 11
-759.19344700000011
 21
139.00000800000001
 31
0.0
  0
LINE
  8
SIZE
  6
CONTINUOUS
 62
    30
 10
-734.19344700000011
 20
12.0
 30
0.0
 11
-734.19344700000011
 21
266.00001600000002
 31
0.0
  0
LINE
  8
SIZE
  6
CONTINUOUS
 62
    30
 10
-734.19344700000011
 20
12.0
 30
0.0
 11
-734.19344700000011
 21
24.0
 31
0.0
  0
LINE
  8
SIZE
  6
CONTINUOUS
 62
    30
 10
-734.19344700000011
 20
278.00001600000002
 30
0.0
 11
-734.19344700000011
 21
266.00001600000002
 31
0.0
  0
CIRCLE
  8
SIZE
  6
CONTINUOUS
 62
    30
 10
-734.19344700000011
 20
278.00001600000002
 30
0.0
 40
6.0
  0
LINE
  8
SIZE
  6
CONTINUOUS
 62
    30
 10
-53.000002000000222
 20
292.94001400000002
 30
0.0
 11
-53.000002000000222
 21
512.26075547133314
 31
0.0
  0
LINE
  8
NOTE
  6
CONTINUOUS
 62
     4
 10
-140.0
 20
237.0
 30
0.0
 11
-286.64927202554048
 21
335.80493444741069
 31
0.0
  0
LINE
  8
BASIS
  6
DASHDOT
 62
     6
 10
-84.462565970919513
 20
4.2375409999999647
 30
0.0
 11
-84.462565970919513
 21
31.965836999999961
 31
0.0
  0
ARC
  8
DETAIL
  6
CONTINUOUS
 62
     5
 10
-73.962565970919513
 20
18.0
 30
0.0
 40
7.0
 50
270.0
 51
90.0
  0
ARC
  8
DETAIL
  6
CONTINUOUS
 62
     5
 10
-73.962565970919513
 20
18.0
 30
0.0
 40
10.0
 50
270.0
 51
90.0
  0
ARC
  8
DETAIL
  6
CONTINUOUS
 62
     5
 10
-94.962565970919513
 20
18.0
 30
0.0
 40
10.0
 50
90.0
 51
270.0
  0
ARC
  8
DETAIL
  6
CONTINUOUS
 62
     5
 10
-94.962565970919513
 20
18.0
 30
0.0
 40
7.0
 50
90.0
 51
270.0
  0
LINE
  8
DETAIL
  6
CONTINUOUS
 62
     5
 10
-94.962565970919513
 20
25.0
 30
0.0
 11
-73.962565970919513
 21
25.0
 31
0.0
  0
LINE
  8
DETAIL
  6
CONTINUOUS
 62
     5
 10
-94.962565970919513
 20
28.0
 30
0.0
 11
-73.962565970919513
 21
28.0
 31
0.0
  0
LINE
  8
DETAIL
  6
CONTINUOUS
 62
     5
 10
-94.962565970919513
 20
8.0
 30
0.0
 11
-73.962565970919513
 21
8.0
 31
0.0
  0
LINE
  8
DETAIL
  6
CONTINUOUS
 62
     5
 10
-73.962565970919513
 20
11.0
 30
0.0
 11
-94.962565970919513
 21
11.0
 31
0.0
  0
LINE
  8
BASIS
  6
DASHDOT
 62
     6
 10
-110.067897717197
 20
18.0
 30
0.0
 11
-59.819109970919271
 21
18.0
 31
0.0
  0
LINE
  8
NOTE
  6
CONTINUOUS
 62
     4
 10
-140.0
 20
218.0
 30
0.0
 11
-140.0
 21
258.0
 31
0.0
  0
LINE
  8
NOTE
  6
CONTINUOUS
 62
     4
 10
-140.0
 20
237.0
 30
0.0
 11
-165.8650940000002
 21
268.51224200000001
 31
0.0
  0
LINE
  8
NOTE
  6
CONTINUOUS
 62
     4
 10
-177.65594899999999
 20
251.49182999999991
 30
0.0
 11
-140.0
 21
237.0
 31
0.0
  0
LINE
  8
DETAIL
  6
CONTINUOUS
 62
     5
 10
-193.0
 20
223.0
 30
0.0
 11
-172.5
 21
223.0
 31
0.0
  0
LINE
  8
DETAIL
  6
CONTINUOUS
 62
     5
 10
-193.0
 20
230.0
 30
0.0
 11
-172.5
 21
230.0
 31
0.0
  0
CIRCLE
  8
FIX
  6
CONTINUOUS
 62
    11
 10
-140.0
 20
237.0
 30
0.0
 40
6.0
  0
LINE
  8
NOTE
  6
CONTINUOUS
 62
     4
 10
-120.0
 20
237.0
 30
0.0
 11
-160.0
 21
237.0
 31
0.0
  0
LINE
  8
DETAIL
  6
CONTINUOUS
 62
     5
 10
-53.0
 20
230.0
 30
0.0
 11
-53.0
 21
272.94001400000002
 31
0.0
  0
ARC
  8
DETAIL
  6
CONTINUOUS
 62
     5
 10
-47.940000000000047
 20
272.94001400000002
 30
0.0
 40
5.060001999999999
 50
90.0
 51
179.99999900000509
  0
LINE
  8
DETAIL
  6
CONTINUOUS
 62
     5
 10
-47.952641999999742
 20
278.0
 30
0.0
 11
-4.0
 21
278.0
 31
0.0
  0
LINE
  8
SIZE
  6
CONTINUOUS
 62
    30
 10
-53.000002000000222
 20
492.26075547133308
 30
0.0
 11
-410.37436399999979
 21
492.26075547133308
 31
0.0
  0
TEXT
  8
SIZE
  6
CONTINUOUS
 62
    30
 10
-386.74579199999999
 20
517.26075547133314
 30
0.0
 40
64.0
  1
φ98
 41
0.9
 72
     1
 11
-309.94579199999998
 21
517.26075547133314
 31
0.0
  0
CIRCLE
  8
SIZE
  6
CONTINUOUS
 62
    30
 10
-53.000002000000222
 20
492.26075547133308
 30
0.0
 40
6.0
  0
LINE
  8
SIZE
  6
CONTINUOUS
 62
    30
 10
-53.000002000000222
 20
492.26075547133308
 30
0.0
 11
-41.000002000000222
 21
492.26075547133308
 31
0.0
  0
TEXT
  8
SIZE
  6
CONTINUOUS
 62
    30
 10
-360.2404435714285
 20
752.9564924032843
 30
0.0
 40
64.0
  1
140
 41
0.9
 72
     1
 11
-291.66901499999989
 21
752.9564924032843
 31
0.0
  0
LINE
  8
SIZE
  6
CONTINUOUS
 62
    30
 10
-140.0
 20
727.9564924032843
 30
0.0
 11
-385.24044300000008
 21
727.9564924032843
 31
0.0
  0
LINE
  8
SIZE
  6
CONTINUOUS
 62
    30
 10
-12.0
 20
727.9564924032843
 30
0.0
 11
-128.0
 21
727.9564924032843
 31
0.0
  0
LINE
  8
SIZE
  6
CONTINUOUS
 62
    30
 10
-140.0
 20
727.9564924032843
 30
0.0
 11
-128.0
 21
727.9564924032843
 31
0.0
  0
CIRCLE
  8
SIZE
  6
CONTINUOUS
 62
    30
 10
-140.0
 20
727.9564924032843
 30
0.0
 40
6.0
  0
LINE
  8
SIZE
  6
CONTINUOUS
 62
    30
 10
0.0
 20
727.9564924032843
 30
0.0
 11
-12.0
 21
727.9564924032843
 31
0.0
  0
LINE
  8
SIZE
  6
CONTINUOUS
 62
    30
 10
-193.0
 20
851.35878440328452
 30
0.0
 11
-181.0
 21
851.35878440328452
 31
0.0
  0
CIRCLE
  8
SIZE
  6
CONTINUOUS
 62
    30
 10
-193.0
 20
851.35878440328452
 30
0.0
 40
6.0
  0
LINE
  8
DETAIL
  6
CONTINUOUS
 62
     5
 10
194.7499999999994
 20
269.49999999999977
 30
0.0
 11
194.7499999999994
 21
0.0
 31
0.0
  0
LINE
  8
NOTE
  6
CONTINUOUS
 62
     4
 10
150.0
 20
-20.0
 30
0.0
 11
150.0
 21
20.0
 31
0.0
  0
CIRCLE
  8
FIX
  6
CONTINUOUS
 62
    11
 10
150.0
 20
0.0
 30
0.0
 40
2.5
  0
CIRCLE
  8
FIX
  6
CONTINUOUS
 62
    11
 10
205.0
 20
0.0
 30
0.0
 40
2.5
  0
LINE
  8
NOTE
  6
CONTINUOUS
 62
     4
 10
205.0
 20
-20.0
 30
0.0
 11
205.0
 21
20.0
 31
0.0
  0
LINE
  8
DETAIL
  6
CONTINUOUS
 62
     5
 10
193.0
 20
0.0
 30
0.0
 11
193.0
 21
200.0
 31
0.0
  0
LINE
  8
SIZE
  6
CONTINUOUS
 62
    30
 10
235.02739100000011
 20
-20.0
 30
0.0
 11
235.02739100000011
 21
-809.03813084428805
 31
0.0
  0
LINE
  8
SIZE
  6
CONTINUOUS
 62
    30
 10
235.02739100000011
 20
-789.03813084428782
 30
0.0
 11
223.02739100000011
 21
-789.03813084428782
 31
0.0
  0
CIRCLE
  8
SIZE
  6
CONTINUOUS
 62
    30
 10
235.02739100000011
 20
-789.03813084428782
 30
0.0
 40
6.0
  0
LINE
  8
SIZE
  6
CONTINUOUS
 62
    30
 10
205.0
 20
-40.0
 30
0.0
 11
205.0
 21
-673.30263817871673
 31
0.0
  0
LINE
  8
SIZE
  6
CONTINUOUS
 62
    30
 10
205.0
 20
-653.30263817871685
 30
0.0
 11
193.0
 21
-653.30263817871685
 31
0.0
  0
CIRCLE
  8
SIZE
  6
CONTINUOUS
 62
    30
 10
205.0
 20
-653.30263817871685
 30
0.0
 40
6.0
  0
LINE
  8
SIZE
  6
CONTINUOUS
 62
    30
 10
150.0
 20
-40.0
 30
0.0
 11
150.0
 21
-532.87280257959083
 31
0.0
  0
LINE
  8
SIZE
  6
CONTINUOUS
 62
    30
 10
150.0
 20
-512.8728025795906
 30
0.0
 11
138.0
 21
-512.8728025795906
 31
0.0
  0
CIRCLE
  8
SIZE
  6
CONTINUOUS
 62
    30
 10
150.0
 20
-512.8728025795906
 30
0.0
 40
6.0
  0
LINE
  8
NOTE
  6
CONTINUOUS
 62
     4
 10
130.0
 20
0.0
 30
0.0
 11
170.0
 21
0.0
 31
0.0
  0
LINE
  8
NOTE
  6
CONTINUOUS
 62
     4
 10
185.0
 20
0.0
 30
0.0
 11
225.0
 21
0.0
 31
0.0
  0
LINE
  8
DETAIL
  6
CONTINUOUS
 62
     5
 10
235.02739100000011
 20
0.0
 30
0.0
 11
235.02739100000011
 21
-1.0
 31
0.0
  0
CIRCLE
  8
SIZE
  6
CONTINUOUS
 62
    30
 10
80.0
 20
629.93957340328461
 30
0.0
 40
6.0
  0
LINE
  8
SIZE
  6
CONTINUOUS
 62
    30
 10
80.0
 20
278.0
 30
0.0
 11
80.0
 21
649.93957340328461
 31
0.0
  0
LINE
  8
SIZE
  6
CONTINUOUS
 62
    30
 10
278.0
 20
277.5
 30
0.0
 11
278.0
 21
871.35878440328452
 31
0.0
  0
LINE
  8
SIZE
  6
CONTINUOUS
 62
    30
 10
193.0
 20
289.5
 30
0.0
 11
193.0
 21
871.35878440328452
 31
0.0
  0
LINE
  8
SIZE
  6
CONTINUOUS
 62
    30
 10
140.0
 20
278.0
 30
0.0
 11
140.0
 21
747.9564924032843
 31
0.0
  0
LINE
  8
SIZE
  6
CONTINUOUS
 62
    30
 10
193.0
 20
289.5
 30
0.0
 11
193.0
 21
871.35878440328452
 31
0.0
  0
LINE
  8
SIZE
  6
CONTINUOUS
 62
    30
 10
298.0
 20
66.0
 30
0.0
 11
1060.858549383285
 21
66.0
 31
0.0
  0
LINE
  8
SIZE
  6
CONTINUOUS
 62
    30
 10
298.0
 20
258.0
 30
0.0
 11
1060.858549383285
 21
258.0
 31
0.0
  0
LINE
  8
SIZE
  6
CONTINUOUS
 62
    30
 10
216.0
 20
58.0
 30
0.0
 11
1190.413054383285
 21
58.0
 31
0.0
  0
LINE
  8
SIZE
  6
CONTINUOUS
 62
    30
 10
216.0
 20
266.0
 30
0.0
 11
1190.413054383285
 21
266.0
 31
0.0
  0
LINE
  8
SIZE
  6
CONTINUOUS
 62
    30
 10
80.0
 20
629.93957340328461
 30
0.0
 11
511.45584999999983
 21
629.93957340328461
 31
0.0
  0
LINE
  8
SIZE
  6
CONTINUOUS
 62
    30
 10
45.0
 20
292.94001400000002
 30
0.0
 11
45.0
 21
512.26075547133314
 31
0.0
  0
LINE
  8
DETAIL
  6
CONTINUOUS
 62
     5
 10
278.0
 20
258.0
 30
0.0
 11
196.0
 21
266.0
 31
0.0
  0
LINE
  8
DETAIL
  6
CONTINUOUS
 62
     5
 10
196.0
 20
58.0
 30
0.0
 11
278.0
 21
66.0
 31
0.0
  0
LINE
  8
BASIS
  6
DASHDOT
 62
     6
 10
315.13194900000008
 20
162.0
 30
0.0
 11
169.09359600000019
 21
162.0
 31
0.0
  0
LINE
  8
DETAIL
  6
CONTINUOUS
 62
     5
 10
196.0
 20
56.0
 30
0.0
 11
196.0
 21
269.49999999999977
 31
0.0
  0
LINE
  8
DETAIL
  6
CONTINUOUS
 62
     5
 10
193.0
 20
44.0
 30
0.0
 11
193.0
 21
269.49999999999977
 31
0.0
  0
LINE
  8
DETAIL
  6
CONTINUOUS
 62
     5
 10
126.0374340290805
 20
11.0
 30
0.0
 11
105.0374340290805
 21
11.0
 31
0.0
  0
LINE
  8
DETAIL
  6
CONTINUOUS
 62
     5
 10
105.0374340290805
 20
25.0
 30
0.0
 11
126.0374340290805
 21
25.0
 31
0.0
  0
LINE
  8
DETAIL
  6
CONTINUOUS
 62
     5
 10
105.0374340290805
 20
28.0
 30
0.0
 11
126.0374340290805
 21
28.0
 31
0.0
  0
LINE
  8
DETAIL
  6
CONTINUOUS
 62
     5
 10
105.0374340290805
 20
8.0
 30
0.0
 11
126.0374340290805
 21
8.0
 31
0.0
  0
LINE
  8
BASIS
  6
DASHDOT
 62
     6
 10
90.41910997091918
 20
18.0
 30
0.0
 11
140.1808900290803
 21
18.0
 31
0.0
  0
LINE
  8
BASIS
  6
DASHDOT
 62
     6
 10
115.5374340290805
 20
4.2375409999999647
 30
0.0
 11
115.5374340290805
 21
31.965836999999961
 31
0.0
  0
ARC
  8
DETAIL
  6
CONTINUOUS
 62
     5
 10
105.0374340290805
 20
18.0
 30
0.0
 40
10.0
 50
90.0
 51
270.0
  0
ARC
  8
DETAIL
  6
CONTINUOUS
 62
     5
 10
105.0374340290805
 20
18.0
 30
0.0
 40
7.0
 50
90.0
 51
270.0
  0
ARC
  8
DETAIL
  6
CONTINUOUS
 62
     5
 10
126.0374340290805
 20
18.0
 30
0.0
 40
7.0
 50
270.0
 51
90.0
  0
ARC
  8
DETAIL
  6
CONTINUOUS
 62
     5
 10
126.0374340290805
 20
18.0
 30
0.0
 40
10.0
 50
270.0
 51
90.0
  0
LINE
  8
DETAIL
  6
CONTINUOUS
 62
     5
 10
196.0
 20
56.0
 30
0.0
 11
194.7499999999994
 21
56.0
 31
0.0
  0
LINE
  8
NOTE
  6
CONTINUOUS
 62
     4
 10
80.0
 20
218.0
 30
0.0
 11
80.0
 21
258.0
 31
0.0
  0
LINE
  8
DETAIL
  6
CONTINUOUS
 62
     5
 10
45.0
 20
230.0
 30
0.0
 11
45.0
 21
272.94001400000002
 31
0.0
  0
CIRCLE
  8
FIX
  6
CONTINUOUS
 62
    11
 10
80.0
 20
237.0
 30
0.0
 40
6.0
  0
LINE
  8
NOTE
  6
CONTINUOUS
 62
     4
 10
60.0
 20
237.0
 30
0.0
 11
100.0
 21
237.0
 31
0.0
  0
ARC
  8
DETAIL
  6
CONTINUOUS
 62
     5
 10
39.940000000000047
 20
272.94001400000002
 30
0.0
 40
5.060001999999999
 50
0.6792530000038003
 51
90.0
  0
LINE
  8
NOTE
  6
CONTINUOUS
 62
     4
 10
140.0
 20
218.0
 30
0.0
 11
140.0
 21
258.0
 31
0.0
  0
LINE
  8
DETAIL
  6
CONTINUOUS
 62
     5
 10
172.5
 20
230.0
 30
0.0
 11
193.0
 21
230.0
 31
0.0
  0
LINE
  8
DETAIL
  6
CONTINUOUS
 62
     5
 10
172.5
 20
223.0
 30
0.0
 11
193.0
 21
223.0
 31
0.0
  0
CIRCLE
  8
FIX
  6
CONTINUOUS
 62
    11
 10
140.0
 20
237.0
 30
0.0
 40
6.0
  0
LINE
  8
NOTE
  6
CONTINUOUS
 62
     4
 10
120.0
 20
237.0
 30
0.0
 11
160.0
 21
237.0
 31
0.0
  0
LINE
  8
DETAIL
  6
CONTINUOUS
 62
     5
 10
196.0
 20
269.49999999999977
 30
0.0
 11
193.0
 21
269.49999999999977
 31
0.0
  0
LINE
  8
DETAIL
  6
CONTINUOUS
 62
     5
 10
270.0
 20
65.219512000000122
 30
0.0
 11
270.0
 21
258.78048799999988
 31
0.0
  0
LINE
  8
DETAIL
  6
CONTINUOUS
 62
     5
 10
278.0
 20
66.0
 30
0.0
 11
278.0
 21
258.0
 31
0.0
  0
TEXT
  8
NOTE
  6
CONTINUOUS
 62
     4
 10
312.54347400000012
 20
85.929401999999982
 30
0.0
 40
64.0
  1
EA
 41
0.9
  0
LINE
  8
SIZE
  6
CONTINUOUS
 62
    30
 10
45.0
 20
492.26075547133308
 30
0.0
 11
33.0
 21
492.26075547133308
 31
0.0
  0
CIRCLE
  8
SIZE
  6
CONTINUOUS
 62
    30
 10
45.0
 20
492.26075547133308
 30
0.0
 40
6.0
  0
LINE
  8
SIZE
  6
CONTINUOUS
 62
    30
 10
12.0
 20
629.93957340328461
 30
0.0
 11
68.0
 21
629.93957340328461
 31
0.0
  0
LINE
  8
SIZE
  6
CONTINUOUS
 62
    30
 10
80.0
 20
629.93957340328461
 30
0.0
 11
68.0
 21
629.93957340328461
 31
0.0
  0
TEXT
  8
SIZE
  6
CONTINUOUS
 62
    30
 10
1015.858549383285
 20
306.90328085714287
 30
0.0
 40
64.0
  1
φ192
 50
90.0
 41
0.9
 72
     1
 11
1015.858549383285
 21
405.64613800000012
 31
0.0
  0
LINE
  8
SIZE
  6
CONTINUOUS
 62
    30
 10
1040.858549383285
 20
257.5
 30
0.0
 11
1040.858549383285
 21
525.27470900000003
 31
0.0
  0
TEXT
  8
SIZE
  6
CONTINUOUS
 62
    30
 10
1145.413054383285
 20
298.38571457142859
 30
0.0
 40
64.0
  1
φ208
 50
90.0
 41
0.9
 72
     1
 11
1145.413054383285
 21
402.61428599999999
 31
0.0
  0
LINE
  8
SIZE
  6
CONTINUOUS
 62
    30
 10
1170.413054383285
 20
265.5
 30
0.0
 11
1170.413054383285
 21
527.7285710000001
 31
0.0
  0
LINE
  8
SIZE
  6
CONTINUOUS
 62
    30
 10
1040.858549383285
 20
77.5
 30
0.0
 11
1040.858549383285
 21
245.5
 31
0.0
  0
CIRCLE
  8
SIZE
  6
CONTINUOUS
 62
    30
 10
1040.858549383285
 20
65.5
 30
0.0
 40
6.0
  0
LINE
  8
SIZE
  6
CONTINUOUS
 62
    30
 10
1040.858549383285
 20
65.5
 30
0.0
 11
1040.858549383285
 21
77.5
 31
0.0
  0
LINE
  8
SIZE
  6
CONTINUOUS
 62
    30
 10
1040.858549383285
 20
257.5
 30
0.0
 11
1040.858549383285
 21
245.5
 31
0.0
  0
CIRCLE
  8
SIZE
  6
CONTINUOUS
 62
    30
 10
1040.858549383285
 20
257.5
 30
0.0
 40
6.0
  0
LINE
  8
SIZE
  6
CONTINUOUS
 62
    30
 10
1170.413054383285
 20
69.5
 30
0.0
 11
1170.413054383285
 21
253.5
 31
0.0
  0
LINE
  8
SIZE
  6
CONTINUOUS
 62
    30
 10
1170.413054383285
 20
57.5
 30
0.0
 11
1170.413054383285
 21
69.5
 31
0.0
  0
CIRCLE
  8
SIZE
  6
CONTINUOUS
 62
    30
 10
1170.413054383285
 20
57.5
 30
0.0
 40
6.0
  0
LINE
  8
SIZE
  6
CONTINUOUS
 62
    30
 10
1170.413054383285
 20
265.5
 30
0.0
 11
1170.413054383285
 21
253.5
 31
0.0
  0
CIRCLE
  8
SIZE
  6
CONTINUOUS
 62
    30
 10
1170.413054383285
 20
265.5
 30
0.0
 40
6.0
  0
TEXT
  8
SIZE
  6
CONTINUOUS
 62
    30
 10
393.19870757142871
 20
654.93957340328461
 30
0.0
 40
64.0
  1
80
 41
0.9
 72
     1
 11
439.82727900000009
 21
654.93957340328461
 31
0.0
  0
TEXT
  8
SIZE
  6
CONTINUOUS
 62
    30
 10
188.87142857142859
 20
876.35878440328452
 30
0.0
 40
64.0
  1
85
 41
0.9
 72
     1
 11
235.5
 21
876.35878440328452
 31
0.0
  0
LINE
  8
SIZE
  6
CONTINUOUS
 62
    30
 10
193.0
 20
851.35878440328452
 30
0.0
 11
278.0
 21
851.35878440328452
 31
0.0
  0
TEXT
  8
SIZE
  6
CONTINUOUS
 62
    30
 10
1.428571428571431
 20
752.9564924032843
 30
0.0
 40
64.0
  1
140
 41
0.9
 72
     1
 11
70.0
 21
752.9564924032843
 31
0.0
  0
LINE
  8
SIZE
  6
CONTINUOUS
 62
    30
 10
12.0
 20
727.9564924032843
 30
0.0
 11
128.0
 21
727.9564924032843
 31
0.0
  0
LINE
  8
SIZE
  6
CONTINUOUS
 62
    30
 10
140.0
 20
727.9564924032843
 30
0.0
 11
128.0
 21
727.9564924032843
 31
0.0
  0
CIRCLE
  8
SIZE
  6
CONTINUOUS
 62
    30
 10
140.0
 20
727.9564924032843
 30
0.0
 40
6.0
  0
LINE
  8
SIZE
  6
CONTINUOUS
 62
    30
 10
181.0
 20
851.35878440328452
 30
0.0
 11
169.0
 21
851.35878440328452
 31
0.0
  0
LINE
  8
SIZE
  6
CONTINUOUS
 62
    30
 10
193.0
 20
851.35878440328452
 30
0.0
 11
181.0
 21
851.35878440328452
 31
0.0
  0
CIRCLE
  8
SIZE
  6
CONTINUOUS
 62
    30
 10
193.0
 20
851.35878440328452
 30
0.0
 40
6.0
  0
LINE
  8
SIZE
  6
CONTINUOUS
 62
    30
 10
193.0
 20
851.35878440328452
 30
0.0
 11
181.0
 21
851.35878440328452
 31
0.0
  0
CIRCLE
  8
SIZE
  6
CONTINUOUS
 62
    30
 10
193.0
 20
851.35878440328452
 30
0.0
 40
6.0
  0
CIRCLE
  8
SIZE
  6
CONTINUOUS
 62
    30
 10
278.0
 20
851.35878440328452
 30
0.0
 40
6.0
  0
LINE
  8
SIZE
  6
CONTINUOUS
 62
    30
 10
335.13194900000008
 20
162.0
 30
0.0
 11
953.76738506766515
 21
161.9999999999998
 31
0.0
  0
LINE
  8
SIZE
  6
CONTINUOUS
 62
    30
 10
255.02739100000011
 20
0.0
 30
0.0
 11
953.76738506766515
 21
-0.0000000000002274
 31
0.0
  0
LINE
  8
SIZE
  6
CONTINUOUS
 62
    30
 10
933.76738506766515
 20
149.9999999999998
 30
0.0
 11
933.76738506766515
 21
11.999999999999771
 31
0.0
  0
LINE
  8
SIZE
  6
CONTINUOUS
 62
    30
 10
933.76738506766515
 20
-0.0000000000002274
 30
0.0
 11
933.76738506766515
 21
-199.14285714285731
 31
0.0
  0
CIRCLE
  8
SIZE
  6
CONTINUOUS
 62
    30
 10
933.76738506766515
 20
161.9999999999998
 30
0.0
 40
6.0
  0
LINE
  8
SIZE
  6
CONTINUOUS
 62
    30
 10
933.76738506766515
 20
161.9999999999998
 30
0.0
 11
933.76738506766515
 21
149.9999999999998
 31
0.0
  0
CIRCLE
  8
SIZE
  6
CONTINUOUS
 62
    30
 10
933.76738506766515
 20
-0.0000000000002274
 30
0.0
 40
6.0
  0
LINE
  8
SIZE
  6
CONTINUOUS
 62
    30
 10
933.76738506766515
 20
-0.0000000000002274
 30
0.0
 11
933.76738506766515
 21
11.999999999999771
 31
0.0
  0
TEXT
  8
SIZE
  6
CONTINUOUS
 62
    30
 10
908.76738506766515
 20
-174.14285714285711
 30
0.0
 40
64.0
  1
162
 50
90.0
 41
0.9
 72
     1
 11
908.76738506766515
 21
-105.5714285714286
 31
0.0
  0
POINT
  8
DEFPOINTS
  6
CONTINUOUS
 62
    30
 10
315.13194900000008
 20
162.0
 30
0.0
  0
POINT
  8
DEFPOINTS
  6
CONTINUOUS
 62
    30
 10
235.02739100000011
 20
0.0
 30
0.0
  0
POINT
  8
DEFPOINTS
  6
CONTINUOUS
 62
    30
 10
933.76738506766515
 20
-0.0000000000002274
 30
0.0
  0
LINE
  8
SIZE
  6
CONTINUOUS
 62
    30
 10
255.02739100000011
 20
0.0
 30
0.0
 11
828.05409645305326
 21
-0.0000000000001137
 31
0.0
  0
LINE
  8
SIZE
  6
CONTINUOUS
 62
    30
 10
216.0
 20
56.0
 30
0.0
 11
828.05409645305326
 21
55.999999999999773
 31
0.0
  0
LINE
  8
SIZE
  6
CONTINUOUS
 62
    30
 10
808.05409645305326
 20
67.999999999999773
 30
0.0
 11
808.05409645305326
 21
79.999999999999773
 31
0.0
  0
LINE
  8
SIZE
  6
CONTINUOUS
 62
    30
 10
808.05409645305326
 20
-12.00000000000011
 30
0.0
 11
808.05409645305326
 21
-165.88571428571441
 31
0.0
  0
LINE
  8
SIZE
  6
CONTINUOUS
 62
    30
 10
808.05409645305326
 20
55.999999999999773
 30
0.0
 11
808.05409645305326
 21
-0.0000000000001137
 31
0.0
  0
CIRCLE
  8
SIZE
  6
CONTINUOUS
 62
    30
 10
808.05409645305326
 20
55.999999999999773
 30
0.0
 40
6.0
  0
LINE
  8
SIZE
  6
CONTINUOUS
 62
    30
 10
808.05409645305326
 20
55.999999999999773
 30
0.0
 11
808.05409645305326
 21
67.999999999999773
 31
0.0
  0
CIRCLE
  8
SIZE
  6
CONTINUOUS
 62
    30
 10
808.05409645305326
 20
-0.0000000000001137
 30
0.0
 40
6.0
  0
LINE
  8
SIZE
  6
CONTINUOUS
 62
    30
 10
808.05409645305326
 20
-0.0000000000001137
 30
0.0
 11
808.05409645305326
 21
-12.00000000000011
 31
0.0
  0
TEXT
  8
SIZE
  6
CONTINUOUS
 62
    30
 10
783.05409645305326
 20
-140.88571428571419
 30
0.0
 40
64.0
  1
56
 50
90.0
 41
0.9
 72
     1
 11
783.05409645305326
 21
-95.628571428571377
 31
0.0
  0
POINT
  8
DEFPOINTS
  6
CONTINUOUS
 62
    30
 10
235.02739100000011
 20
0.0
 30
0.0
  0
POINT
  8
DEFPOINTS
  6
CONTINUOUS
 62
    30
 10
196.0
 20
56.0
 30
0.0
  0
POINT
  8
DEFPOINTS
  6
CONTINUOUS
 62
    30
 10
808.05409645305326
 20
55.999999999999773
 30
0.0
  0
LINE
  8
SIZE
  6
CONTINUOUS
 62
    30
 10
-185.0
 20
237.0
 30
0.0
 11
-621.37384596415416
 21
237.0
 31
0.0
  0
LINE
  8
SIZE
  6
CONTINUOUS
 62
    30
 10
-185.0
 20
0.1755701261708964
 30
0.0
 11
-621.37384596415416
 21
0.1755701261710101
 31
0.0
  0
LINE
  8
SIZE
  6
CONTINUOUS
 62
    30
 10
-601.37384596415416
 20
225.0
 30
0.0
 11
-601.37384596415416
 21
12.17557012617101
 31
0.0
  0
CIRCLE
  8
SIZE
  6
CONTINUOUS
 62
    30
 10
-601.37384596415416
 20
237.0
 30
0.0
 40
6.0
  0
LINE
  8
SIZE
  6
CONTINUOUS
 62
    30
 10
-601.37384596415416
 20
237.0
 30
0.0
 11
-601.37384596415416
 21
225.0
 31
0.0
  0
CIRCLE
  8
SIZE
  6
CONTINUOUS
 62
    30
 10
-601.37384596415416
 20
0.1755701261710101
 30
0.0
 40
6.0
  0
LINE
  8
SIZE
  6
CONTINUOUS
 62
    30
 10
-601.37384596415416
 20
0.1755701261710101
 30
0.0
 11
-601.37384596415416
 21
12.17557012617101
 31
0.0
  0
TEXT
  8
SIZE
  6
CONTINUOUS
 62
    30
 10
-626.37384596415416
 20
44.530642205942698
 30
0.0
 40
64.0
  1
237
 50
90.0
 41
0.9
 72
     1
 11
-626.37384596415416
 21
118.5877850630856
 31
0.0
  0
POINT
  8
DEFPOINTS
  6
CONTINUOUS
 62
    30
 10
-165.0
 20
237.0
 30
0.0
  0
POINT
  8
DEFPOINTS
  6
CONTINUOUS
 62
    30
 10
-165.0
 20
0.1755701261708964
 30
0.0
  0
POINT
  8
DEFPOINTS
  6
CONTINUOUS
 62
    30
 10
-601.37384596415416
 20
0.1755701261710101
 30
0.0
  0
LINE
  8
SIZE
  6
CONTINUOUS
 62
    30
 10
115.5374340290805
 20
-15.762459000000041
 30
0.0
 11
115.5374340290805
 21
-393.90087583757042
 31
0.0
  0
LINE
  8
SIZE
  6
CONTINUOUS
 62
    30
 10
0.0
 20
-117.03332556801431
 30
0.0
 11
0.0
 21
-393.90087583757042
 31
0.0
  0
LINE
  8
SIZE
  6
CONTINUOUS
 62
    30
 10
12.0
 20
-373.90087583757042
 30
0.0
 11
103.5374340290805
 21
-373.90087583757042
 31
0.0
  0
LINE
  8
SIZE
  6
CONTINUOUS
 62
    30
 10
115.5374340290805
 20
-373.90087583757042
 30
0.0
 11
510.04690797381949
 21
-373.90087583757042
 31
0.0
  0
CIRCLE
  8
SIZE
  6
CONTINUOUS
 62
    30
 10
0.0
 20
-373.90087583757042
 30
0.0
 40
6.0
  0
LINE
  8
SIZE
  6
CONTINUOUS
 62
    30
 10
0.0
 20
-373.90087583757042
 30
0.0
 11
12.0
 21
-373.90087583757042
 31
0.0
  0
CIRCLE
  8
SIZE
  6
CONTINUOUS
 62
    30
 10
115.5374340290805
 20
-373.90087583757042
 30
0.0
 40
6.0
  0
LINE
  8
SIZE
  6
CONTINUOUS
 62
    30
 10
115.5374340290805
 20
-373.90087583757042
 30
0.0
 11
103.5374340290805
 21
-373.90087583757042
 31
0.0
  0
TEXT
  8
SIZE
  6
CONTINUOUS
 62
    30
 10
276.58976511667692
 20
-348.90087583757042
 30
0.0
 40
64.0
  1
115.5
 41
0.9
 72
     1
 11
380.81833654524831
 21
-348.90087583757042
 31
0.0
  0
POINT
  8
DEFPOINTS
  6
CONTINUOUS
 62
    30
 10
115.5374340290805
 20
4.2375409999999647
 30
0.0
  0
POINT
  8
DEFPOINTS
  6
CONTINUOUS
 62
    30
 10
0.0
 20
-97.033325568014334
 30
0.0
  0
POINT
  8
DEFPOINTS
  6
CONTINUOUS
 62
    30
 10
0.0
 20
-373.90087583757042
 30
0.0
  0
LINE
  8
SIZE
  6
CONTINUOUS
 62
    30
 10
-84.462565970919513
 20
-15.762459000000041
 30
0.0
 11
-84.462565970919513
 21
-393.90087583757042
 31
0.0
  0
LINE
  8
SIZE
  6
CONTINUOUS
 62
    30
 10
0.0
 20
-122.65254999999991
 30
0.0
 11
0.0
 21
-393.90087583757042
 31
0.0
  0
LINE
  8
SIZE
  6
CONTINUOUS
 62
    30
 10
-12.0
 20
-373.90087583757042
 30
0.0
 11
-72.462565970919513
 21
-373.90087583757042
 31
0.0
  0
LINE
  8
SIZE
  6
CONTINUOUS
 62
    30
 10
-84.462565970919513
 20
-373.90087583757042
 30
0.0
 11
-456.8965260116363
 21
-373.90087583757042
 31
0.0
  0
CIRCLE
  8
SIZE
  6
CONTINUOUS
 62
    30
 10
0.0
 20
-373.90087583757042
 30
0.0
 40
6.0
  0
LINE
  8
SIZE
  6
CONTINUOUS
 62
    30
 10
0.0
 20
-373.90087583757042
 30
0.0
 11
-12.0
 21
-373.90087583757042
 31
0.0
  0
CIRCLE
  8
SIZE
  6
CONTINUOUS
 62
    30
 10
-84.462565970919513
 20
-373.90087583757042
 30
0.0
 40
6.0
  0
LINE
  8
SIZE
  6
CONTINUOUS
 62
    30
 10
-84.462565970919513
 20
-373.90087583757042
 30
0.0
 11
-72.462565970919513
 21
-373.90087583757042
 31
0.0
  0
TEXT
  8
SIZE
  6
CONTINUOUS
 62
    30
 10
-431.89652601163641
 20
-348.90087583757042
 30
0.0
 40
64.0
  1
84.5
 41
0.9
 72
     1
 11
-344.12509744020781
 21
-348.90087583757042
 31
0.0
  0
POINT
  8
DEFPOINTS
  6
CONTINUOUS
 62
    30
 10
-84.462565970919513
 20
4.2375409999999647
 30
0.0
  0
POINT
  8
DEFPOINTS
  6
CONTINUOUS
 62
    30
 10
0.0
 20
-102.65254999999991
 30
0.0
  0
POINT
  8
DEFPOINTS
  6
CONTINUOUS
 62
    30
 10
0.0
 20
-373.90087583757042
 30
0.0
  0
LINE
  8
SIZE
  6
CONTINUOUS
 62
    30
 10
95.037434029080487
 20
-2.0
 30
0.0
 11
95.037434029080487
 21
-257.08302106487542
 31
0.0
  0
LINE
  8
SIZE
  6
CONTINUOUS
 62
    30
 10
136.03743402908049
 20
-2.0
 30
0.0
 11
136.03743402908049
 21
-257.08302106487542
 31
0.0
  0
LINE
  8
SIZE
  6
CONTINUOUS
 62
    30
 10
83.037434029080487
 20
-237.08302106487551
 30
0.0
 11
71.037434029080487
 21
-237.08302106487551
 31
0.0
  0
LINE
  8
SIZE
  6
CONTINUOUS
 62
    30
 10
148.03743402908049
 20
-237.08302106487551
 30
0.0
 11
360.90732510354792
 21
-237.08302106487551
 31
0.0
  0
LINE
  8
SIZE
  6
CONTINUOUS
 62
    30
 10
95.037434029080487
 20
-237.08302106487551
 30
0.0
 11
136.03743402908049
 21
-237.08302106487551
 31
0.0
  0
CIRCLE
  8
SIZE
  6
CONTINUOUS
 62
    30
 10
95.037434029080487
 20
-237.08302106487551
 30
0.0
 40
6.0
  0
LINE
  8
SIZE
  6
CONTINUOUS
 62
    30
 10
95.037434029080487
 20
-237.08302106487551
 30
0.0
 11
83.037434029080487
 21
-237.08302106487551
 31
0.0
  0
CIRCLE
  8
SIZE
  6
CONTINUOUS
 62
    30
 10
136.03743402908049
 20
-237.08302106487551
 30
0.0
 40
6.0
  0
LINE
  8
SIZE
  6
CONTINUOUS
 62
    30
 10
136.03743402908049
 20
-237.08302106487551
 30
0.0
 11
148.03743402908049
 21
-237.08302106487551
 31
0.0
  0
TEXT
  8
SIZE
  6
CONTINUOUS
 62
    30
 10
267.33589653211942
 20
-212.08302106487551
 30
0.0
 40
64.0
  1
41
 41
0.9
 72
     1
 11
301.6216108178337
 21
-212.08302106487551
 31
0.0
  0
POINT
  8
DEFPOINTS
  6
CONTINUOUS
 62
    30
 10
95.037434029080487
 20
18.0
 30
0.0
  0
POINT
  8
DEFPOINTS
  6
CONTINUOUS
 62
    30
 10
136.03743402908049
 20
18.0
 30
0.0
  0
POINT
  8
DEFPOINTS
  6
CONTINUOUS
 62
    30
 10
136.03743402908049
 20
-237.08302106487551
 30
0.0
  0
LINE
  8
SIZE
  6
CONTINUOUS
 62
    30
 10
254.97260899999989
 20
0.0
 30
0.0
 11
573.46449063246291
 21
-0.0000000000001137
 31
0.0
  0
LINE
  8
SIZE
  6
CONTINUOUS
 62
    30
 10
160.1808900290803
 20
18.0
 30
0.0
 11
573.46449063246291
 21
17.99999999999989
 31
0.0
  0
LINE
  8
SIZE
  6
CONTINUOUS
 62
    30
 10
553.46449063246291
 20
29.99999999999989
 30
0.0
 11
553.46449063246291
 21
41.999999999999893
 31
0.0
  0
LINE
  8
SIZE
  6
CONTINUOUS
 62
    30
 10
553.46449063246291
 20
-12.00000000000011
 30
0.0
 11
553.46449063246291
 21
-156.28571428571431
 31
0.0
  0
LINE
  8
SIZE
  6
CONTINUOUS
 62
    30
 10
553.46449063246291
 20
17.99999999999989
 30
0.0
 11
553.46449063246291
 21
-0.0000000000001137
 31
0.0
  0
CIRCLE
  8
SIZE
  6
CONTINUOUS
 62
    30
 10
553.46449063246291
 20
17.99999999999989
 30
0.0
 40
6.0
  0
LINE
  8
SIZE
  6
CONTINUOUS
 62
    30
 10
553.46449063246291
 20
17.99999999999989
 30
0.0
 11
553.46449063246291
 21
29.99999999999989
 31
0.0
  0
CIRCLE
  8
SIZE
  6
CONTINUOUS
 62
    30
 10
553.46449063246291
 20
-0.0000000000001137
 30
0.0
 40
6.0
  0
LINE
  8
SIZE
  6
CONTINUOUS
 62
    30
 10
553.46449063246291
 20
-0.0000000000001137
 30
0.0
 11
553.46449063246291
 21
-12.00000000000011
 31
0.0
  0
TEXT
  8
SIZE
  6
CONTINUOUS
 62
    30
 10
528.46449063246291
 20
-131.28571428571419
 30
0.0
 40
64.0
  1
18
 50
90.0
 41
0.9
 72
     1
 11
528.46449063246291
 21
-90.14285714285711
 31
0.0
  0
POINT
  8
DEFPOINTS
  6
CONTINUOUS
 62
    30
 10
234.97260899999989
 20
0.0
 30
0.0
  0
POINT
  8
DEFPOINTS
  6
CONTINUOUS
 62
    30
 10
140.1808900290803
 20
18.0
 30
0.0
  0
POINT
  8
DEFPOINTS
  6
CONTINUOUS
 62
    30
 10
553.46449063246291
 20
17.99999999999989
 30
0.0
  0
LINE
  8
SIZE
  6
CONTINUOUS
 62
    30
 10
135.53743402908049
 20
8.0
 30
0.0
 11
690.78585946784915
 21
7.9999999999997726
 31
0.0
  0
LINE
  8
SIZE
  6
CONTINUOUS
 62
    30
 10
135.53743402908049
 20
28.0
 30
0.0
 11
690.78585946784915
 21
27.99999999999989
 31
0.0
  0
LINE
  8
SIZE
  6
CONTINUOUS
 62
    30
 10
670.78585946784915
 20
39.999999999999893
 30
0.0
 11
670.78585946784915
 21
51.999999999999893
 31
0.0
  0
LINE
  8
SIZE
  6
CONTINUOUS
 62
    30
 10
670.78585946784915
 20
-4.0000000000001137
 30
0.0
 11
670.78585946784915
 21
-159.25714285714301
 31
0.0
  0
LINE
  8
SIZE
  6
CONTINUOUS
 62
    30
 10
670.78585946784915
 20
27.99999999999989
 30
0.0
 11
670.78585946784915
 21
7.9999999999998863
 31
0.0
  0
CIRCLE
  8
SIZE
  6
CONTINUOUS
 62
    30
 10
670.78585946784915
 20
27.99999999999989
 30
0.0
 40
6.0
  0
LINE
  8
SIZE
  6
CONTINUOUS
 62
    30
 10
670.78585946784915
 20
27.99999999999989
 30
0.0
 11
670.78585946784915
 21
39.999999999999893
 31
0.0
  0
CIRCLE
  8
SIZE
  6
CONTINUOUS
 62
    30
 10
670.78585946784915
 20
7.9999999999998863
 30
0.0
 40
6.0
  0
LINE
  8
SIZE
  6
CONTINUOUS
 62
    30
 10
670.78585946784915
 20
7.9999999999998863
 30
0.0
 11
670.78585946784915
 21
-4.0000000000001137
 31
0.0
  0
TEXT
  8
SIZE
  6
CONTINUOUS
 62
    30
 10
645.78585946784915
 20
-134.2571428571429
 30
0.0
 40
64.0
  1
20
 50
90.0
 41
0.9
 72
     1
 11
645.78585946784915
 21
-87.62857142857149
 31
0.0
  0
POINT
  8
DEFPOINTS
  6
CONTINUOUS
 62
    30
 10
115.5374340290805
 20
8.0
 30
0.0
  0
POINT
  8
DEFPOINTS
  6
CONTINUOUS
 62
    30
 10
115.5374340290805
 20
28.0
 30
0.0
  0
POINT
  8
DEFPOINTS
  6
CONTINUOUS
 62
    30
 10
670.78585946784915
 20
27.99999999999989
 30
0.0
  0
LINE
  8
DETAIL
  6
DASHED
 62
     5
 10
278.0
 20
220.23000975231119
 30
0.0
 11
197.7518831269517
 21
220.23000975231119
 31
0.0
  0
ARC
  8
DETAIL
  6
CONTINUOUS
 62
     5
 10
300.117664396279
 20
320.35343266250771
 30
0.0
 40
115.3867632352713
 50
258.94899099999861
 51
299.8052209999916
  0
LINE
  8
DETAIL
  6
DASHED
 62
     5
 10
197.7518831269517
 20
219.8287713622185
 30
0.0
 11
197.7518831269517
 21
220.23000975231119
 31
0.0
  0
LINE
  8
DETAIL
  6
DASHED
 62
     5
 10
235.9631065015565
 20
219.8287713622185
 30
0.0
 11
197.7518831269517
 21
219.8287713622185
 31
0.0
  0
LINE
  8
DETAIL
  6
CONTINUOUS
 62
     5
 10
388.34011842103058
 20
220.23000975231119
 30
0.0
 11
278.0
 21
220.23000975231119
 31
0.0
  0
LINE
  8
DETAIL
  6
DASHED
 62
     5
 10
246.40203792570361
 20
220.23000975231119
 30
0.0
 11
246.97078080495879
 21
219.24491934983419
 31
0.0
  0
ARC
  8
DETAIL
  6
DASHED
 62
     5
 10
247.40513390093469
 20
219.49569334364239
 30
0.0
 40
0.5015479876160001
 50
209.99999999998661
 51
330.00000000001342
  0
LINE
  8
DETAIL
  6
DASHED
 62
     5
 10
248.4082298761659
 20
220.23000975231119
 30
0.0
 11
247.83948699690879
 21
219.24491934983419
 31
0.0
  0
ARC
  8
DETAIL
  6
DASHED
 62
     5
 10
238.37727012384491
 20
219.49569334364239
 30
0.0
 40
0.5015479876160001
 50
209.99999999998661
 51
330.00000000001342
  0
LINE
  8
DETAIL
  6
DASHED
 62
     5
 10
239.38036609907789
 20
220.23000975231119
 30
0.0
 11
238.8116232198208
 21
219.24491934983419
 31
0.0
  0
LINE
  8
DETAIL
  6
DASHED
 62
     5
 10
237.37417414861369
 20
220.23000975231119
 30
0.0
 11
237.94291702787089
 21
219.24491934983419
 31
0.0
  0
LINE
  8
DETAIL
  6
DASHED
 62
     5
 10
251.9190657894778
 20
219.8287713622185
 30
0.0
 11
249.81929125387609
 21
219.8287713622185
 31
0.0
  0
LINE
  8
DETAIL
  6
DASHED
 62
     5
 10
249.81929125387609
 20
219.8287713622185
 30
0.0
 11
235.9631065015565
 21
219.8287713622185
 31
0.0
  0
LINE
  8
DETAIL
  6
DASHED
 62
     5
 10
249.9128738390136
 20
220.23000975231119
 30
0.0
 11
247.77559605263741
 21
211.06606973683211
 31
0.0
  0
ARC
  8
DETAIL
  6
DASHED
 62
     5
 10
242.89120201238981
 20
212.2052419504553
 30
0.0
 40
5.0154798761600006
 50
270.0
 51
346.87176999999741
  0
ARC
  8
DETAIL
  6
DASHED
 62
     5
 10
242.89120201238981
 20
212.2052419504553
 30
0.0
 40
5.0154798761600006
 50
193.12823000000259
 51
270.0
  0
LINE
  8
DETAIL
  6
DASHED
 62
     5
 10
235.86953018576611
 20
220.23000975231119
 30
0.0
 11
238.00680797214409
 21
211.06606973683211
 31
0.0
  0
CIRCLE
  8
DETAIL
  6
DASHED
 62
     5
 10
242.89120201238981
 20
212.2052419504553
 30
0.0
 40
2.808668730649599
  0
LINE
  8
DETAIL
  6
DASHED
 62
     5
 10
251.9190657894778
 20
220.23000975231119
 30
0.0
 11
251.9190657894778
 21
217.46211060370479
 31
0.0
  0
ARC
  8
DETAIL
  6
DASHED
 62
     5
 10
254.92835371517501
 20
217.46211060370479
 30
0.0
 40
3.0092879256959999
 50
180.0
 51
246.28917900001761
  0
LINE
  8
DETAIL
  6
CONTINUOUS
 62
     5
 10
388.34011842103058
 20
219.8287713622185
 30
0.0
 11
356.76480123837428
 21
219.8287713622185
 31
0.0
  0
ARC
  8
DETAIL
  6
DASHED
 62
     5
 10
300.117664396279
 20
320.35343266250771
 30
0.0
 40
115.3867632352713
 50
246.28917900001761
 51
258.94899099999861
  0
LINE
  8
DETAIL
  6
CONTINUOUS
 62
     5
 10
388.34011842103058
 20
219.8287713622185
 30
0.0
 11
388.34011842103058
 21
220.23000975231119
 31
0.0
  0
LINE
  8
SIZE
  6
CONTINUOUS
 62
    30
 10
278.0
 20
278.0
 30
0.0
 11
278.0
 21
512.26075547133314
 31
0.0
  0
LINE
  8
SIZE
  6
CONTINUOUS
 62
    30
 10
388.34011842103058
 20
240.23000975231119
 30
0.0
 11
388.34011842103058
 21
512.26075547133314
 31
0.0
  0
LINE
  8
SIZE
  6
CONTINUOUS
 62
    30
 10
290.0
 20
492.26075547133308
 30
0.0
 11
376.34011842103058
 21
492.26075547133308
 31
0.0
  0
LINE
  8
SIZE
  6
CONTINUOUS
 62
    30
 10
388.34011842103058
 20
492.26075547133308
 30
0.0
 11
675.80297556388768
 21
492.26075547133308
 31
0.0
  0
CIRCLE
  8
SIZE
  6
CONTINUOUS
 62
    30
 10
278.0
 20
492.26075547133308
 30
0.0
 40
6.0
  0
LINE
  8
SIZE
  6
CONTINUOUS
 62
    30
 10
278.0
 20
492.26075547133308
 30
0.0
 11
290.0
 21
492.26075547133308
 31
0.0
  0
CIRCLE
  8
SIZE
  6
CONTINUOUS
 62
    30
 10
388.34011842103058
 20
492.26075547133308
 30
0.0
 40
6.0
  0
LINE
  8
SIZE
  6
CONTINUOUS
 62
    30
 10
388.34011842103058
 20
492.26075547133308
 30
0.0
 11
376.34011842103058
 21
492.26075547133308
 31
0.0
  0
TEXT
  8
SIZE
  6
CONTINUOUS
 62
    30
 10
416.01440413531651
 20
517.26075547133314
 30
0.0
 40
64.0
  1
（110）
 41
0.9
 72
     1
 11
546.84868984960212
 21
517.26075547133314
 31
0.0
  0
POINT
  8
DEFPOINTS
  6
CONTINUOUS
 62
    30
 10
278.0
 20
258.0
 30
0.0
  0
POINT
  8
DEFPOINTS
  6
CONTINUOUS
 62
    30
 10
388.34011842103058
 20
220.23000975231119
 30
0.0
  0
POINT
  8
DEFPOINTS
  6
CONTINUOUS
 62
    30
 10
388.34011842103058
 20
492.26075547133308
 30
0.0
  0
LINE
  8
DETAIL
  6
CONTINUOUS
 62
     5
 10
47.5
 20
230.0
 30
0.0
 11
47.5
 21
237.0
 31
0.0
  0
LINE
  8
DETAIL
  6
CONTINUOUS
 62
     5
 10
47.5
 20
237.0
 30
0.0
 11
107.5
 21
237.0
 31
0.0
  0
LINE
  8
DETAIL
  6
CONTINUOUS
 62
     5
 10
47.5
 20
235.40000000000009
 30
0.0
 11
107.5
 21
235.40000000000009
 31
0.0
  0
LINE
  8
DETAIL
  6
CONTINUOUS
 62
     5
 10
-169.5
 20
188.0
 30
0.0
 11
-172.5
 21
191.0
 31
0.0
  0
LINE
  8
DETAIL
  6
CONTINUOUS
 62
     5
 10
-110.5
 20
188.0
 30
0.0
 11
-107.5
 21
191.0
 31
0.0
  0
LINE
  8
DETAIL
  6
CONTINUOUS
 62
     5
 10
-107.5
 20
191.0
 30
0.0
 11
-107.5
 21
237.0
 31
0.0
  0
LINE
  8
DETAIL
  6
CONTINUOUS
 62
     5
 10
-172.5
 20
191.0
 30
0.0
 11
-172.5
 21
237.0
 31
0.0
  0
LINE
  8
DETAIL
  6
CONTINUOUS
 62
     5
 10
-172.5
 20
237.0
 30
0.0
 11
-107.5
 21
237.0
 31
0.0
  0
LINE
  8
DETAIL
  6
CONTINUOUS
 62
     5
 10
-172.5
 20
235.40000000000009
 30
0.0
 11
-107.5
 21
235.40000000000009
 31
0.0
  0
LINE
  8
DETAIL
  6
CONTINUOUS
 62
     5
 10
-169.5
 20
188.0
 30
0.0
 11
-110.5
 21
188.0
 31
0.0
  0
LINE
  8
DETAIL
  6
CONTINUOUS
 62
     5
 10
110.5
 20
188.0
 30
0.0
 11
107.5
 21
191.0
 31
0.0
  0
LINE
  8
DETAIL
  6
CONTINUOUS
 62
     5
 10
169.5
 20
188.0
 30
0.0
 11
172.5
 21
191.0
 31
0.0
  0
LINE
  8
DETAIL
  6
CONTINUOUS
 62
     5
 10
172.5
 20
191.0
 30
0.0
 11
172.5
 21
237.0
 31
0.0
  0
LINE
  8
DETAIL
  6
CONTINUOUS
 62
     5
 10
107.5
 20
191.0
 30
0.0
 11
107.5
 21
237.0
 31
0.0
  0
LINE
  8
DETAIL
  6
CONTINUOUS
 62
     5
 10
107.5
 20
237.0
 30
0.0
 11
172.5
 21
237.0
 31
0.0
  0
LINE
  8
DETAIL
  6
CONTINUOUS
 62
     5
 10
107.5
 20
235.40000000000009
 30
0.0
 11
172.5
 21
235.40000000000009
 31
0.0
  0
LINE
  8
DETAIL
  6
CONTINUOUS
 62
     5
 10
110.5
 20
188.0
 30
0.0
 11
169.5
 21
188.0
 31
0.0
  0
LINE
  8
OUTLINE
  6
CONTINUOUS
 62
     3
 10
193.02739100000011
 20
0.0
 30
0.0
 11
193.02739100000011
 21
269.49999999999977
 31
0.0
  0
LINE
  8
OUTLINE
  6
CONTINUOUS
 62
     3
 10
194.7499999999994
 20
269.49999999999977
 30
0.0
 11
194.7499999999994
 21
0.0
 31
0.0
  0
LINE
  8
OUTLINE
  6
CONTINUOUS
 62
     3
 10
278.0
 20
258.0
 30
0.0
 11
196.0
 21
266.0
 31
0.0
  0
LINE
  8
OUTLINE
  6
CONTINUOUS
 62
     3
 10
196.0
 20
58.0
 30
0.0
 11
278.0
 21
66.0
 31
0.0
  0
LINE
  8
OUTLINE
  6
CONTINUOUS
 62
     3
 10
196.0
 20
56.0
 30
0.0
 11
196.0
 21
269.49999999999977
 31
0.0
  0
LINE
  8
OUTLINE
  6
CONTINUOUS
 62
     3
 10
196.0
 20
56.0
 30
0.0
 11
194.7499999999994
 21
56.0
 31
0.0
  0
LINE
  8
OUTLINE
  6
CONTINUOUS
 62
     3
 10
196.0
 20
269.49999999999977
 30
0.0
 11
193.02739100000011
 21
269.49999999999977
 31
0.0
  0
LINE
  8
OUTLINE
  6
CONTINUOUS
 62
     3
 10
270.0
 20
65.219512000000122
 30
0.0
 11
270.0
 21
258.78048799999988
 31
0.0
  0
LINE
  8
OUTLINE
  6
CONTINUOUS
 62
     3
 10
278.0
 20
66.0
 30
0.0
 11
278.0
 21
258.0
 31
0.0
  0
ENDSEC
  0
EOF
