  0
SECTION
  2
HEADER
  9
$ACADVER
  1
AC1009
  9
$DWGCODEPAGE
  3
dos932
  9
$INSBASE
 10
0.0
 20
0.0
 30
0.0
  9
$EXTMIN
 10
-1108.946212
 20
-1024.42931
 30
-0.003052
  9
$EXTMAX
 10
1205.928051
 20
948.806771
 30
50.003052
  9
$LIMMIN
 10
-2970.0
 20
-2100.0
  9
$LIMMAX
 10
2970.0
 20
2100.0
  9
$ORTHOMODE
 70
     1
  9
$REGENMODE
 70
     1
  9
$FILLMODE
 70
     1
  9
$QTEXTMODE
 70
     0
  9
$MIRRTEXT
 70
     0
  9
$DRAGMODE
 70
     2
  9
$LTSCALE
 40
20.0
  9
$OSMODE
 70
    37
  9
$ATTMODE
 70
     1
  9
$TEXTSIZE
 40
64.0
  9
$TRACEWID
 40
0.05
  9
$TEXTSTYLE
  7
STANDARD
  9
$CLAYER
  8
SIZE
  9
$CELTYPE
  6
CONTINUOUS
  9
$CECOLOR
 62
     7
  9
$DIMSCALE
 40
1.0
  9
$DIMASZ
 40
12.0
  9
$DIMEXO
 40
20.0
  9
$DIMDLI
 40
200.0
  9
$DIMRND
 40
0.0
  9
$DIMDLE
 40
0.0
  9
$DIMEXE
 40
20.0
  9
$DIMTP
 40
0.0
  9
$DIMTM
 40
0.0
  9
$DIMTXT
 40
64.0
  9
$DIMCEN
 40
0.09
  9
$DIMTSZ
 40
0.0
  9
$DIMTOL
 70
     0
  9
$DIMLIM
 70
     0
  9
$DIMTIH
 70
     0
  9
$DIMTOH
 70
     0
  9
$DIMSE1
 70
     0
  9
$DIMSE2
 70
     0
  9
$DIMTAD
 70
     1
  9
$DIMZIN
 70
     8
  9
$DIMBLK
  1
DOT1
  9
$DIMASO
 70
     1
  9
$DIMSHO
 70
     0
  9
$DIMPOST
  1

  9
$DIMAPOST
  1

  9
$DIMALT
 70
     0
  9
$DIMALTD
 70
     2
  9
$DIMALTF
 40
25.4
  9
$DIMLFAC
 40
1.0
  9
$DIMTOFL
 70
     1
  9
$DIMTVP
 40
0.0
  9
$DIMTIX
 70
     1
  9
$DIMSOXD
 70
     0
  9
$DIMSAH
 70
     1
  9
$DIMBLK1
  1
ORIGIN
  9
$DIMBLK2
  1
ORIGIN
  9
$DIMSTYLE
  2
STANDARD
  9
$DIMCLRD
 70
     7
  9
$DIMCLRE
 70
     7
  9
$DIMCLRT
 70
     7
  9
$DIMTFAC
 40
1.0
  9
$DIMGAP
 40
25.0
  9
$LUNITS
 70
     2
  9
$LUPREC
 70
     4
  9
$SKETCHINC
 40
0.1
  9
$FILLETRAD
 40
3.0
  9
$AUNITS
 70
     1
  9
$AUPREC
 70
     3
  9
$MENU
  1
ACAD
  9
$ELEVATION
 40
0.0
  9
$PELEVATION
 40
0.0
  9
$THICKNESS
 40
50.0
  9
$LIMCHECK
 70
     0
  9
$CHAMFERA
 40
0.0
  9
$CHAMFERB
 40
0.0
  9
$SKPOLY
 70
     0
  9
$TDCREATE
 40
2453019.623010359
  9
$TDUPDATE
 40
2457485.599568299
  9
$TDINDWG
 40
1.6446745139
  9
$TDUSRTIMER
 40
1.6446745139
  9
$USRTIMER
 70
     1
  9
$ANGBASE
 50
0.0
  9
$ANGDIR
 70
     0
  9
$PDMODE
 70
     3
  9
$PDSIZE
 40
-2.0
  9
$PLINEWID
 40
0.0
  9
$COORDS
 70
     1
  9
$SPLFRAME
 70
     0
  9
$SPLINETYPE
 70
     6
  9
$SPLINESEGS
 70
     8
  9
$ATTDIA
 70
     0
  9
$ATTREQ
 70
     1
  9
$HANDLING
 70
     1
  9
$HANDSEED
  5
EA0D
  9
$SURFTAB1
 70
     6
  9
$SURFTAB2
 70
     6
  9
$SURFTYPE
 70
     6
  9
$SURFU
 70
     6
  9
$SURFV
 70
     6
  9
$UCSNAME
  2

  9
$UCSORG
 10
0.0
 20
0.0
 30
0.0
  9
$UCSXDIR
 10
1.0
 20
0.0
 30
0.0
  9
$UCSYDIR
 10
0.0
 20
1.0
 30
0.0
  9
$PUCSNAME
  2

  9
$PUCSORG
 10
0.0
 20
0.0
 30
0.0
  9
$PUCSXDIR
 10
1.0
 20
0.0
 30
0.0
  9
$PUCSYDIR
 10
0.0
 20
1.0
 30
0.0
  9
$USERI1
 70
     0
  9
$USERI2
 70
     0
  9
$USERI3
 70
     0
  9
$USERI4
 70
     0
  9
$USERI5
 70
     0
  9
$USERR1
 40
20.0
  9
$USERR2
 40
0.0
  9
$USERR3
 40
0.0
  9
$USERR4
 40
0.0
  9
$USERR5
 40
0.0
  9
$WORLDVIEW
 70
     1
  9
$SHADEDGE
 70
     3
  9
$SHADEDIF
 70
    70
  9
$TILEMODE
 70
     1
  9
$MAXACTVP
 70
    48
  9
$PLIMCHECK
 70
     0
  9
$PEXTMIN
 10
-1.000000000000000E+20
 20
-1.000000000000000E+20
 30
-1.000000000000000E+20
  9
$PEXTMAX
 10
1.000000000000000E+20
 20
1.000000000000000E+20
 30
1.000000000000000E+20
  9
$PLIMMIN
 10
0.0
 20
0.0
  9
$PLIMMAX
 10
12.0
 20
9.0
  9
$UNITMODE
 70
     0
  9
$VISRETAIN
 70
     0
  9
$PLINEGEN
 70
     0
  9
$PSLTSCALE
 70
     0
  0
ENDSEC
  0
SECTION
  2
TABLES
  0
TABLE
  2
VPORT
 70
     1
  0
VPORT
  2
*ACTIVE
 70
     0
 10
0.0
 20
0.0
 11
1.0
 21
1.0
 12
48.49092
 22
-37.81127
 13
0.0
 23
0.0
 14
1.0
 24
1.0
 15
0.0
 25
0.0
 16
0.0
 26
0.0
 36
1.0
 17
0.0
 27
0.0
 37
0.0
 40
1989.043046
 41
1.629679
 42
50.0
 43
0.0
 44
0.0
 50
0.0
 51
0.0
 71
     0
 72
  1000
 73
     1
 74
     0
 75
     0
 76
     0
 77
     0
 78
     0
  0
ENDTAB
  0
TABLE
  2
LTYPE
 70
     2
  0
LTYPE
  2
CONTINUOUS
 70
     0
  3
実線
 72
    65
 73
     0
 40
0.0
  0
LTYPE
  2
DASHDOT
 70
     0
  3
____ _ ____ _ ____ _ ____ _ ____ _ ____ _ ____
 72
    65
 73
     4
 40
5.5
 49
4.0
 49
-0.6
 49
0.3
 49
-0.6
  0
ENDTAB
  0
TABLE
  2
LAYER
 70
    12
  0
LAYER
  2
0
 70
     0
 62
     7
  6
CONTINUOUS
  0
LAYER
  2
DEFPOINTS
 70
     0
 62
     7
  6
CONTINUOUS
  0
LAYER
  2
ETC
 70
     0
 62
    61
  6
CONTINUOUS
  0
LAYER
  2
DETAIL
 70
     0
 62
     5
  6
CONTINUOUS
  0
LAYER
  2
SIZE
 70
     0
 62
    30
  6
CONTINUOUS
  0
LAYER
  2
BASIS
 70
     0
 62
     6
  6
DASHDOT
  0
LAYER
  2
OUTLINE
 70
     0
 62
     3
  6
CONTINUOUS
  0
LAYER
  2
ARRANGE
 70
     0
 62
     1
  6
CONTINUOUS
  0
LAYER
  2
FIX
 70
     0
 62
    11
  6
CONTINUOUS
  0
LAYER
  2
NOTE
 70
     0
 62
     4
  6
CONTINUOUS
  0
LAYER
  2
SERVICESPACE
 70
     0
 62
     2
  6
DASHDOT
  0
LAYER
  2
SYMBOLLINE
 70
     0
 62
    15
  6
CONTINUOUS
  0
ENDTAB
  0
TABLE
  2
STYLE
 70
     1
  0
STYLE
  2
STANDARD
 70
     0
 40
64.0
 41
0.9
 50
0.0
 71
     0
 42
64.0
  3
SIMPLEX.shx
  4
BIGFONT.shx
  0
ENDTAB
  0
TABLE
  2
VIEW
 70
     1
  0
VIEW
  2
ALL
 70
     0
 40
4282.619808
 10
0.0
 20
41.309904
 41
5940.0
 11
0.0
 21
0.0
 31
1.0
 12
0.0
 22
0.0
 32
0.0
 42
50.0
 43
0.0
 44
0.0
 50
0.0
 71
     0
  0
ENDTAB
  0
TABLE
  2
UCS
 70
     0
  0
ENDTAB
  0
TABLE
  2
APPID
 70
    15
  0
APPID
  2
ACAD
 70
     0
  0
APPID
  2
AUTOCAD_POSTSCRIPT_FIGURE
 70
     0
  0
APPID
  2
ACAD_EXEMPT_FROM_CAD_STAND
 70
     0
  0
APPID
  2
ACAD_PSEXT
 70
     0
  0
APPID
  2
ACAUTHENVIRON
 70
     0
  0
APPID
  2
GENIUS_GENOENT_13
 70
     0
  0
APPID
  2
GENIUS_GENCFG_13
 70
     0
  0
APPID
  2
GENIUS_GENCFG0_13
 70
     0
  0
APPID
  2
GENIUS_GENCFG1_13
 70
     0
  0
APPID
  2
GENIUS_GENCFG2_13
 70
     0
  0
APPID
  2
GENIUS_GENCFG3_13
 70
     0
  0
APPID
  2
GENIUS_GENCFG4_13
 70
     0
  0
APPID
  2
GENIUS_GEVCFG0_13
 70
     0
  0
APPID
  2
CONTENTBLOCKICON
 70
     0
  0
APPID
  2
CONTENTBLOCKDESCRIPTION
 70
     0
  0
ENDTAB
  0
TABLE
  2
DIMSTYLE
 70
     1
  0
DIMSTYLE
  2
STANDARD
 70
     0
  3

  4

  5

  6

  7

 40
1.0
 41
0.18
 42
0.0625
 43
0.38
 44
0.18
 45
0.0
 46
0.0
 47
0.0
 48
0.0
140
0.18
141
0.09
142
0.0
143
25.4
144
1.0
145
0.0
146
1.0
147
0.09
 71
     0
 72
     0
 73
     1
 74
     1
 75
     0
 76
     0
 77
     0
 78
     0
170
     0
171
     2
172
     0
173
     0
174
     0
175
     0
176
     7
177
     7
178
     7
  0
ENDTAB
  0
ENDSEC
  0
SECTION
  2
BLOCKS
  0
BLOCK
  8
0
  2
$MODEL_SPACE
 70
     0
 10
0.0
 20
0.0
 30
0.0
  3
$MODEL_SPACE
  1

  0
ENDBLK
  5
E9E5
  8
0
  0
BLOCK
 67
     1
  8
0
  2
$PAPER_SPACE
 70
     0
 10
0.0
 20
0.0
 30
0.0
  3
$PAPER_SPACE
  1

  0
ENDBLK
  5
E9E7
 67
     1
  8
0
  0
BLOCK
  8
0
  2
DOT1
 70
     0
 10
0.0
 20
0.0
 30
0.0
  3
DOT1
  1

  0
CIRCLE
  5
E867
  8
SIZE
  6
CONTINUOUS
 62
     7
 10
0.0
 20
0.0
 30
0.0
 40
3.0
  0
ENDBLK
  5
E868
  8
0
  0
BLOCK
  8
0
  2
_ORIGIN
 70
     0
 10
0.0
 20
0.0
 30
0.0
  3
_ORIGIN
  1

  0
CIRCLE
  5
E86B
  8
0
  6
CONTINUOUS
 62
     7
 10
0.0
 20
0.0
 30
0.0
 40
0.5
  0
LINE
  5
E86C
  8
0
  6
CONTINUOUS
 62
     7
 10
0.0
 20
0.0
 30
0.0
 11
-1.0
 21
0.0
 31
0.0
  0
ENDBLK
  5
E86D
  8
0
  0
ENDSEC
  0
SECTION
  2
ENTITIES
  0
POINT
  5
E86E
  8
ARRANGE
  6
CONTINUOUS
 62
     1
 10
-0.027391
 20
0.0
 30
0.0
  0
LINE
  5
E86F
  8
OUTLINE
  6
CONTINUOUS
 62
     3
 39
50.0
 10
-235.0
 20
0.0
 30
0.0
 11
235.0
 21
0.0
 31
0.0
  0
LINE
  5
E870
  8
BASIS
  6
DASHDOT
 62
     6
 10
26.459847
 20
162.0
 30
0.0
 11
-243.486853
 21
162.0
 31
0.0
  0
LINE
  5
E871
  8
OUTLINE
  6
CONTINUOUS
 62
     3
 10
193.0
 20
230.0
 30
0.0
 11
-193.0
 21
230.0
 31
0.0
  0
CIRCLE
  5
E872
  8
ARRANGE
  6
CONTINUOUS
 62
     1
 10
0.0
 20
0.0
 30
0.0
 40
40.0
  0
POINT
  5
E873
  8
ARRANGE
  6
CONTINUOUS
 62
     1
 10
0.0
 20
0.0
 30
0.0
  0
LINE
  5
E874
  8
DETAIL
  6
CONTINUOUS
 62
     5
 39
50.0
 10
234.972609
 20
0.0
 30
0.0
 11
-235.027391
 21
0.0
 31
0.0
  0
LINE
  5
E875
  8
DETAIL
  6
CONTINUOUS
 62
     5
 39
50.0
 10
-214.092692
 20
-55.0
 30
0.0
 11
214.037911
 21
-55.0
 31
0.0
  0
LINE
  5
E876
  8
DETAIL
  6
CONTINUOUS
 62
     5
 39
50.0
 10
-222.527391
 20
-37.0
 30
0.0
 11
222.472609
 21
-37.0
 31
0.0
  0
LINE
  5
E877
  8
DETAIL
  6
CONTINUOUS
 62
     5
 39
50.0
 10
-231.211589
 20
-14.0
 30
0.0
 11
231.156808
 21
-14.0
 31
0.0
  0
ARC
  5
E878
  8
DETAIL
  6
CONTINUOUS
 62
     5
 10
-109.712814
 20
162.0
 30
0.0
 40
116.712814
 50
295.032194
 51
64.967806
  0
LINE
  5
E879
  8
DETAIL
  6
CONTINUOUS
 62
     5
 10
8.0
 20
269.5
 30
0.0
 11
-170.5
 21
269.5
 31
0.0
  0
TEXT
  5
E87A
  8
SIZE
  6
CONTINUOUS
 62
    30
 10
-106.9988195714286
 20
-979.191314
 30
0.0
 40
64.0
  1
□470
 41
0.9
 72
     1
 11
-0.027391
 21
-979.191314
 31
0.0
  0
LINE
  5
E87B
  8
SIZE
  6
CONTINUOUS
 62
    30
 10
222.972609
 20
-1004.191314
 30
0.0
 11
-223.027391
 21
-1004.191314
 31
0.0
  0
TEXT
  5
E87C
  8
SIZE
  6
CONTINUOUS
 62
    30
 10
-106.9988195714286
 20
-838.067423
 30
0.0
 40
64.0
  1
□445
 41
0.9
 72
     1
 11
-0.027391
 21
-838.067423
 31
0.0
  0
LINE
  5
E87D
  8
SIZE
  6
CONTINUOUS
 62
    30
 10
-210.527391
 20
-863.067423
 30
0.0
 11
210.472609
 21
-863.067423
 31
0.0
  0
LINE
  5
E87E
  8
DETAIL
  6
CONTINUOUS
 62
     5
 10
81.5
 20
278.0
 30
0.0
 11
-6.5
 21
278.0
 31
0.0
  0
LINE
  5
E87F
  8
SIZE
  6
CONTINUOUS
 62
    30
 10
-11.5
 20
609.110764
 30
0.0
 11
0.5
 21
609.110764
 31
0.0
  0
TEXT
  5
E880
  8
SIZE
  6
CONTINUOUS
 62
    30
 10
-82.28571428571429
 20
868.197861
 30
0.0
 40
64.0
  1
418
 41
0.9
 72
     1
 11
0.0
 21
868.197861
 31
0.0
  0
LINE
  5
E881
  8
SIZE
  6
CONTINUOUS
 62
    30
 10
197.0
 20
850.152881
 30
0.0
 11
-197.0
 21
850.152881
 31
0.0
  0
TEXT
  5
E882
  8
SIZE
  6
CONTINUOUS
 62
    30
 10
-82.28571428571429
 20
-713.009393
 30
0.0
 40
64.0
  1
410
 41
0.9
 72
     1
 11
0.0
 21
-713.009393
 31
0.0
  0
LINE
  5
E883
  8
SIZE
  6
CONTINUOUS
 62
    30
 10
193.0
 20
-741.208114
 30
0.0
 11
-193.0
 21
-741.208114
 31
0.0
  0
TEXT
  5
E884
  8
SIZE
  6
CONTINUOUS
 62
    30
 10
-106.9714285714286
 20
-463.943392
 30
0.0
 40
64.0
  1
□386
 41
0.9
 72
     1
 11
0.0
 21
-463.943392
 31
0.0
  0
LINE
  5
E885
  8
SIZE
  6
CONTINUOUS
 62
    30
 10
-181.0
 20
-488.118152
 30
0.0
 11
181.0
 21
-488.118152
 31
0.0
  0
TEXT
  5
E886
  8
SIZE
  6
CONTINUOUS
 62
    30
 10
-82.28571428571429
 20
-332.63546
 30
0.0
 40
64.0
  1
300
 41
0.9
 72
     1
 11
0.0
 21
-332.63546
 31
0.0
  0
LINE
  5
E887
  8
SIZE
  6
CONTINUOUS
 62
    30
 10
138.0
 20
-358.217798
 30
0.0
 11
-138.0
 21
-358.217798
 31
0.0
  0
LINE
  5
E888
  8
OUTLINE
  6
CONTINUOUS
 62
     3
 10
-193.0
 20
0.0
 30
0.0
 11
-193.0
 21
230.0
 31
0.0
  0
LINE
  5
E889
  8
SIZE
  6
CONTINUOUS
 62
    30
 10
-228.0
 20
141.5
 30
0.0
 11
-228.0
 21
-252.282011
 31
0.0
  0
LINE
  5
E88A
  8
SIZE
  6
CONTINUOUS
 62
    30
 10
-755.315426
 20
0.0
 30
0.0
 11
-755.315426
 21
12.0
 31
0.0
  0
CIRCLE
  5
E88B
  8
SIZE
  6
CONTINUOUS
 62
    30
 10
-755.315426
 20
0.0
 30
0.0
 40
6.0
  0
LINE
  5
E88C
  8
SIZE
  6
CONTINUOUS
 62
    30
 10
-755.315426
 20
0.0
 30
0.0
 11
-755.315426
 21
12.0
 31
0.0
  0
CIRCLE
  5
E88D
  8
SIZE
  6
CONTINUOUS
 62
    30
 10
-755.315426
 20
0.0
 30
0.0
 40
6.0
  0
LINE
  5
E88E
  8
NOTE
  6
CONTINUOUS
 62
     4
 10
-150.0
 20
-20.0
 30
0.0
 11
-150.0
 21
20.0
 31
0.0
  0
CIRCLE
  5
E88F
  8
FIX
  6
CONTINUOUS
 62
    11
 10
-150.0
 20
0.0
 30
0.0
 40
2.5
  0
CIRCLE
  5
E890
  8
FIX
  6
CONTINUOUS
 62
    11
 10
-205.0
 20
0.0
 30
0.0
 40
2.5
  0
LINE
  5
E891
  8
NOTE
  6
CONTINUOUS
 62
     4
 10
-205.0
 20
-20.0
 30
0.0
 11
-205.0
 21
20.0
 31
0.0
  0
LINE
  5
E892
  8
DETAIL
  6
CONTINUOUS
 62
     5
 10
-193.0
 20
0.0
 30
0.0
 11
-193.0
 21
77.833997
 31
0.0
  0
LINE
  5
E893
  8
BASIS
  6
DASHDOT
 62
     6
 10
0.0
 20
-72.855033
 30
0.0
 11
0.0
 21
326.0
 31
0.0
  0
LINE
  5
E894
  8
SIZE
  6
CONTINUOUS
 62
    30
 10
-235.027391
 20
-20.0
 30
0.0
 11
-235.027391
 21
-1024.191314
 31
0.0
  0
LINE
  5
E895
  8
SIZE
  6
CONTINUOUS
 62
    30
 10
-222.527391
 20
-57.0
 30
0.0
 11
-222.527391
 21
-883.067423
 31
0.0
  0
LINE
  5
E896
  8
SIZE
  6
CONTINUOUS
 62
    30
 10
-235.027391
 20
-1004.191314
 30
0.0
 11
-223.027391
 21
-1004.191314
 31
0.0
  0
CIRCLE
  5
E897
  8
SIZE
  6
CONTINUOUS
 62
    30
 10
-235.027391
 20
-1004.191314
 30
0.0
 40
6.0
  0
CIRCLE
  5
E898
  8
SIZE
  6
CONTINUOUS
 62
    30
 10
-222.527391
 20
-863.067423
 30
0.0
 40
6.0
  0
LINE
  5
E899
  8
SIZE
  6
CONTINUOUS
 62
    30
 10
-222.527391
 20
-863.067423
 30
0.0
 11
-210.527391
 21
-863.067423
 31
0.0
  0
LINE
  5
E89A
  8
SIZE
  6
CONTINUOUS
 62
    30
 10
-234.092692
 20
-55.0
 30
0.0
 11
-775.315426
 21
-55.0
 31
0.0
  0
LINE
  5
E89B
  8
SIZE
  6
CONTINUOUS
 62
    30
 10
-755.315426
 20
-22.5
 30
0.0
 11
-755.315426
 21
-241.24043
 31
0.0
  0
TEXT
  5
E89C
  8
SIZE
  6
CONTINUOUS
 62
    30
 10
-780.2734009999999
 20
-203.0842428571429
 30
0.0
 40
64.0
  1
55
 50
90.0
 41
0.9
 72
     1
 11
-780.2734009999999
 21
-148.2271
 31
0.0
  0
CIRCLE
  5
E89D
  8
SIZE
  6
CONTINUOUS
 62
    30
 10
-755.315426
 20
-55.0
 30
0.0
 40
6.0
  0
LINE
  5
E89E
  8
SIZE
  6
CONTINUOUS
 62
    30
 10
-755.315426
 20
-55.0
 30
0.0
 11
-755.315426
 21
-67.0
 31
0.0
  0
LINE
  5
E89F
  8
SIZE
  6
CONTINUOUS
 62
    30
 10
-755.315426
 20
0.0
 30
0.0
 11
-755.315426
 21
-55.0
 31
0.0
  0
LINE
  5
E8A0
  8
SIZE
  6
CONTINUOUS
 62
    30
 10
-755.315426
 20
0.0
 30
0.0
 11
-755.315426
 21
-55.0
 31
0.0
  0
LINE
  5
E8A1
  8
SIZE
  6
CONTINUOUS
 62
    30
 10
-755.315426
 20
-67.0
 30
0.0
 11
-755.315426
 21
-79.0
 31
0.0
  0
LINE
  5
E8A2
  8
SIZE
  6
CONTINUOUS
 62
    30
 10
-205.0
 20
-40.0
 30
0.0
 11
-205.0
 21
-761.208114
 31
0.0
  0
LINE
  5
E8A3
  8
SIZE
  6
CONTINUOUS
 62
    30
 10
-193.0
 20
-20.0
 30
0.0
 11
-193.0
 21
-508.118152
 31
0.0
  0
LINE
  5
E8A4
  8
SIZE
  6
CONTINUOUS
 62
    30
 10
-150.0
 20
-40.0
 30
0.0
 11
-150.0
 21
-378.217798
 31
0.0
  0
CIRCLE
  5
E8A5
  8
SIZE
  6
CONTINUOUS
 62
    30
 10
-193.0
 20
-488.118152
 30
0.0
 40
6.0
  0
LINE
  5
E8A6
  8
SIZE
  6
CONTINUOUS
 62
    30
 10
-205.0
 20
-741.208114
 30
0.0
 11
-193.0
 21
-741.208114
 31
0.0
  0
CIRCLE
  5
E8A7
  8
SIZE
  6
CONTINUOUS
 62
    30
 10
-205.0
 20
-741.208114
 30
0.0
 40
6.0
  0
LINE
  5
E8A8
  8
SIZE
  6
CONTINUOUS
 62
    30
 10
-193.0
 20
-488.118152
 30
0.0
 11
-181.0
 21
-488.118152
 31
0.0
  0
LINE
  5
E8A9
  8
SIZE
  6
CONTINUOUS
 62
    30
 10
-150.0
 20
-358.217798
 30
0.0
 11
-138.0
 21
-358.217798
 31
0.0
  0
CIRCLE
  5
E8AA
  8
SIZE
  6
CONTINUOUS
 62
    30
 10
-150.0
 20
-358.217798
 30
0.0
 40
6.0
  0
ARC
  5
E8AB
  8
DETAIL
  6
CONTINUOUS
 62
     5
 10
-231.211589
 20
-11.0
 30
0.0
 40
3.0
 50
187.5
 51
270.0
  0
LINE
  5
E8AC
  8
SIZE
  6
CONTINUOUS
 62
    30
 10
-228.0
 20
-232.282011
 30
0.0
 11
-240.0
 21
-232.282011
 31
0.0
  0
CIRCLE
  5
E8AD
  8
SIZE
  6
CONTINUOUS
 62
    30
 10
-228.0
 20
-232.282011
 30
0.0
 40
6.0
  0
LINE
  5
E8AE
  8
SIZE
  6
CONTINUOUS
 62
    30
 10
-410.643466
 20
-232.282011
 30
0.0
 11
-228.0
 21
-232.282011
 31
0.0
  0
TEXT
  5
E8AF
  8
SIZE
  6
CONTINUOUS
 62
    30
 10
-393.8720378571429
 20
-207.282011
 30
0.0
 40
64.0
  1
35
 41
0.9
 72
     1
 11
-339.014895
 21
-207.282011
 31
0.0
  0
LINE
  5
E8B0
  8
SIZE
  6
CONTINUOUS
 62
    30
 10
-240.0
 20
-232.282011
 30
0.0
 11
-252.0
 21
-232.282011
 31
0.0
  0
LINE
  5
E8B1
  8
DETAIL
  6
CONTINUOUS
 62
     5
 10
-235.027391
 20
-1.0
 30
0.0
 11
-234.185923
 21
-11.391579
 31
0.0
  0
LINE
  5
E8B2
  8
DETAIL
  6
CONTINUOUS
 62
     5
 10
-235.027391
 20
0.0
 30
0.0
 11
-235.027391
 21
-1.0
 31
0.0
  0
LINE
  5
E8B3
  8
SIZE
  6
CONTINUOUS
 62
    30
 10
-193.0
 20
-20.0
 30
0.0
 11
-193.0
 21
-252.282011
 31
0.0
  0
LINE
  5
E8B4
  8
SIZE
  6
CONTINUOUS
 62
    30
 10
-193.0
 20
-20.0
 30
0.0
 11
-193.0
 21
-252.282011
 31
0.0
  0
LINE
  5
E8B5
  8
SIZE
  6
CONTINUOUS
 62
    30
 10
-193.0
 20
-232.282011
 30
0.0
 11
-181.0
 21
-232.282011
 31
0.0
  0
CIRCLE
  5
E8B6
  8
SIZE
  6
CONTINUOUS
 62
    30
 10
-193.0
 20
-232.282011
 30
0.0
 40
6.0
  0
LINE
  5
E8B7
  8
SIZE
  6
CONTINUOUS
 62
    30
 10
-193.0
 20
-232.282011
 30
0.0
 11
-228.0
 21
-232.282011
 31
0.0
  0
LINE
  5
E8B8
  8
SIZE
  6
CONTINUOUS
 62
    30
 10
-193.0
 20
-232.282011
 30
0.0
 11
-228.0
 21
-232.282011
 31
0.0
  0
LINE
  5
E8B9
  8
SIZE
  6
CONTINUOUS
 62
    30
 10
-193.0
 20
-232.282011
 30
0.0
 11
-181.0
 21
-232.282011
 31
0.0
  0
LINE
  5
E8BA
  8
DETAIL
  6
CONTINUOUS
 62
     5
 10
-222.527391
 20
-37.0
 30
0.0
 11
-222.527391
 21
-38.0
 31
0.0
  0
LINE
  5
E8BB
  8
DETAIL
  6
CONTINUOUS
 62
     5
 10
-221.551607
 20
-48.283963
 30
0.0
 11
-222.5
 21
-39.260603
 31
0.0
  0
LINE
  5
E8BC
  8
DETAIL
  6
CONTINUOUS
 62
     5
 10
-222.527391
 20
-37.0
 30
0.0
 11
-222.527391
 21
-38.737961
 31
0.0
  0
ARC
  5
E8BD
  8
DETAIL
  6
CONTINUOUS
 62
     5
 10
-217.527391
 20
-38.737961
 30
0.0
 40
5.0
 50
180.0
 51
186.0
  0
LINE
  5
E8BE
  8
DETAIL
  6
CONTINUOUS
 62
     5
 10
-222.527391
 20
-38.737961
 30
0.0
 11
-222.527391
 21
-39.0
 31
0.0
  0
LINE
  5
E8BF
  8
DETAIL
  6
CONTINUOUS
 62
     5
 10
-222.5
 20
-39.260603
 30
0.0
 11
-222.527391
 21
-39.0
 31
0.0
  0
ARC
  5
E8C0
  8
DETAIL
  6
CONTINUOUS
 62
     5
 10
-214.092692
 20
-47.5
 30
0.0
 40
7.5
 50
185.9999999999999
 51
270.0
  0
ARC
  5
E8C1
  8
DETAIL
  6
CONTINUOUS
 62
     5
 10
-214.092692
 20
-47.5
 30
0.0
 40
7.5
 50
185.9999999999999
 51
270.0
  0
LINE
  5
E8C2
  8
DETAIL
  6
CONTINUOUS
 62
     5
 10
-222.5
 20
-39.260603
 30
0.0
 11
-222.527391
 21
-39.0
 31
0.0
  0
LINE
  5
E8C3
  8
DETAIL
  6
CONTINUOUS
 62
     5
 10
-222.527391
 20
-38.737961
 30
0.0
 11
-222.527391
 21
-39.0
 31
0.0
  0
ARC
  5
E8C4
  8
DETAIL
  6
CONTINUOUS
 62
     5
 10
-217.527391
 20
-38.737961
 30
0.0
 40
5.0
 50
180.0
 51
186.0
  0
LINE
  5
E8C5
  8
DETAIL
  6
CONTINUOUS
 62
     5
 10
-222.527391
 20
-37.0
 30
0.0
 11
-222.527391
 21
-38.737961
 31
0.0
  0
LINE
  5
E8C6
  8
DETAIL
  6
CONTINUOUS
 62
     5
 10
-221.551607
 20
-48.283963
 30
0.0
 11
-222.5
 21
-39.260603
 31
0.0
  0
LINE
  5
E8C7
  8
DETAIL
  6
CONTINUOUS
 62
     5
 10
-222.527391
 20
-37.0
 30
0.0
 11
-222.527391
 21
-38.0
 31
0.0
  0
LINE
  5
E8C8
  8
DETAIL
  6
CONTINUOUS
 62
     5
 10
-191.527391
 20
-37.0
 30
0.0
 11
-191.527391
 21
-14.0
 31
0.0
  0
LINE
  5
E8C9
  8
DETAIL
  6
CONTINUOUS
 62
     5
 10
-190.527391
 20
-37.0
 30
0.0
 11
-190.527391
 21
-14.0
 31
0.0
  0
LINE
  5
E8CA
  8
NOTE
  6
CONTINUOUS
 62
     4
 10
-185.0
 20
0.0
 30
0.0
 11
-225.0
 21
0.0
 31
0.0
  0
LINE
  5
E8CB
  8
NOTE
  6
CONTINUOUS
 62
     4
 10
-130.0
 20
0.0
 30
0.0
 11
-170.0
 21
0.0
 31
0.0
  0
CIRCLE
  5
E8CC
  8
FIX
  6
CONTINUOUS
 62
    11
 39
50.0
 10
-209.0
 20
237.0
 30
0.0
 40
6.0
  0
LINE
  5
E8CD
  8
NOTE
  6
CONTINUOUS
 62
     4
 10
-1108.892291
 20
494.308701
 30
0.0
 11
-435.650094
 21
494.308701
 31
0.0
  0
TEXT
  5
E8CE
  8
NOTE
  6
CONTINUOUS
 62
     4
 10
-1078.092291
 20
532.399535
 30
0.0
 40
64.0
  1
AH 4-φ12×52
 41
0.9
  0
LINE
  5
E8CF
  8
SIZE
  6
CONTINUOUS
 62
    30
 10
-209.0
 20
274.5
 30
0.0
 11
-209.0
 21
870.152881
 31
0.0
  0
LINE
  5
E8D0
  8
SIZE
  6
CONTINUOUS
 62
    30
 10
-26.5
 20
278.0
 30
0.0
 11
-775.315426
 21
278.0
 31
0.0
  0
TEXT
  5
E8D1
  8
SIZE
  6
CONTINUOUS
 62
    30
 10
-788.4135709999999
 20
60.77928071428572
 30
0.0
 40
64.0
  1
278
 50
90.0
 41
0.9
 72
     1
 11
-788.4135709999999
 21
143.064995
 31
0.0
  0
LINE
  5
E8D2
  8
SIZE
  6
CONTINUOUS
 62
    30
 10
-755.315426
 20
12.0
 30
0.0
 11
-755.315426
 21
266.0
 31
0.0
  0
LINE
  5
E8D3
  8
SIZE
  6
CONTINUOUS
 62
    30
 10
-755.315426
 20
12.0
 30
0.0
 11
-755.315426
 21
24.0
 31
0.0
  0
CIRCLE
  5
E8D4
  8
SIZE
  6
CONTINUOUS
 62
    30
 10
-755.315426
 20
278.0
 30
0.0
 40
6.0
  0
LINE
  5
E8D5
  8
SIZE
  6
CONTINUOUS
 62
    30
 10
-755.315426
 20
278.0
 30
0.0
 11
-755.315426
 21
266.0
 31
0.0
  0
LINE
  5
E8D6
  8
SIZE
  6
CONTINUOUS
 62
    30
 10
-11.5
 20
292.940014
 30
0.0
 11
-11.5
 21
629.110764
 31
0.0
  0
LINE
  5
E8D7
  8
NOTE
  6
CONTINUOUS
 62
     4
 10
-209.0
 20
237.0
 30
0.0
 11
-435.650094
 21
494.308701
 31
0.0
  0
LINE
  5
E8D8
  8
NOTE
  6
CONTINUOUS
 62
     4
 10
-242.701745
 20
259.545125
 30
0.0
 11
-209.0
 21
237.0
 31
0.0
  0
LINE
  5
E8D9
  8
DETAIL
  6
CONTINUOUS
 62
     5
 10
-33.5
 20
203.0
 30
0.0
 11
-40.743615
 21
101.370961
 31
0.0
  0
ARC
  5
E8DA
  8
DETAIL
  6
CONTINUOUS
 62
     5
 10
-164.791088
 20
163.263293
 30
0.0
 40
140.046786
 50
335.88629
 51
15.54883499999999
  0
LINE
  5
E8DB
  8
DETAIL
  6
CONTINUOUS
 62
     5
 10
-188.5
 20
203.0
 30
0.0
 11
-181.256385
 21
101.370961
 31
0.0
  0
LINE
  5
E8DC
  8
DETAIL
  6
CONTINUOUS
 62
     5
 10
-188.5
 20
203.0
 30
0.0
 11
-181.256385
 21
101.370961
 31
0.0
  0
ARC
  5
E8DD
  8
DETAIL
  6
CONTINUOUS
 62
     5
 10
-57.208912
 20
163.263293
 30
0.0
 40
140.046786
 50
164.451165
 51
204.11371
  0
ARC
  5
E8DE
  8
DETAIL
  6
CONTINUOUS
 62
     5
 10
-111.287186
 20
162.0
 30
0.0
 40
116.712814
 50
115.032194
 51
244.967806
  0
CIRCLE
  5
E8DF
  8
DETAIL
  6
CONTINUOUS
 62
     5
 10
-111.0
 20
162.0
 30
0.0
 40
104.0
  0
CIRCLE
  5
E8E0
  8
DETAIL
  6
CONTINUOUS
 62
     5
 10
-111.0
 20
162.0
 30
0.0
 40
96.0
  0
LINE
  5
E8E1
  8
BASIS
  6
DASHDOT
 62
     6
 10
-111.0
 20
25.15721
 30
0.0
 11
-111.0
 21
298.086435
 31
0.0
  0
TEXT
  5
E8E2
  8
NOTE
  6
CONTINUOUS
 62
     4
 10
-155.581826
 20
117.483867
 30
0.0
 40
64.0
  1
EA
 41
0.9
  0
LINE
  5
E8E3
  8
DETAIL
  6
CONTINUOUS
 62
     5
 10
-60.328419
 20
56.25
 30
0.0
 11
-160.671581
 21
56.25
 31
0.0
  0
LINE
  5
E8E4
  8
DETAIL
  6
CONTINUOUS
 62
     5
 10
-198.25
 20
83.357902
 30
0.0
 11
-198.25
 21
37.0
 31
0.0
  0
LINE
  5
E8E5
  8
DETAIL
  6
CONTINUOUS
 62
     5
 10
-198.25
 20
37.0
 30
0.0
 11
-193.0
 21
37.0
 31
0.0
  0
LINE
  5
E8E6
  8
DETAIL
  6
CONTINUOUS
 62
     5
 10
-194.75
 20
79.596474
 30
0.0
 11
-194.75
 21
37.0
 31
0.0
  0
LINE
  5
E8E7
  8
DETAIL
  6
CONTINUOUS
 62
     5
 10
-60.328419
 20
267.75
 30
0.0
 11
-160.671581
 21
267.75
 31
0.0
  0
LINE
  5
E8E8
  8
NOTE
  6
CONTINUOUS
 62
     4
 10
-209.0
 20
218.0
 30
0.0
 11
-209.0
 21
258.0
 31
0.0
  0
LINE
  5
E8E9
  8
NOTE
  6
CONTINUOUS
 62
     4
 10
-209.0
 20
237.0
 30
0.0
 11
-227.414004
 21
273.509498
 31
0.0
  0
LINE
  5
E8EA
  8
DETAIL
  6
CONTINUOUS
 62
     5
 10
-225.25
 20
233.5
 30
0.0
 11
-203.534847
 21
233.5
 31
0.0
  0
LINE
  5
E8EB
  8
DETAIL
  6
CONTINUOUS
 62
     5
 10
-225.25
 20
237.0
 30
0.0
 11
-199.685201
 21
237.0
 31
0.0
  0
LINE
  5
E8EC
  8
DETAIL
  6
CONTINUOUS
 62
     5
 10
-225.25
 20
237.0
 30
0.0
 11
-225.25
 21
233.5
 31
0.0
  0
LINE
  5
E8ED
  8
DETAIL
  6
CONTINUOUS
 62
     5
 10
-180.0
 20
219.0
 30
0.0
 11
-180.0
 21
224.055137
 31
0.0
  0
LINE
  5
E8EE
  8
DETAIL
  6
CONTINUOUS
 62
     5
 10
-184.591756
 20
218.534003
 30
0.0
 11
-183.0
 21
217.673077
 31
0.0
  0
LINE
  5
E8EF
  8
DETAIL
  6
CONTINUOUS
 62
     5
 10
-180.0
 20
219.0
 30
0.0
 11
-181.0
 21
219.0
 31
0.0
  0
LINE
  5
E8F0
  8
DETAIL
  6
CONTINUOUS
 62
     5
 10
-181.0
 20
217.673077
 30
0.0
 11
-183.0
 21
217.673077
 31
0.0
  0
ARC
  5
E8F1
  8
DETAIL
  6
CONTINUOUS
 62
     5
 10
-180.0
 20
204.0
 30
0.0
 40
1.0
 50
270.0
 51
90.0
  0
ARC
  5
E8F2
  8
DETAIL
  6
CONTINUOUS
 62
     5
 10
-189.240105
 20
200.0
 30
0.0
 40
3.0
 50
90.0
 51
164.4511649999998
  0
LINE
  5
E8F3
  8
DETAIL
  6
CONTINUOUS
 62
     5
 10
-180.0
 20
203.0
 30
0.0
 11
-189.240105
 21
203.0
 31
0.0
  0
LINE
  5
E8F4
  8
DETAIL
  6
CONTINUOUS
 62
     5
 10
-181.0
 20
205.0
 30
0.0
 11
-180.0
 21
205.0
 31
0.0
  0
LINE
  5
E8F5
  8
DETAIL
  6
CONTINUOUS
 62
     5
 10
-183.0
 20
206.326923
 30
0.0
 11
-189.151111
 21
203.0
 31
0.0
  0
LINE
  5
E8F6
  8
DETAIL
  6
CONTINUOUS
 62
     5
 10
-181.0
 20
206.326923
 30
0.0
 11
-183.0
 21
206.326923
 31
0.0
  0
LINE
  5
E8F7
  8
DETAIL
  6
CONTINUOUS
 62
     5
 10
-181.0
 20
205.0
 30
0.0
 11
-181.0
 21
219.0
 31
0.0
  0
LINE
  5
E8F8
  8
DETAIL
  6
CONTINUOUS
 62
     5
 10
-183.0
 20
206.326923
 30
0.0
 11
-183.0
 21
217.673077
 31
0.0
  0
LINE
  5
E8F9
  8
NOTE
  6
CONTINUOUS
 62
     4
 10
-189.0
 20
237.0
 30
0.0
 11
-229.0
 21
237.0
 31
0.0
  0
LINE
  5
E8FA
  8
DETAIL
  6
CONTINUOUS
 62
     5
 10
-170.5
 20
262.525987
 30
0.0
 11
-170.5
 21
269.5
 31
0.0
  0
LINE
  5
E8FB
  8
DETAIL
  6
CONTINUOUS
 62
     5
 10
-42.0
 20
219.0
 30
0.0
 11
-41.0
 21
219.0
 31
0.0
  0
LINE
  5
E8FC
  8
DETAIL
  6
CONTINUOUS
 62
     5
 10
-42.0
 20
219.0
 30
0.0
 11
-42.0
 21
224.055137
 31
0.0
  0
LINE
  5
E8FD
  8
DETAIL
  6
CONTINUOUS
 62
     5
 10
-39.0
 20
217.673077
 30
0.0
 11
-37.408244
 21
218.534003
 31
0.0
  0
LINE
  5
E8FE
  8
DETAIL
  6
CONTINUOUS
 62
     5
 10
-41.0
 20
217.673077
 30
0.0
 11
-39.0
 21
217.673077
 31
0.0
  0
LINE
  5
E8FF
  8
DETAIL
  6
CONTINUOUS
 62
     5
 10
-42.0
 20
203.0
 30
0.0
 11
-32.759895
 21
203.0
 31
0.0
  0
LINE
  5
E900
  8
DETAIL
  6
CONTINUOUS
 62
     5
 10
-41.0
 20
205.0
 30
0.0
 11
-42.0
 21
205.0
 31
0.0
  0
ARC
  5
E901
  8
DETAIL
  6
CONTINUOUS
 62
     5
 10
-42.0
 20
204.0
 30
0.0
 40
1.0
 50
90.0
 51
270.0
  0
LINE
  5
E902
  8
DETAIL
  6
CONTINUOUS
 62
     5
 10
-39.0
 20
206.326923
 30
0.0
 11
-32.848889
 21
203.0
 31
0.0
  0
LINE
  5
E903
  8
DETAIL
  6
CONTINUOUS
 62
     5
 10
-41.0
 20
206.326923
 30
0.0
 11
-39.0
 21
206.326923
 31
0.0
  0
ARC
  5
E904
  8
DETAIL
  6
CONTINUOUS
 62
     5
 10
-32.759895
 20
200.0
 30
0.0
 40
3.0
 50
15.54883500000018
 51
90.0
  0
LINE
  5
E905
  8
DETAIL
  6
CONTINUOUS
 62
     5
 10
-41.0
 20
205.0
 30
0.0
 11
-41.0
 21
219.0
 31
0.0
  0
LINE
  5
E906
  8
DETAIL
  6
CONTINUOUS
 62
     5
 10
-39.0
 20
206.326923
 30
0.0
 11
-39.0
 21
217.673077
 31
0.0
  0
ARC
  5
E907
  8
DETAIL
  6
CONTINUOUS
 62
     5
 10
-6.5
 20
273.0
 30
0.0
 40
5.0
 50
90.0
 51
180.0
  0
LINE
  5
E908
  8
DETAIL
  6
CONTINUOUS
 62
     5
 10
-11.5
 20
269.5
 30
0.0
 11
-11.5
 21
273.0
 31
0.0
  0
CIRCLE
  5
E909
  8
SIZE
  6
CONTINUOUS
 62
    30
 10
-11.5
 20
609.110764
 30
0.0
 40
6.0
  0
LINE
  5
E90A
  8
SIZE
  6
CONTINUOUS
 62
    30
 10
-209.0
 20
850.152881
 30
0.0
 11
-197.0
 21
850.152881
 31
0.0
  0
CIRCLE
  5
E90B
  8
SIZE
  6
CONTINUOUS
 62
    30
 10
-209.0
 20
850.152881
 30
0.0
 40
6.0
  0
LINE
  5
E90C
  8
OUTLINE
  6
CONTINUOUS
 62
     3
 10
193.0
 20
0.0
 30
0.0
 11
193.0
 21
230.0
 31
0.0
  0
LINE
  5
E90D
  8
DETAIL
  6
CONTINUOUS
 62
     5
 10
8.0
 20
0.0
 30
0.0
 11
8.0
 21
269.5
 31
0.0
  0
LINE
  5
E90E
  8
NOTE
  6
CONTINUOUS
 62
     4
 10
205.0
 20
-20.0
 30
0.0
 11
205.0
 21
20.0
 31
0.0
  0
LINE
  5
E90F
  8
NOTE
  6
CONTINUOUS
 62
     4
 10
150.0
 20
-20.0
 30
0.0
 11
150.0
 21
20.0
 31
0.0
  0
CIRCLE
  5
E910
  8
FIX
  6
CONTINUOUS
 62
    11
 10
150.0
 20
0.0
 30
0.0
 40
2.5
  0
CIRCLE
  5
E911
  8
FIX
  6
CONTINUOUS
 62
    11
 10
205.0
 20
0.0
 30
0.0
 40
2.5
  0
LINE
  5
E912
  8
DETAIL
  6
CONTINUOUS
 62
     5
 10
193.0
 20
0.0
 30
0.0
 11
193.0
 21
237.0
 31
0.0
  0
LINE
  5
E913
  8
NOTE
  6
CONTINUOUS
 62
     4
 39
50.0
 10
205.0
 20
0.0
 30
0.0
 11
354.637194
 21
-367.605379
 31
0.0
  0
LINE
  5
E914
  8
SIZE
  6
CONTINUOUS
 62
    30
 10
234.972609
 20
-20.0
 30
0.0
 11
234.972609
 21
-1024.191314
 31
0.0
  0
LINE
  5
E915
  8
SIZE
  6
CONTINUOUS
 62
    30
 10
222.472609
 20
-57.0
 30
0.0
 11
222.472609
 21
-883.067423
 31
0.0
  0
LINE
  5
E916
  8
SIZE
  6
CONTINUOUS
 62
    30
 10
234.972609
 20
-1004.191314
 30
0.0
 11
222.972609
 21
-1004.191314
 31
0.0
  0
CIRCLE
  5
E917
  8
SIZE
  6
CONTINUOUS
 62
    30
 10
234.972609
 20
-1004.191314
 30
0.0
 40
6.0
  0
CIRCLE
  5
E918
  8
SIZE
  6
CONTINUOUS
 62
    30
 10
222.472609
 20
-863.067423
 30
0.0
 40
6.0
  0
LINE
  5
E919
  8
SIZE
  6
CONTINUOUS
 62
    30
 10
222.472609
 20
-863.067423
 30
0.0
 11
210.472609
 21
-863.067423
 31
0.0
  0
LINE
  5
E91A
  8
SIZE
  6
CONTINUOUS
 62
    30
 10
255.0
 20
0.0
 30
0.0
 11
401.550415
 21
0.0
 31
0.0
  0
LINE
  5
E91B
  8
NOTE
  6
CONTINUOUS
 62
     4
 10
745.007062
 20
-367.605379
 30
0.0
 11
354.637194
 21
-367.605379
 31
0.0
  0
TEXT
  5
E91C
  8
NOTE
  6
CONTINUOUS
 62
     4
 10
378.3006
 20
-334.641109
 30
0.0
 40
64.0
  1
8-φ5×8
 41
0.9
  0
LINE
  5
E91D
  8
SIZE
  6
CONTINUOUS
 62
    30
 10
205.0
 20
-40.0
 30
0.0
 11
205.0
 21
-761.208114
 31
0.0
  0
LINE
  5
E91E
  8
SIZE
  6
CONTINUOUS
 62
    30
 10
193.0
 20
-20.0
 30
0.0
 11
193.0
 21
-508.118152
 31
0.0
  0
LINE
  5
E91F
  8
SIZE
  6
CONTINUOUS
 62
    30
 10
150.0
 20
-40.0
 30
0.0
 11
150.0
 21
-378.217798
 31
0.0
  0
CIRCLE
  5
E920
  8
SIZE
  6
CONTINUOUS
 62
    30
 10
193.0
 20
-488.118152
 30
0.0
 40
6.0
  0
LINE
  5
E921
  8
SIZE
  6
CONTINUOUS
 62
    30
 10
205.0
 20
-741.208114
 30
0.0
 11
193.0
 21
-741.208114
 31
0.0
  0
CIRCLE
  5
E922
  8
SIZE
  6
CONTINUOUS
 62
    30
 10
205.0
 20
-741.208114
 30
0.0
 40
6.0
  0
LINE
  5
E923
  8
SIZE
  6
CONTINUOUS
 62
    30
 10
193.0
 20
-488.118152
 30
0.0
 11
181.0
 21
-488.118152
 31
0.0
  0
LINE
  5
E924
  8
SIZE
  6
CONTINUOUS
 62
    30
 10
150.0
 20
-358.217798
 30
0.0
 11
138.0
 21
-358.217798
 31
0.0
  0
CIRCLE
  5
E925
  8
SIZE
  6
CONTINUOUS
 62
    30
 10
150.0
 20
-358.217798
 30
0.0
 40
6.0
  0
ARC
  5
E926
  8
DETAIL
  6
CONTINUOUS
 62
     5
 10
231.156808
 20
-11.0
 30
0.0
 40
3.0
 50
270.0
 51
352.5000000000001
  0
LINE
  5
E927
  8
NOTE
  6
CONTINUOUS
 62
     4
 10
130.0
 20
0.0
 30
0.0
 11
170.0
 21
0.0
 31
0.0
  0
LINE
  5
E928
  8
NOTE
  6
CONTINUOUS
 62
     4
 10
205.0
 20
0.0
 30
0.0
 11
210.505298
 21
-39.619335
 31
0.0
  0
LINE
  5
E929
  8
NOTE
  6
CONTINUOUS
 62
     4
 10
229.577395
 20
-31.558702
 30
0.0
 11
205.0
 21
0.0
 31
0.0
  0
LINE
  5
E92A
  8
DETAIL
  6
CONTINUOUS
 62
     5
 10
222.445219
 20
-39.260603
 30
0.0
 11
222.472609
 21
-39.0
 31
0.0
  0
LINE
  5
E92B
  8
DETAIL
  6
CONTINUOUS
 62
     5
 10
222.472609
 20
-38.737961
 30
0.0
 11
222.472609
 21
-39.0
 31
0.0
  0
ARC
  5
E92C
  8
DETAIL
  6
CONTINUOUS
 62
     5
 10
217.472609
 20
-38.737961
 30
0.0
 40
5.0
 50
354.0
 51
0.0
  0
LINE
  5
E92D
  8
DETAIL
  6
CONTINUOUS
 62
     5
 10
222.472609
 20
-37.0
 30
0.0
 11
222.472609
 21
-38.737961
 31
0.0
  0
LINE
  5
E92E
  8
DETAIL
  6
CONTINUOUS
 62
     5
 10
221.496826
 20
-48.283963
 30
0.0
 11
222.445219
 21
-39.260603
 31
0.0
  0
LINE
  5
E92F
  8
DETAIL
  6
CONTINUOUS
 62
     5
 10
222.472609
 20
-37.0
 30
0.0
 11
222.472609
 21
-38.0
 31
0.0
  0
LINE
  5
E930
  8
DETAIL
  6
CONTINUOUS
 62
     5
 10
222.472609
 20
-37.0
 30
0.0
 11
222.472609
 21
-38.0
 31
0.0
  0
LINE
  5
E931
  8
DETAIL
  6
CONTINUOUS
 62
     5
 10
221.496826
 20
-48.283963
 30
0.0
 11
222.445219
 21
-39.260603
 31
0.0
  0
LINE
  5
E932
  8
DETAIL
  6
CONTINUOUS
 62
     5
 10
222.472609
 20
-37.0
 30
0.0
 11
222.472609
 21
-38.737961
 31
0.0
  0
ARC
  5
E933
  8
DETAIL
  6
CONTINUOUS
 62
     5
 10
217.472609
 20
-38.737961
 30
0.0
 40
5.0
 50
354.0
 51
0.0
  0
LINE
  5
E934
  8
DETAIL
  6
CONTINUOUS
 62
     5
 10
222.472609
 20
-38.737961
 30
0.0
 11
222.472609
 21
-39.0
 31
0.0
  0
LINE
  5
E935
  8
DETAIL
  6
CONTINUOUS
 62
     5
 10
222.445219
 20
-39.260603
 30
0.0
 11
222.472609
 21
-39.0
 31
0.0
  0
LINE
  5
E936
  8
DETAIL
  6
CONTINUOUS
 62
     5
 10
191.472609
 20
-37.0
 30
0.0
 11
191.472609
 21
-14.0
 31
0.0
  0
LINE
  5
E937
  8
DETAIL
  6
CONTINUOUS
 62
     5
 10
190.472609
 20
-37.0
 30
0.0
 11
190.472609
 21
-14.0
 31
0.0
  0
ARC
  5
E938
  8
DETAIL
  6
CONTINUOUS
 62
     5
 10
214.037911
 20
-47.5
 30
0.0
 40
7.5
 50
270.0
 51
354.0
  0
ARC
  5
E939
  8
DETAIL
  6
CONTINUOUS
 62
     5
 10
214.037911
 20
-47.5
 30
0.0
 40
7.5
 50
270.0
 51
354.0
  0
LINE
  5
E93A
  8
NOTE
  6
CONTINUOUS
 62
     4
 10
185.0
 20
0.0
 30
0.0
 11
225.0
 21
0.0
 31
0.0
  0
LINE
  5
E93B
  8
DETAIL
  6
CONTINUOUS
 62
     5
 10
234.972609
 20
-1.0
 30
0.0
 11
234.131142
 21
-11.391579
 31
0.0
  0
LINE
  5
E93C
  8
DETAIL
  6
CONTINUOUS
 62
     5
 10
234.972609
 20
0.0
 30
0.0
 11
234.972609
 21
-1.0
 31
0.0
  0
CIRCLE
  5
E93D
  8
FIX
  6
CONTINUOUS
 62
    11
 39
50.0
 10
209.0
 20
237.0
 30
0.0
 40
6.0
  0
TEXT
  5
E93E
  8
SIZE
  6
CONTINUOUS
 62
    30
 10
215.3434198571428
 20
634.110764
 30
0.0
 40
64.0
  1
φ98
 41
0.9
 72
     1
 11
294.886277
 21
634.110764
 31
0.0
  0
LINE
  5
E93F
  8
SIZE
  6
CONTINUOUS
 62
    30
 10
209.0
 20
274.5
 30
0.0
 11
209.0
 21
870.152881
 31
0.0
  0
TEXT
  5
E940
  8
NOTE
  6
CONTINUOUS
 62
     4
 10
301.610243
 20
362.903788
 30
0.0
 40
64.0
  1
EL
 41
0.9
  0
LINE
  5
E941
  8
NOTE
  6
CONTINUOUS
 62
     4
 10
277.386829
 20
335.950102
 30
0.0
 11
393.25438
 21
335.950102
 31
0.0
  0
LINE
  5
E942
  8
SIZE
  6
CONTINUOUS
 62
    30
 10
86.5
 20
292.940014
 30
0.0
 11
86.5
 21
629.110764
 31
0.0
  0
LINE
  5
E943
  8
NOTE
  6
CONTINUOUS
 62
     4
 10
169.0
 20
230.0
 30
0.0
 11
277.386829
 21
335.950102
 31
0.0
  0
LINE
  5
E944
  8
DETAIL
  6
CONTINUOUS
 62
     5
 10
194.75
 20
237.0
 30
0.0
 11
194.75
 21
37.0
 31
0.0
  0
LINE
  5
E945
  8
DETAIL
  6
CONTINUOUS
 62
     5
 10
198.25
 20
233.5
 30
0.0
 11
198.25
 21
37.0
 31
0.0
  0
LINE
  5
E946
  8
DETAIL
  6
CONTINUOUS
 62
     5
 10
198.25
 20
37.0
 30
0.0
 11
193.0
 21
37.0
 31
0.0
  0
LINE
  5
E947
  8
DETAIL
  6
CONTINUOUS
 62
     5
 10
193.0
 20
223.0
 30
0.0
 11
8.0
 21
223.0
 31
0.0
  0
LINE
  5
E948
  8
DETAIL
  6
CONTINUOUS
 62
     5
 10
193.0
 20
230.0
 30
0.0
 11
8.0
 21
230.0
 31
0.0
  0
LINE
  5
E949
  8
DETAIL
  6
CONTINUOUS
 62
     5
 10
86.5
 20
230.0
 30
0.0
 11
86.5
 21
273.0
 31
0.0
  0
LINE
  5
E94A
  8
DETAIL
  6
CONTINUOUS
 62
     5
 10
86.5
 20
242.0
 30
0.0
 11
8.0
 21
242.0
 31
0.0
  0
ARC
  5
E94B
  8
DETAIL
  6
CONTINUOUS
 62
     5
 10
81.5
 20
273.0
 30
0.0
 40
5.0
 50
0.0
 51
90.0
  0
LINE
  5
E94C
  8
NOTE
  6
CONTINUOUS
 62
     4
 10
169.0
 20
230.0
 30
0.0
 11
203.82045
 21
249.685941
 31
0.0
  0
LINE
  5
E94D
  8
NOTE
  6
CONTINUOUS
 62
     4
 10
189.312423
 20
264.45875
 30
0.0
 11
169.0
 21
230.0
 31
0.0
  0
LINE
  5
E94E
  8
NOTE
  6
CONTINUOUS
 62
     4
 10
169.0
 20
210.0
 30
0.0
 11
169.0
 21
250.0
 31
0.0
  0
LINE
  5
E94F
  8
NOTE
  6
CONTINUOUS
 62
     4
 10
209.0
 20
218.0
 30
0.0
 11
209.0
 21
258.0
 31
0.0
  0
LINE
  5
E950
  8
NOTE
  6
CONTINUOUS
 62
     4
 10
149.0
 20
230.0
 30
0.0
 11
189.0
 21
230.0
 31
0.0
  0
LINE
  5
E951
  8
NOTE
  6
CONTINUOUS
 62
     4
 10
189.0
 20
237.0
 30
0.0
 11
229.0
 21
237.0
 31
0.0
  0
LINE
  5
E952
  8
DETAIL
  6
CONTINUOUS
 62
     5
 10
225.25
 20
237.0
 30
0.0
 11
225.25
 21
233.5
 31
0.0
  0
LINE
  5
E953
  8
DETAIL
  6
CONTINUOUS
 62
     5
 10
225.25
 20
237.0
 30
0.0
 11
193.0
 21
237.0
 31
0.0
  0
LINE
  5
E954
  8
DETAIL
  6
CONTINUOUS
 62
     5
 10
225.25
 20
233.5
 30
0.0
 11
198.25
 21
233.5
 31
0.0
  0
LINE
  5
E955
  8
SIZE
  6
CONTINUOUS
 62
    30
 10
395.314849
 20
609.110764
 30
0.0
 11
86.5
 21
609.110764
 31
0.0
  0
LINE
  5
E956
  8
SIZE
  6
CONTINUOUS
 62
    30
 10
77.5
 20
609.110764
 30
0.0
 11
397.173896
 21
609.110764
 31
0.0
  0
LINE
  5
E957
  8
SIZE
  6
CONTINUOUS
 62
    30
 10
74.5
 20
609.110764
 30
0.0
 11
0.5
 21
609.110764
 31
0.0
  0
LINE
  5
E958
  8
SIZE
  6
CONTINUOUS
 62
    30
 10
86.5
 20
609.110764
 30
0.0
 11
74.5
 21
609.110764
 31
0.0
  0
CIRCLE
  5
E959
  8
SIZE
  6
CONTINUOUS
 62
    30
 10
86.5
 20
609.110764
 30
0.0
 40
6.0
  0
LINE
  5
E95A
  8
SIZE
  6
CONTINUOUS
 62
    30
 10
209.0
 20
850.152881
 30
0.0
 11
197.0
 21
850.152881
 31
0.0
  0
CIRCLE
  5
E95B
  8
SIZE
  6
CONTINUOUS
 62
    30
 10
209.0
 20
850.152881
 30
0.0
 40
6.0
  0
TEXT
  5
E95C
  8
ETC
  6
CONTINUOUS
 62
    61
 10
500.850236
 20
884.757146
 30
0.0
 40
64.0
  1
VD-25ZN9-W_2
 41
0.9
  0
TEXT
  5
E95D
  8
ETC
  6
CONTINUOUS
 62
    61
 10
496.664242
 20
766.801836
 30
0.0
 40
64.0
  1
換気扇
 41
0.9
  0
TEXT
  5
E95E
  8
ETC
  6
CONTINUOUS
 62
    61
 10
547.271744
 20
658.966056
 30
0.0
 40
40.0
  1
VD-25ZN9-W
 41
0.9
  0
LINE
  5
E95F
  8
SIZE
  6
CONTINUOUS
 62
    30
 10
169.0
 20
270.0
 30
0.0
 11
169.0
 21
502.995588
 31
0.0
  0
LINE
  5
E960
  8
SIZE
  6
CONTINUOUS
 62
    30
 10
0.0
 20
346.0
 30
0.0
 11
0.0
 21
502.995588
 31
0.0
  0
LINE
  5
E961
  8
SIZE
  6
CONTINUOUS
 62
    30
 10
12.0
 20
482.995588
 30
0.0
 11
157.0
 21
482.995588
 31
0.0
  0
LINE
  5
E962
  8
SIZE
  6
CONTINUOUS
 62
    30
 10
169.0
 20
482.995588
 30
0.0
 11
407.605553
 21
482.995588
 31
0.0
  0
CIRCLE
  5
E963
  8
SIZE
  6
CONTINUOUS
 62
    30
 10
0.0
 20
482.995588
 30
0.0
 40
6.0
  0
LINE
  5
E964
  8
SIZE
  6
CONTINUOUS
 62
    30
 10
0.0
 20
482.995588
 30
0.0
 11
12.0
 21
482.995588
 31
0.0
  0
CIRCLE
  5
E965
  8
SIZE
  6
CONTINUOUS
 62
    30
 10
169.0
 20
482.995588
 30
0.0
 40
6.0
  0
LINE
  5
E966
  8
SIZE
  6
CONTINUOUS
 62
    30
 10
169.0
 20
482.995588
 30
0.0
 11
157.0
 21
482.995588
 31
0.0
  0
TEXT
  5
E967
  8
SIZE
  6
CONTINUOUS
 62
    30
 10
230.3769815714286
 20
507.995588
 30
0.0
 40
64.0
  1
169
 41
0.9
 72
     1
 11
315.405553
 21
507.995588
 31
0.0
  0
POINT
  5
E968
  8
DEFPOINTS
  6
CONTINUOUS
 62
    30
 10
169.0
 20
250.0
 30
0.0
  0
POINT
  5
E969
  8
DEFPOINTS
  6
CONTINUOUS
 62
    30
 10
0.0
 20
326.0
 30
0.0
  0
POINT
  5
E96A
  8
DEFPOINTS
  6
CONTINUOUS
 62
    30
 10
0.0
 20
482.995588
 30
0.0
  0
LINE
  5
E96B
  8
SIZE
  6
CONTINUOUS
 62
    30
 10
-111.0
 20
317.586435
 30
0.0
 11
-111.0
 21
727.414669
 31
0.0
  0
LINE
  5
E96C
  8
SIZE
  6
CONTINUOUS
 62
    30
 10
0.0
 20
346.0
 30
0.0
 11
0.0
 21
727.414669
 31
0.0
  0
LINE
  5
E96D
  8
SIZE
  6
CONTINUOUS
 62
    30
 10
-123.0
 20
707.414669
 30
0.0
 11
-135.0
 21
707.414669
 31
0.0
  0
LINE
  5
E96E
  8
SIZE
  6
CONTINUOUS
 62
    30
 10
12.0
 20
707.414669
 30
0.0
 11
24.0
 21
707.414669
 31
0.0
  0
LINE
  5
E96F
  8
SIZE
  6
CONTINUOUS
 62
    30
 10
-111.0
 20
707.414669
 30
0.0
 11
0.0
 21
707.414669
 31
0.0
  0
CIRCLE
  5
E970
  8
SIZE
  6
CONTINUOUS
 62
    30
 10
-111.0
 20
707.414669
 30
0.0
 40
6.0
  0
LINE
  5
E971
  8
SIZE
  6
CONTINUOUS
 62
    30
 10
-111.0
 20
707.414669
 30
0.0
 11
-123.0
 21
707.414669
 31
0.0
  0
CIRCLE
  5
E972
  8
SIZE
  6
CONTINUOUS
 62
    30
 10
0.0
 20
707.414669
 30
0.0
 40
6.0
  0
LINE
  5
E973
  8
SIZE
  6
CONTINUOUS
 62
    30
 10
0.0
 20
707.414669
 30
0.0
 11
12.0
 21
707.414669
 31
0.0
  0
TEXT
  5
E974
  8
SIZE
  6
CONTINUOUS
 62
    30
 10
-133.6714285714286
 20
732.414669
 30
0.0
 40
64.0
  1
111
 41
0.9
 72
     1
 11
-55.50000000000001
 21
732.414669
 31
0.0
  0
POINT
  5
E975
  8
DEFPOINTS
  6
CONTINUOUS
 62
    30
 10
-111.0
 20
297.586435
 30
0.0
  0
POINT
  5
E976
  8
DEFPOINTS
  6
CONTINUOUS
 62
    30
 10
0.0
 20
326.0
 30
0.0
  0
POINT
  5
E977
  8
DEFPOINTS
  6
CONTINUOUS
 62
    30
 10
0.0
 20
707.414669
 30
0.0
  0
LINE
  5
E978
  8
DETAIL
  6
CONTINUOUS
 62
     5
 10
196.0
 20
8.0
 30
0.0
 11
196.0
 21
28.0
 31
0.0
  0
LINE
  5
E979
  8
DETAIL
  6
CONTINUOUS
 62
     5
 39
50.0
 10
196.0
 20
8.0
 30
0.0
 11
193.0
 21
8.0
 31
0.0
  0
LINE
  5
E97A
  8
DETAIL
  6
CONTINUOUS
 62
     5
 39
50.0
 10
196.0
 20
28.0
 30
0.0
 11
193.0
 21
28.0
 31
0.0
  0
LINE
  5
E97B
  8
DETAIL
  6
CONTINUOUS
 62
     5
 10
-196.0
 20
8.0
 30
0.0
 11
-196.0
 21
28.0
 31
0.0
  0
LINE
  5
E97C
  8
DETAIL
  6
CONTINUOUS
 62
     5
 39
50.0
 10
-196.0
 20
8.0
 30
0.0
 11
-193.0
 21
8.0
 31
0.0
  0
LINE
  5
E97D
  8
DETAIL
  6
CONTINUOUS
 62
     5
 39
50.0
 10
-196.0
 20
28.0
 30
0.0
 11
-193.0
 21
28.0
 31
0.0
  0
LINE
  5
E97E
  8
SIZE
  6
CONTINUOUS
 62
    30
 10
-196.0
 20
-12.0
 30
0.0
 11
-196.0
 21
-629.862096
 31
0.0
  0
LINE
  5
E97F
  8
SIZE
  6
CONTINUOUS
 62
    30
 10
196.0
 20
-12.0
 30
0.0
 11
196.0
 21
-629.862096
 31
0.0
  0
LINE
  5
E980
  8
SIZE
  6
CONTINUOUS
 62
    30
 10
-184.0
 20
-609.862096
 30
0.0
 11
184.0
 21
-609.862096
 31
0.0
  0
CIRCLE
  5
E981
  8
SIZE
  6
CONTINUOUS
 62
    30
 10
-196.0
 20
-609.862096
 30
0.0
 40
6.0
  0
LINE
  5
E982
  8
SIZE
  6
CONTINUOUS
 62
    30
 10
-196.0
 20
-609.862096
 30
0.0
 11
-184.0
 21
-609.862096
 31
0.0
  0
CIRCLE
  5
E983
  8
SIZE
  6
CONTINUOUS
 62
    30
 10
196.0
 20
-609.862096
 30
0.0
 40
6.0
  0
LINE
  5
E984
  8
SIZE
  6
CONTINUOUS
 62
    30
 10
196.0
 20
-609.862096
 30
0.0
 11
184.0
 21
-609.862096
 31
0.0
  0
TEXT
  5
E985
  8
SIZE
  6
CONTINUOUS
 62
    30
 10
-82.28571428571429
 20
-584.862096
 30
0.0
 40
64.0
  1
392
 41
0.9
 72
     1
 11
-0.0000000000000056
 21
-584.862096
 31
0.0
  0
POINT
  5
E986
  8
DEFPOINTS
  6
CONTINUOUS
 62
    30
 10
-196.0
 20
8.0
 30
0.0
  0
POINT
  5
E987
  8
DEFPOINTS
  6
CONTINUOUS
 62
    30
 10
196.0
 20
8.0
 30
0.0
  0
POINT
  5
E988
  8
DEFPOINTS
  6
CONTINUOUS
 62
    30
 10
196.0
 20
-609.862096
 30
0.0
  0
LINE
  5
E989
  8
SIZE
  6
CONTINUOUS
 62
    30
 10
-255.0
 20
0.0
 30
0.0
 11
-656.78859
 21
0.0
 31
0.0
  0
LINE
  5
E98A
  8
SIZE
  6
CONTINUOUS
 62
    30
 10
-180.671581
 20
56.25
 30
0.0
 11
-656.78859
 21
56.25
 31
0.0
  0
LINE
  5
E98B
  8
SIZE
  6
CONTINUOUS
 62
    30
 10
-636.78859
 20
68.25
 30
0.0
 11
-636.78859
 21
80.25
 31
0.0
  0
LINE
  5
E98C
  8
SIZE
  6
CONTINUOUS
 62
    30
 10
-636.78859
 20
-12.0
 30
0.0
 11
-636.78859
 21
-209.460103
 31
0.0
  0
LINE
  5
E98D
  8
SIZE
  6
CONTINUOUS
 62
    30
 10
-636.78859
 20
56.25
 30
0.0
 11
-636.78859
 21
0.0
 31
0.0
  0
CIRCLE
  5
E98E
  8
SIZE
  6
CONTINUOUS
 62
    30
 10
-636.78859
 20
56.25
 30
0.0
 40
6.0
  0
LINE
  5
E98F
  8
SIZE
  6
CONTINUOUS
 62
    30
 10
-636.78859
 20
56.25
 30
0.0
 11
-636.78859
 21
68.25
 31
0.0
  0
CIRCLE
  5
E990
  8
SIZE
  6
CONTINUOUS
 62
    30
 10
-636.78859
 20
0.0
 30
0.0
 40
6.0
  0
LINE
  5
E991
  8
SIZE
  6
CONTINUOUS
 62
    30
 10
-636.78859
 20
0.0
 30
0.0
 11
-636.78859
 21
-12.0
 31
0.0
  0
TEXT
  5
E992
  8
SIZE
  6
CONTINUOUS
 62
    30
 10
-661.78859
 20
-194.0601028571429
 30
0.0
 40
64.0
  1
56
 50
90.0
 41
0.9
 72
     1
 11
-661.78859
 21
-139.20296
 31
0.0
  0
POINT
  5
E993
  8
DEFPOINTS
  6
CONTINUOUS
 62
    30
 10
-235.0
 20
0.0
 30
0.0
  0
POINT
  5
E994
  8
DEFPOINTS
  6
CONTINUOUS
 62
    30
 10
-160.671581
 20
56.25
 30
0.0
  0
POINT
  5
E995
  8
DEFPOINTS
  6
CONTINUOUS
 62
    30
 10
-636.78859
 20
56.25
 30
0.0
  0
LINE
  5
E996
  8
SIZE
  6
CONTINUOUS
 62
    30
 10
-525.595635
 20
81.968817
 30
0.0
 11
-217.066114
 21
141.153516
 31
0.0
  0
LINE
  5
E997
  8
SIZE
  6
CONTINUOUS
 62
    30
 10
-4.933885999999999
 20
181.846484
 30
0.0
 11
6.851238
 21
184.107205
 31
0.0
  0
TEXT
  5
E998
  8
SIZE
  6
CONTINUOUS
 62
    30
 10
-517.8749920733284
 20
108.9057227715286
 30
0.0
 40
64.0
  1
φ192
 50
10.85901334426524
 41
0.9
 72
     1
 11
-412.819022649674
 21
129.0583855997615
 31
0.0
  0
LINE
  5
E999
  8
SIZE
  6
CONTINUOUS
 62
    30
 10
-16.71901
 20
179.585764
 30
0.0
 11
-205.28099
 21
143.414236
 31
0.0
  0
CIRCLE
  5
E99A
  8
SIZE
  6
CONTINUOUS
 62
    30
 10
-16.71901
 20
179.585764
 30
0.0
 40
6.0
  0
LINE
  5
E99B
  8
SIZE
  6
CONTINUOUS
 62
    30
 10
-16.71901
 20
179.585764
 30
0.0
 11
-4.933886197751178
 21
181.8464844527912
 31
0.0
  0
CIRCLE
  5
E99C
  8
SIZE
  6
CONTINUOUS
 62
    30
 10
-205.28099
 20
143.414236
 30
0.0
 40
6.0
  0
LINE
  5
E99D
  8
SIZE
  6
CONTINUOUS
 62
    30
 10
-205.28099
 20
143.414236
 30
0.0
 11
-217.0661138022488
 21
141.1535155472088
 31
0.0
  0
POINT
  5
E99E
  8
DEFPOINTS
  6
CONTINUOUS
 62
    30
 10
-205.28099
 20
143.414236
 30
0.0
  0
POINT
  5
E99F
  8
DEFPOINTS
  6
CONTINUOUS
 62
    30
 10
-16.71901
 20
179.585764
 30
0.0
  0
LINE
  5
E9A0
  8
SIZE
  6
CONTINUOUS
 62
    30
 10
-736.9738279999999
 20
331.725322
 30
0.0
 11
-222.935034
 21
191.939255
 31
0.0
  0
LINE
  5
E9A1
  8
SIZE
  6
CONTINUOUS
 62
    30
 10
0.9350339999999999
 20
131.060745
 30
0.0
 11
12.51452
 21
127.911856
 31
0.0
  0
TEXT
  5
E9A2
  8
SIZE
  6
CONTINUOUS
 62
    30
 10
-712.9065627467286
 20
351.0883968784631
 30
0.0
 40
64.0
  1
φ208
 50
344.7870626086449
 41
0.9
 72
     1
 11
-609.6837053280842
 21
323.0183374388671
 31
0.0
  0
LINE
  5
E9A3
  8
SIZE
  6
CONTINUOUS
 62
    30
 10
-10.644453
 20
134.209633
 30
0.0
 11
-211.355547
 21
188.790367
 31
0.0
  0
CIRCLE
  5
E9A4
  8
SIZE
  6
CONTINUOUS
 62
    30
 10
-10.644453
 20
134.209633
 30
0.0
 40
6.0
  0
LINE
  5
E9A5
  8
SIZE
  6
CONTINUOUS
 62
    30
 10
-10.644453
 20
134.209633
 30
0.0
 11
0.9350332426812
 21
131.0607445682583
 31
0.0
  0
CIRCLE
  5
E9A6
  8
SIZE
  6
CONTINUOUS
 62
    30
 10
-211.355547
 20
188.790367
 30
0.0
 40
6.0
  0
LINE
  5
E9A7
  8
SIZE
  6
CONTINUOUS
 62
    30
 10
-211.355547
 20
188.790367
 30
0.0
 11
-222.9350332426812
 21
191.9392554317417
 31
0.0
  0
POINT
  5
E9A8
  8
DEFPOINTS
  6
CONTINUOUS
 62
    30
 10
-211.355547
 20
188.790367
 30
0.0
  0
POINT
  5
E9A9
  8
DEFPOINTS
  6
CONTINUOUS
 62
    30
 10
-10.644453
 20
134.209633
 30
0.0
  0
LINE
  5
E9AA
  8
SIZE
  6
CONTINUOUS
 62
    30
 10
245.25
 20
237.0
 30
0.0
 11
588.459498
 21
237.0
 31
0.0
  0
LINE
  5
E9AB
  8
SIZE
  6
CONTINUOUS
 62
    30
 10
254.972609
 20
0.0
 30
0.0
 11
588.459498
 21
0.0
 31
0.0
  0
LINE
  5
E9AC
  8
SIZE
  6
CONTINUOUS
 62
    30
 10
568.459498
 20
225.0
 30
0.0
 11
568.459498
 21
12.0
 31
0.0
  0
CIRCLE
  5
E9AD
  8
SIZE
  6
CONTINUOUS
 62
    30
 10
568.459498
 20
237.0
 30
0.0
 40
6.0
  0
LINE
  5
E9AE
  8
SIZE
  6
CONTINUOUS
 62
    30
 10
568.459498
 20
237.0
 30
0.0
 11
568.459498
 21
225.0
 31
0.0
  0
CIRCLE
  5
E9AF
  8
SIZE
  6
CONTINUOUS
 62
    30
 10
568.459498
 20
0.0
 30
0.0
 40
6.0
  0
LINE
  5
E9B0
  8
SIZE
  6
CONTINUOUS
 62
    30
 10
568.459498
 20
0.0
 30
0.0
 11
568.459498
 21
12.0
 31
0.0
  0
TEXT
  5
E9B1
  8
SIZE
  6
CONTINUOUS
 62
    30
 10
543.459498
 20
36.21428571428571
 30
0.0
 40
64.0
  1
237
 50
90.0
 41
0.9
 72
     1
 11
543.459498
 21
118.5
 31
0.0
  0
POINT
  5
E9B2
  8
DEFPOINTS
  6
CONTINUOUS
 62
    30
 10
225.25
 20
237.0
 30
0.0
  0
POINT
  5
E9B3
  8
DEFPOINTS
  6
CONTINUOUS
 62
    30
 10
234.972609
 20
0.0
 30
0.0
  0
POINT
  5
E9B4
  8
DEFPOINTS
  6
CONTINUOUS
 62
    30
 10
568.459498
 20
0.0
 30
0.0
  0
LINE
  5
E9B5
  8
SIZE
  6
CONTINUOUS
 62
    30
 10
46.459847
 20
162.0
 30
0.0
 11
457.838811
 21
162.0
 31
0.0
  0
LINE
  5
E9B6
  8
SIZE
  6
CONTINUOUS
 62
    30
 10
255.0
 20
0.0
 30
0.0
 11
457.838811
 21
0.0
 31
0.0
  0
LINE
  5
E9B7
  8
SIZE
  6
CONTINUOUS
 62
    30
 10
437.838811
 20
174.0
 30
0.0
 11
437.838811
 21
186.0
 31
0.0
  0
LINE
  5
E9B8
  8
SIZE
  6
CONTINUOUS
 62
    30
 10
437.838811
 20
-12.0
 30
0.0
 11
437.838811
 21
-24.0
 31
0.0
  0
LINE
  5
E9B9
  8
SIZE
  6
CONTINUOUS
 62
    30
 10
437.838811
 20
162.0
 30
0.0
 11
437.838811
 21
0.0
 31
0.0
  0
CIRCLE
  5
E9BA
  8
SIZE
  6
CONTINUOUS
 62
    30
 10
437.838811
 20
162.0
 30
0.0
 40
6.0
  0
LINE
  5
E9BB
  8
SIZE
  6
CONTINUOUS
 62
    30
 10
437.838811
 20
162.0
 30
0.0
 11
437.838811
 21
174.0
 31
0.0
  0
CIRCLE
  5
E9BC
  8
SIZE
  6
CONTINUOUS
 62
    30
 10
437.838811
 20
0.0
 30
0.0
 40
6.0
  0
LINE
  5
E9BD
  8
SIZE
  6
CONTINUOUS
 62
    30
 10
437.838811
 20
0.0
 30
0.0
 11
437.838811
 21
-12.0
 31
0.0
  0
TEXT
  5
E9BE
  8
SIZE
  6
CONTINUOUS
 62
    30
 10
412.838811
 20
-5.400000000000063
 30
0.0
 40
64.0
  1
162
 50
90.0
 41
0.9
 72
     1
 11
412.838811
 21
80.99999999999994
 31
0.0
  0
POINT
  5
E9BF
  8
DEFPOINTS
  6
CONTINUOUS
 62
    30
 10
26.459847
 20
162.0
 30
0.0
  0
POINT
  5
E9C0
  8
DEFPOINTS
  6
CONTINUOUS
 62
    30
 10
235.0
 20
0.0
 30
0.0
  0
POINT
  5
E9C1
  8
DEFPOINTS
  6
CONTINUOUS
 62
    30
 10
437.838811
 20
0.0
 30
0.0
  0
ENDSEC
  0
EOF
