  0
SECTION
  2
HEADER
  9
$ACADVER
  1
AC1009
  9
$INSBASE
 10
0.0
 20
0.0
 30
0.0
  9
$EXTMIN
 10
-232.52004299999999
 20
-152.4401
 30
0.0
  9
$EXTMAX
 10
1554.256025883851
 20
825.41810500000008
 30
50.0
  9
$LIMMIN
 10
-2970.0
 20
-2100.0
  9
$LIMMAX
 10
2970.0
 20
2100.0
  9
$ORTHOMODE
 70
     1
  9
$REGENMODE
 70
     0
  9
$FILLMODE
 70
     1
  9
$QTEXTMODE
 70
     0
  9
$MIRRTEXT
 70
     0
  9
$DRAGMODE
 70
     2
  9
$LTSCALE
 40
20.0
  9
$OSMODE
 70
    37
  9
$ATTMODE
 70
     1
  9
$TEXTSIZE
 40
64.0
  9
$TRACEWID
 40
0.05
  9
$TEXTSTYLE
  7
STANDARD
  9
$CLAYER
  8
SIZE
  9
$CELTYPE
  6
CONTINUOUS
  9
$CECOLOR
 62
    30
  9
$DIMSCALE
 40
1.0
  9
$DIMASZ
 40
12.0
  9
$DIMEXO
 40
20.0
  9
$DIMDLI
 40
200.0
  9
$DIMRND
 40
0.0
  9
$DIMDLE
 40
0.0
  9
$DIMEXE
 40
20.0
  9
$DIMTP
 40
0.0
  9
$DIMTM
 40
0.0
  9
$DIMTXT
 40
64.0
  9
$DIMCEN
 40
0.09
  9
$DIMTSZ
 40
0.0
  9
$DIMTOL
 70
     0
  9
$DIMLIM
 70
     0
  9
$DIMTIH
 70
     0
  9
$DIMTOH
 70
     0
  9
$DIMSE1
 70
     0
  9
$DIMSE2
 70
     0
  9
$DIMTAD
 70
     1
  9
$DIMZIN
 70
     8
  9
$DIMBLK
  1
DOT1
  9
$DIMASO
 70
     1
  9
$DIMSHO
 70
     0
  9
$DIMPOST
  1

  9
$DIMAPOST
  1

  9
$DIMALT
 70
     0
  9
$DIMALTD
 70
     2
  9
$DIMALTF
 40
25.399999999999999
  9
$DIMLFAC
 40
1.0
  9
$DIMTOFL
 70
     1
  9
$DIMTVP
 40
0.0
  9
$DIMTIX
 70
     1
  9
$DIMSOXD
 70
     0
  9
$DIMSAH
 70
     1
  9
$DIMBLK1
  1
ORIGIN
  9
$DIMBLK2
  1
ORIGIN
  9
$DIMSTYLE
  2
STANDARD
  9
$DIMCLRD
 70
     7
  9
$DIMCLRE
 70
     7
  9
$DIMCLRT
 70
     7
  9
$DIMTFAC
 40
1.0
  9
$DIMGAP
 40
25.0
  9
$LUNITS
 70
     2
  9
$LUPREC
 70
     4
  9
$SKETCHINC
 40
0.1
  9
$FILLETRAD
 40
4.0
  9
$AUNITS
 70
     1
  9
$AUPREC
 70
     3
  9
$MENU
  1
ACAD
  9
$ELEVATION
 40
0.0
  9
$PELEVATION
 40
0.0
  9
$THICKNESS
 40
50.0
  9
$LIMCHECK
 70
     0
  9
$BLIPMODE
 70
     0
  9
$CHAMFERA
 40
0.0
  9
$CHAMFERB
 40
0.0
  9
$SKPOLY
 70
     0
  9
$TDCREATE
 40
2453301.6890049758
  9
$TDUPDATE
 40
2453429.7211132748
  9
$TDINDWG
 40
0.0156907523
  9
$TDUSRTIMER
 40
0.0156907523
  9
$USRTIMER
 70
     1
  9
$ANGBASE
 50
0.0
  9
$ANGDIR
 70
     0
  9
$PDMODE
 70
     3
  9
$PDSIZE
 40
-2.0
  9
$PLINEWID
 40
0.0
  9
$COORDS
 70
     2
  9
$SPLFRAME
 70
     0
  9
$SPLINETYPE
 70
     6
  9
$SPLINESEGS
 70
     8
  9
$ATTDIA
 70
     0
  9
$ATTREQ
 70
     1
  9
$HANDLING
 70
 22529
  9
$HANDSEED
  5
15D
  9
$SURFTAB1
 70
     6
  9
$SURFTAB2
 70
     6
  9
$SURFTYPE
 70
     6
  9
$SURFU
 70
     6
  9
$SURFV
 70
     6
  9
$UCSNAME
  2

  9
$UCSORG
 10
0.0
 20
0.0
 30
0.0
  9
$UCSXDIR
 10
1.0
 20
0.0
 30
0.0
  9
$UCSYDIR
 10
0.0
 20
1.0
 30
0.0
  9
$PUCSNAME
  2

  9
$PUCSORG
 10
0.0
 20
0.0
 30
0.0
  9
$PUCSXDIR
 10
1.0
 20
0.0
 30
0.0
  9
$PUCSYDIR
 10
0.0
 20
1.0
 30
0.0
  9
$USERI1
 70
     0
  9
$USERI2
 70
     0
  9
$USERI3
 70
     0
  9
$USERI4
 70
     0
  9
$USERI5
 70
     0
  9
$USERR1
 40
20.0
  9
$USERR2
 40
0.0
  9
$USERR3
 40
0.0
  9
$USERR4
 40
0.0
  9
$USERR5
 40
0.0
  9
$WORLDVIEW
 70
     1
  9
$SHADEDGE
 70
     3
  9
$SHADEDIF
 70
    70
  9
$TILEMODE
 70
     1
  9
$MAXACTVP
 70
    48
  9
$PLIMCHECK
 70
     0
  9
$PEXTMIN
 10
-1.0000000000000000E+020
 20
-1.0000000000000000E+020
 30
-1.0000000000000000E+020
  9
$PEXTMAX
 10
1.0000000000000000E+020
 20
1.0000000000000000E+020
 30
1.0000000000000000E+020
  9
$PLIMMIN
 10
0.0
 20
0.0
  9
$PLIMMAX
 10
12.0
 20
9.0
  9
$UNITMODE
 70
     0
  9
$VISRETAIN
 70
     0
  9
$PLINEGEN
 70
     0
  9
$PSLTSCALE
 70
     0
  0
ENDSEC
  0
SECTION
  2
TABLES
  0
TABLE
  2
VPORT
 70
     3
  0
VPORT
  2
*ACTIVE
 70
     0
 10
0.0
 20
0.0
 11
1.0
 21
1.0
 12
612.13817510493595
 22
281.14370197679108
 13
0.0
 23
0.0
 14
1.0
 24
1.0
 15
0.0
 25
0.0
 16
0.0
 26
0.0
 36
1.0
 17
0.0
 27
0.0
 37
0.0
 40
1485.8778081923519
 41
1.4423558897243101
 42
50.0
 43
0.0
 44
0.0
 50
0.0
 51
0.0
 71
     0
 72
  1000
 73
     1
 74
     0
 75
     0
 76
     0
 77
     0
 78
     0
  0
ENDTAB
  0
TABLE
  2
LTYPE
 70
     2
  0
LTYPE
  2
CONTINUOUS
 70
     0
  3
Ä└É³
 72
    65
 73
     0
 40
0.0
  0
LTYPE
  2
DASHDOT
 70
     0
  3
____ _ ____ _ ____ _ ____ _ ____ _ ____ _ ____
 72
    65
 73
     4
 40
5.5
 49
4.0
 49
-0.6
 49
0.3
 49
-0.6
  0
ENDTAB
  0
TABLE
  2
LAYER
 70
    12
  0
LAYER
  2
0
 70
     0
 62
     7
  6
CONTINUOUS
  0
LAYER
  2
SIZE
 70
     0
 62
    30
  6
CONTINUOUS
  0
LAYER
  2
BASIS
 70
     0
 62
     6
  6
DASHDOT
  0
LAYER
  2
OUTLINE
 70
     0
 62
     3
  6
CONTINUOUS
  0
LAYER
  2
DETAIL
 70
     0
 62
     5
  6
CONTINUOUS
  0
LAYER
  2
ARRANGE
 70
     0
 62
     1
  6
CONTINUOUS
  0
LAYER
  2
DEFPOINTS
 70
     0
 62
     7
  6
CONTINUOUS
  0
LAYER
  2
ETC
 70
     0
 62
    61
  6
CONTINUOUS
  0
LAYER
  2
FIX
 70
     0
 62
    11
  6
CONTINUOUS
  0
LAYER
  2
NOTE
 70
     0
 62
     4
  6
CONTINUOUS
  0
LAYER
  2
SERVICESPACE
 70
     0
 62
     2
  6
DASHDOT
  0
LAYER
  2
SYMBOLLINE
 70
     0
 62
    15
  6
CONTINUOUS
  0
ENDTAB
  0
TABLE
  2
STYLE
 70
     1
  0
STYLE
  2
STANDARD
 70
     0
 40
64.0
 41
0.9
 50
0.0
 71
     0
 42
64.0
  3
SIMPLEX.shx
  4
BIGFONT.shx
  0
ENDTAB
  0
TABLE
  2
VIEW
 70
     1
  0
VIEW
  2
ALL
 70
     0
 40
4282.6198079999986
 10
0.0
 20
41.309903999999989
 41
5940.0
 11
0.0
 21
0.0
 31
1.0
 12
0.0
 22
0.0
 32
0.0
 42
50.0
 43
0.0
 44
0.0
 50
0.0
 71
     0
  0
ENDTAB
  0
TABLE
  2
UCS
 70
     0
  0
ENDTAB
  0
TABLE
  2
APPID
 70
     2
  0
APPID
  2
ACAD
 70
     0
  0
APPID
  2
AUTOCAD_POSTSCRIPT_FIGURE
 70
     0
  0
ENDTAB
  0
TABLE
  2
DIMSTYLE
 70
     1
  0
DIMSTYLE
  2
STANDARD
 70
     0
  3

  4

  5

  6

  7

 40
1.0
 41
0.18
 42
0.0625
 43
0.38
 44
0.18
 45
0.0
 46
0.0
 47
0.0
 48
0.0
140
0.18
141
0.09
142
0.0
143
25.399999999999999
144
1.0
145
0.0
146
1.0
147
0.09
 71
     0
 72
     0
 73
     1
 74
     1
 75
     0
 76
     0
 77
     0
 78
     0
170
     0
171
     2
172
     0
173
     0
174
     0
175
     0
176
     7
177
     7
178
     7
  0
ENDTAB
  0
ENDSEC
  0
SECTION
  2
BLOCKS
  0
BLOCK
  8
0
  2
$MODEL_SPACE
 70
     0
 10
0.0
 20
0.0
 30
0.0
  3
$MODEL_SPACE
  1

  0
ENDBLK
  5
20
  8
0
  0
BLOCK
 67
     1
  8
0
  2
$PAPER_SPACE
 70
     0
 10
0.0
 20
0.0
 30
0.0
  3
$PAPER_SPACE
  1

  0
ENDBLK
  5
1C
 67
     1
  8
0
  0
BLOCK
  8
0
  2
DOT1
 70
     0
 10
0.0
 20
0.0
 30
0.0
  3
DOT1
  1

  0
CIRCLE
  5
36
  8
SIZE
  6
CONTINUOUS
 62
     7
 10
0.0
 20
0.0
 30
0.0
 40
3.0
  0
ENDBLK
  5
37
  8
0
  0
BLOCK
  8
0
  2
_ORIGIN
 70
     0
 10
0.0
 20
0.0
 30
0.0
  3
_ORIGIN
  1

  0
CIRCLE
  5
3A
  8
0
  6
CONTINUOUS
 62
     7
 10
0.0
 20
0.0
 30
0.0
 40
0.5
  0
LINE
  5
3B
  8
0
  6
CONTINUOUS
 62
     7
 10
0.0
 20
0.0
 30
0.0
 11
-1.0
 21
0.0
 31
0.0
  0
ENDBLK
  5
3C
  8
0
  0
BLOCK
  8
0
 62
    30
  2
A$C134C763E
 70
     0
 10
0.0
 20
0.0
 30
0.0
  3
A$C134C763E
  1

  0
TEXT
  5
B0
  8
ETC
  6
CONTINUOUS
 62
    61
 10
9.0524790435674731
 20
0.0000011914019069
 30
0.0
 40
50.0
  1
VL-12JV-DüCVL-12JV-BE-D
 41
0.9
  0
TEXT
  5
B1
  8
ETC
  6
CONTINUOUS
 62
    61
 10
9.0524790435674731
 20
94.307596191401885
 30
0.0
 40
50.0
  1
VL-10JV-DüCVL-10JV-BE-D
 41
0.9
  0
TEXT
  5
B2
  8
ETC
  6
CONTINUOUS
 62
    61
 10
9.0524790435674731
 20
294.4706641914018
 30
0.0
 40
50.0
  1
VL-06JV-DüCVL-06JV-BE-D
 41
0.9
  0
TEXT
  5
B3
  8
ETC
  6
CONTINUOUS
 62
    61
 10
9.0524790435674731
 20
194.38913519140189
 30
0.0
 40
50.0
  1
VL-08JV-DüCVL-08JV-BE-D
 41
0.9
  0
TEXT
  5
B4
  8
ETC
  6
CONTINUOUS
 62
    61
 10
-0.0000002083370418
 20
691.0700262209017
 30
0.0
 40
50.0
  1
VL-06JVüCVL-06JV-BE
 41
0.9
  0
TEXT
  5
B5
  8
ETC
  6
CONTINUOUS
 62
    61
 10
-0.0000002083370418
 20
396.59936322090169
 30
0.0
 40
50.0
  1
VL-12JVüCVL-12JV-BE
 41
0.9
  0
TEXT
  5
B6
  8
ETC
  6
CONTINUOUS
 62
    61
 10
-0.0000002083370418
 20
590.98849722090176
 30
0.0
 40
50.0
  1
VL-08JVüCVL-08JV-BE
 41
0.9
  0
TEXT
  5
B7
  8
ETC
  6
CONTINUOUS
 62
    61
 10
-0.0000002083370418
 20
490.90695822090169
 30
0.0
 40
50.0
  1
VL-10JVüCVL-10JV-BE
 41
0.9
  0
ENDBLK
  5
B9
  8
0
 62
    30
  0
BLOCK
  8
0
 62
    30
  2
A$C40B25E6D
 70
     0
 10
0.0
 20
0.0
 30
0.0
  3
A$C40B25E6D
  1

  0
TEXT
  5
BB
  8
ETC
  6
CONTINUOUS
 62
    61
 10
9.0524790435674731
 20
0.0000011914019069
 30
0.0
 40
50.0
  1
VL-12JV-DüCVL-12JV-BE-D
 41
0.9
  0
TEXT
  5
BC
  8
ETC
  6
CONTINUOUS
 62
    61
 10
9.0524790435674731
 20
94.307596191401885
 30
0.0
 40
50.0
  1
VL-10JV-DüCVL-10JV-BE-D
 41
0.9
  0
TEXT
  5
BD
  8
ETC
  6
CONTINUOUS
 62
    61
 10
9.0524790435674731
 20
294.4706641914018
 30
0.0
 40
50.0
  1
VL-06JV-DüCVL-06JV-BE-D
 41
0.9
  0
TEXT
  5
BE
  8
ETC
  6
CONTINUOUS
 62
    61
 10
9.0524790435674731
 20
194.38913519140189
 30
0.0
 40
50.0
  1
VL-08JV-DüCVL-08JV-BE-D
 41
0.9
  0
TEXT
  5
BF
  8
ETC
  6
CONTINUOUS
 62
    61
 10
-0.0000002083370418
 20
691.0700262209017
 30
0.0
 40
50.0
  1
VL-06JVüCVL-06JV-BE
 41
0.9
  0
TEXT
  5
C0
  8
ETC
  6
CONTINUOUS
 62
    61
 10
-0.0000002083370418
 20
396.59936322090169
 30
0.0
 40
50.0
  1
VL-12JVüCVL-12JV-BE
 41
0.9
  0
TEXT
  5
C1
  8
ETC
  6
CONTINUOUS
 62
    61
 10
-0.0000002083370418
 20
590.98849722090176
 30
0.0
 40
50.0
  1
VL-08JVüCVL-08JV-BE
 41
0.9
  0
TEXT
  5
C2
  8
ETC
  6
CONTINUOUS
 62
    61
 10
-0.0000002083370418
 20
490.90695822090169
 30
0.0
 40
50.0
  1
VL-10JVüCVL-10JV-BE
 41
0.9
  0
ENDBLK
  5
C4
  8
0
 62
    30
  0
BLOCK
  8
0
 62
    30
  2
A$C492C4B8C
 70
     0
 10
0.0
 20
0.0
 30
0.0
  3
A$C492C4B8C
  1

  0
TEXT
  5
C6
  8
ETC
  6
CONTINUOUS
 62
    61
 10
9.0524790435674731
 20
0.0000011914019069
 30
0.0
 40
50.0
  1
VL-12JV-DüCVL-12JV-BE-D
 41
0.9
  0
TEXT
  5
C7
  8
ETC
  6
CONTINUOUS
 62
    61
 10
9.0524790435674731
 20
94.307596191401885
 30
0.0
 40
50.0
  1
VL-10JV-DüCVL-10JV-BE-D
 41
0.9
  0
TEXT
  5
C8
  8
ETC
  6
CONTINUOUS
 62
    61
 10
9.0524790435674731
 20
294.4706641914018
 30
0.0
 40
50.0
  1
VL-06JV-DüCVL-06JV-BE-D
 41
0.9
  0
TEXT
  5
C9
  8
ETC
  6
CONTINUOUS
 62
    61
 10
9.0524790435674731
 20
194.38913519140189
 30
0.0
 40
50.0
  1
VL-08JV-DüCVL-08JV-BE-D
 41
0.9
  0
TEXT
  5
CA
  8
ETC
  6
CONTINUOUS
 62
    61
 10
-0.0000002083370418
 20
691.0700262209017
 30
0.0
 40
50.0
  1
VL-06JVüCVL-06JV-BE
 41
0.9
  0
TEXT
  5
CB
  8
ETC
  6
CONTINUOUS
 62
    61
 10
-0.0000002083370418
 20
396.59936322090169
 30
0.0
 40
50.0
  1
VL-12JVüCVL-12JV-BE
 41
0.9
  0
TEXT
  5
CC
  8
ETC
  6
CONTINUOUS
 62
    61
 10
-0.0000002083370418
 20
590.98849722090176
 30
0.0
 40
50.0
  1
VL-08JVüCVL-08JV-BE
 41
0.9
  0
TEXT
  5
CD
  8
ETC
  6
CONTINUOUS
 62
    61
 10
-0.0000002083370418
 20
490.90695822090169
 30
0.0
 40
50.0
  1
VL-10JVüCVL-10JV-BE
 41
0.9
  0
ENDBLK
  5
CF
  8
0
 62
    30
  0
ENDSEC
  0
SECTION
  2
ENTITIES
  0
TEXT
  5
3D
  8
ETC
  6
CONTINUOUS
 62
    61
 10
452.67531799999989
 20
761.41810499999997
 30
0.0
 40
64.0
  1
VL-06JV_2
 41
0.9
  0
TEXT
  5
3E
  8
ETC
  6
CONTINUOUS
 62
    61
 10
456.31225999999992
 20
642.77403600000002
 30
0.0
 40
64.0
  1
èÀïCÉ¯
 41
0.9
  0
ARC
  5
3F
  8
DETAIL
  6
CONTINUOUS
 62
     5
 10
-185.701661
 20
76.0
 30
0.0
 40
3.0
 50
183.0
 51
270.0
  0
LINE
  5
40
  8
DETAIL
  6
CONTINUOUS
 62
     5
 10
-188.99436399999999
 20
-77.0
 30
0.0
 11
-188.99436399999999
 21
69.47399999999999
 31
0.0
  0
ARC
  5
41
  8
DETAIL
  6
CONTINUOUS
 62
     5
 10
-189.92214799999991
 20
77.473999999999975
 30
0.0
 40
8.0
 50
198.52822299999991
 51
270.0
  0
LINE
  5
42
  8
DETAIL
  6
CONTINUOUS
 62
     5
 10
-188.69754900000001
 20
75.84299200000001
 30
0.0
 11
-189.83454800000001
 21
97.538220999999993
 31
0.0
  0
LINE
  5
43
  8
DETAIL
  6
CONTINUOUS
 62
     5
 10
-140.16285199999999
 20
97.599999999999994
 30
0.0
 11
-189.8371479999999
 21
97.599999999999994
 31
0.0
  0
LINE
  5
44
  8
DETAIL
  6
CONTINUOUS
 62
     5
 10
-140.2565479999999
 20
95.799999999999997
 30
0.0
 11
-189.78537800000001
 21
95.799999999999997
 31
0.0
  0
LINE
  5
45
  8
DETAIL
  6
CONTINUOUS
 62
     5
 10
-140.47141999999991
 20
91.699999999999989
 30
0.0
 11
-189.549543
 21
91.699999999999989
 31
0.0
  0
LINE
  5
46
  8
DETAIL
  6
CONTINUOUS
 62
     5
 10
-140.56575399999991
 20
89.900000000000006
 30
0.0
 11
-189.45520899999991
 21
89.900000000000006
 31
0.0
  0
LINE
  5
47
  8
DETAIL
  6
CONTINUOUS
 62
     5
 10
-140.75966299999999
 20
86.200000000000003
 30
0.0
 11
-189.2193739999999
 21
86.200000000000003
 31
0.0
  0
LINE
  5
48
  8
DETAIL
  6
CONTINUOUS
 62
     5
 10
-140.85399699999991
 20
84.400000000000006
 30
0.0
 11
-189.1250399999999
 21
84.400000000000006
 31
0.0
  0
LINE
  5
49
  8
DETAIL
  6
CONTINUOUS
 62
     5
 10
-141.06886900000001
 20
80.299999999999983
 30
0.0
 11
-188.889205
 21
80.299999999999983
 31
0.0
  0
LINE
  5
4A
  8
DETAIL
  6
CONTINUOUS
 62
     5
 10
-141.1632029999999
 20
78.5
 30
0.0
 11
-188.794871
 21
78.5
 31
0.0
  0
LINE
  5
4B
  8
DETAIL
  6
CONTINUOUS
 62
     5
 10
-144.298339
 20
73.0
 30
0.0
 11
-185.701661
 21
73.0
 31
0.0
  0
ARC
  5
4C
  8
DETAIL
  6
CONTINUOUS
 62
     5
 10
-144.298339
 20
76.0
 30
0.0
 40
3.0
 50
270.0
 51
357.0
  0
LINE
  5
4D
  8
DETAIL
  6
CONTINUOUS
 62
     5
 10
0.0
 20
69.47399999999999
 30
0.0
 11
-189.92214799999991
 21
69.47399999999999
 31
0.0
  0
LINE
  5
4E
  8
DETAIL
  6
CONTINUOUS
 62
     5
 10
-141.54879399999999
 20
74.799999999999997
 30
0.0
 11
-188.45120600000001
 21
74.799999999999997
 31
0.0
  0
LINE
  5
4F
  8
DETAIL
  6
CONTINUOUS
 62
     5
 10
-143.16133999999991
 20
100.695229
 30
0.0
 11
-186.83866
 21
100.695229
 31
0.0
  0
ARC
  5
50
  8
DETAIL
  6
CONTINUOUS
 62
     5
 10
-143.16133999999991
 20
97.695228999999998
 30
0.0
 40
3.0
 50
357.0
 51
90.0
  0
LINE
  5
51
  8
DETAIL
  6
CONTINUOUS
 62
     5
 10
-141.30245099999991
 20
75.84299200000001
 30
0.0
 11
-140.1654519999999
 21
97.538220999999993
 31
0.0
  0
LINE
  5
52
  8
DETAIL
  6
CONTINUOUS
 62
     5
 10
0.0
 20
104.241259
 30
0.0
 11
196.66030799999999
 21
104.241259
 31
0.0
  0
ARC
  5
53
  8
DETAIL
  6
CONTINUOUS
 62
     5
 10
169.0
 20
81.5
 30
0.0
 40
6.0
 50
270.0
 51
0.0
  0
LINE
  5
54
  8
DETAIL
  6
CONTINUOUS
 62
     5
 10
175.0
 20
81.5
 30
0.0
 11
175.0
 21
100.5
 31
0.0
  0
LINE
  5
55
  8
DETAIL
  6
CONTINUOUS
 62
     5
 10
175.0
 20
90.504771000000005
 30
0.0
 11
40.0
 21
90.504771000000005
 31
0.0
  0
LINE
  5
56
  8
DETAIL
  6
CONTINUOUS
 62
     5
 10
175.0
 20
92.304770999999988
 30
0.0
 11
40.0
 21
92.304770999999988
 31
0.0
  0
LINE
  5
57
  8
DETAIL
  6
CONTINUOUS
 62
     5
 10
175.0
 20
96.404770999999997
 30
0.0
 11
40.0
 21
96.404770999999997
 31
0.0
  0
LINE
  5
58
  8
DETAIL
  6
CONTINUOUS
 62
     5
 10
175.0
 20
98.204770999999994
 30
0.0
 11
40.0
 21
98.204770999999994
 31
0.0
  0
LINE
  5
59
  8
DETAIL
  6
CONTINUOUS
 62
     5
 10
175.0
 20
85.004770999999991
 30
0.0
 11
40.0
 21
85.004770999999991
 31
0.0
  0
LINE
  5
5A
  8
DETAIL
  6
CONTINUOUS
 62
     5
 10
175.0
 20
86.804771000000002
 30
0.0
 11
40.0
 21
86.804771000000002
 31
0.0
  0
LINE
  5
5B
  8
DETAIL
  6
CONTINUOUS
 62
     5
 10
174.50117099999991
 20
79.104771
 30
0.0
 11
40.498829000000001
 21
79.104771
 31
0.0
  0
LINE
  5
5C
  8
DETAIL
  6
CONTINUOUS
 62
     5
 10
174.97040200000001
 20
80.904770999999997
 30
0.0
 11
40.029598
 21
80.904770999999997
 31
0.0
  0
LINE
  5
5D
  8
DETAIL
  6
CONTINUOUS
 62
     5
 10
0.0
 20
69.47399999999999
 30
0.0
 11
189.92214799999991
 21
69.47399999999999
 31
0.0
  0
LINE
  5
5E
  8
DETAIL
  6
CONTINUOUS
 62
     5
 10
46.0
 20
75.5
 30
0.0
 11
169.0
 21
75.5
 31
0.0
  0
LINE
  5
5F
  8
DETAIL
  6
CONTINUOUS
 62
     5
 10
40.0
 20
100.5
 30
0.0
 11
175.0
 21
100.5
 31
0.0
  0
LINE
  5
60
  8
DETAIL
  6
CONTINUOUS
 62
     5
 10
40.0
 20
81.5
 30
0.0
 11
40.0
 21
100.5
 31
0.0
  0
ARC
  5
61
  8
DETAIL
  6
CONTINUOUS
 62
     5
 10
46.0
 20
81.5
 30
0.0
 40
6.0
 50
180.0
 51
270.0
  0
ARC
  5
62
  8
DETAIL
  6
CONTINUOUS
 62
     5
 10
-186.83866
 20
97.695228999999998
 30
0.0
 40
3.0
 50
90.0
 51
183.0
  0
LINE
  5
63
  8
DETAIL
  6
CONTINUOUS
 62
     5
 10
0.0
 20
104.241259
 30
0.0
 11
-196.66030799999999
 21
104.241259
 31
0.0
  0
ARC
  5
64
  8
DETAIL
  6
CONTINUOUS
 62
     5
 10
-199.0
 20
101.0
 30
0.0
 40
6.0
 50
90.0
 51
180.0
  0
LINE
  5
65
  8
DETAIL
  6
CONTINUOUS
 62
     5
 10
-205.0
 20
-99.0
 30
0.0
 11
-205.0
 21
101.0
 31
0.0
  0
LINE
  5
66
  8
DETAIL
  6
CONTINUOUS
 62
     5
 10
-196.65288799999999
 20
-77.0
 30
0.0
 11
-196.65288799999999
 21
72.487386999999998
 31
0.0
  0
ARC
  5
67
  8
DETAIL
  6
CONTINUOUS
 62
     5
 10
-196.66030799999999
 20
98.660308000000001
 30
0.0
 40
6.0
 50
90.0
 51
180.0
  0
ARC
  5
68
  8
DETAIL
  6
CONTINUOUS
 62
     5
 10
-102.69076200000001
 20
106.709001
 30
0.0
 40
100.0
 50
183.76607899999991
 51
198.52822299999991
  0
ARC
  5
69
  8
DETAIL
  6
CONTINUOUS
 62
     5
 10
-196.66030799999999
 20
98.241258999999999
 30
0.0
 40
6.0
 50
90.0
 51
180.0
  0
LINE
  5
6A
  8
DETAIL
  6
CONTINUOUS
 62
     5
 10
-202.66030799999999
 20
-98.660308000000001
 30
0.0
 11
-202.66030799999999
 21
98.241258999999999
 31
0.0
  0
LINE
  5
6B
  8
DETAIL
  6
CONTINUOUS
 62
     5
 10
0.0
 20
104.660308
 30
0.0
 11
-196.66030799999999
 21
104.660308
 31
0.0
  0
LINE
  5
6C
  8
DETAIL
  6
CONTINUOUS
 62
     5
 10
0.0
 20
107.0
 30
0.0
 11
-199.0
 21
107.0
 31
0.0
  0
ARC
  5
6D
  8
DETAIL
  6
CONTINUOUS
 62
     5
 10
196.66030799999999
 20
98.241258999999999
 30
0.0
 40
6.0
 50
0.0
 51
90.0
  0
ARC
  5
6E
  8
DETAIL
  6
CONTINUOUS
 62
     5
 10
196.66030799999999
 20
98.660308000000001
 30
0.0
 40
6.0
 50
0.0
 51
90.0
  0
ARC
  5
6F
  8
DETAIL
  6
CONTINUOUS
 62
     5
 10
189.92214799999991
 20
77.473999999999975
 30
0.0
 40
8.0
 50
270.0
 51
341.47177699999992
  0
LINE
  5
70
  8
DETAIL
  6
CONTINUOUS
 62
     5
 10
188.99436399999999
 20
-77.0
 30
0.0
 11
188.99436399999999
 21
69.47399999999999
 31
0.0
  0
LINE
  5
71
  8
DETAIL
  6
CONTINUOUS
 62
     5
 10
196.65288799999999
 20
-77.0
 30
0.0
 11
196.65288799999999
 21
72.487386999999998
 31
0.0
  0
ARC
  5
72
  8
DETAIL
  6
CONTINUOUS
 62
     5
 10
102.69076200000001
 20
106.709001
 30
0.0
 40
100.0
 50
341.47177699999992
 51
356.23392100000001
  0
LINE
  5
73
  8
DETAIL
  6
CONTINUOUS
 62
     5
 10
0.0
 20
104.660308
 30
0.0
 11
196.66030799999999
 21
104.660308
 31
0.0
  0
LINE
  5
74
  8
DETAIL
  6
CONTINUOUS
 62
     5
 10
202.66030799999999
 20
-98.660308000000001
 30
0.0
 11
202.66030799999999
 21
98.241258999999999
 31
0.0
  0
ARC
  5
75
  8
DETAIL
  6
CONTINUOUS
 62
     5
 10
199.0
 20
101.0
 30
0.0
 40
6.0
 50
0.0
 51
90.0
  0
LINE
  5
76
  8
DETAIL
  6
CONTINUOUS
 62
     5
 10
0.0
 20
107.0
 30
0.0
 11
199.0
 21
107.0
 31
0.0
  0
LINE
  5
77
  8
DETAIL
  6
CONTINUOUS
 62
     5
 10
205.0
 20
-99.0
 30
0.0
 11
205.0
 21
101.0
 31
0.0
  0
LINE
  5
78
  8
BASIS
  6
DASHDOT
 62
     6
 10
0.0
 20
165.511234
 30
0.0
 11
0.0
 21
-152.4401
 31
0.0
  0
ARC
  5
79
  8
DETAIL
  6
CONTINUOUS
 62
     5
 10
-196.66030799999999
 20
-98.660308000000001
 30
0.0
 40
6.0
 50
180.0
 51
270.0
  0
ARC
  5
7A
  8
DETAIL
  6
CONTINUOUS
 62
     5
 10
-172.66103100000001
 20
-96.452031000000005
 30
0.0
 40
30.0
 50
145.90952699999991
 51
179.60221599999991
  0
ARC
  5
7B
  8
DETAIL
  6
CONTINUOUS
 62
     5
 10
-192.5367169999999
 20
-83.0
 30
0.0
 40
6.0
 50
90.0
 51
145.90952699999991
  0
ARC
  5
7C
  8
DETAIL
  6
CONTINUOUS
 62
     5
 10
192.5367169999999
 20
-83.0
 30
0.0
 40
6.0
 50
34.090472999999989
 51
90.0
  0
ARC
  5
7D
  8
DETAIL
  6
CONTINUOUS
 62
     5
 10
196.66030799999999
 20
-98.660308000000001
 30
0.0
 40
6.0
 50
270.0
 51
0.0
  0
ARC
  5
7E
  8
DETAIL
  6
CONTINUOUS
 62
     5
 10
172.66103100000001
 20
-96.452031000000005
 30
0.0
 40
30.0
 50
0.397784
 51
34.090472999999989
  0
ARC
  5
7F
  8
DETAIL
  6
CONTINUOUS
 62
     5
 10
-197.0
 20
-99.0
 30
0.0
 40
8.0
 50
180.0
 51
270.0
  0
LINE
  5
80
  8
DETAIL
  6
CONTINUOUS
 62
     5
 10
0.0
 20
-104.660308
 30
0.0
 11
-196.66030799999999
 21
-104.660308
 31
0.0
  0
LINE
  5
81
  8
DETAIL
  6
CONTINUOUS
 62
     5
 10
0.0
 20
-77.0
 30
0.0
 11
-192.5367169999999
 21
-77.0
 31
0.0
  0
LINE
  5
82
  8
DETAIL
  6
CONTINUOUS
 62
     5
 10
0.0
 20
-107.0
 30
0.0
 11
-197.0
 21
-107.0
 31
0.0
  0
LINE
  5
83
  8
DETAIL
  6
CONTINUOUS
 62
     5
 10
0.0
 20
-104.660308
 30
0.0
 11
196.66030799999999
 21
-104.660308
 31
0.0
  0
LINE
  5
84
  8
DETAIL
  6
CONTINUOUS
 62
     5
 10
0.0
 20
-77.0
 30
0.0
 11
192.5367169999999
 21
-77.0
 31
0.0
  0
ARC
  5
85
  8
DETAIL
  6
CONTINUOUS
 62
     5
 10
197.0
 20
-99.0
 30
0.0
 40
8.0
 50
270.0
 51
0.0
  0
LINE
  5
86
  8
DETAIL
  6
CONTINUOUS
 62
     5
 10
0.0
 20
-107.0
 30
0.0
 11
197.0
 21
-107.0
 31
0.0
  0
LINE
  5
87
  8
BASIS
  6
DASHDOT
 62
     6
 10
234.20692899999989
 20
0.0
 30
0.0
 11
-232.52004299999999
 21
0.0
 31
0.0
  0
LINE
  5
88
  8
SIZE
  6
CONTINUOUS
 62
    30
 10
219.0
 20
107.0
 30
0.0
 11
370.83069
 21
107.0
 31
0.0
  0
LINE
  5
89
  8
SIZE
  6
CONTINUOUS
 62
    30
 10
217.0
 20
-107.0
 30
0.0
 11
370.83069
 21
-107.0
 31
0.0
  0
LINE
  5
8A
  8
SIZE
  6
CONTINUOUS
 62
    30
 10
350.83069
 20
95.0
 30
0.0
 11
350.83069
 21
-95.0
 31
0.0
  0
CIRCLE
  5
8B
  8
SIZE
  6
CONTINUOUS
 62
    30
 10
350.83069
 20
107.0
 30
0.0
 40
6.0
  0
LINE
  5
8C
  8
SIZE
  6
CONTINUOUS
 62
    30
 10
350.83069
 20
107.0
 30
0.0
 11
350.83069
 21
95.0
 31
0.0
  0
CIRCLE
  5
8D
  8
SIZE
  6
CONTINUOUS
 62
    30
 10
350.83069
 20
-107.0
 30
0.0
 40
6.0
  0
LINE
  5
8E
  8
SIZE
  6
CONTINUOUS
 62
    30
 10
350.83069
 20
-107.0
 30
0.0
 11
350.83069
 21
-95.0
 31
0.0
  0
TEXT
  5
8F
  8
SIZE
  6
CONTINUOUS
 62
    30
 10
325.83069
 20
-69.942857142857122
 30
0.0
 40
64.0
  1
214
 50
90.0
 41
0.9
 72
     1
 11
325.83069
 21
0.0
 31
0.0
  0
POINT
  5
90
  8
DEFPOINTS
  6
CONTINUOUS
 62
    30
 10
199.0
 20
107.0
 30
0.0
  0
POINT
  5
91
  8
DEFPOINTS
  6
CONTINUOUS
 62
    30
 10
197.0
 20
-107.0
 30
0.0
  0
POINT
  5
92
  8
DEFPOINTS
  6
CONTINUOUS
 62
    30
 10
350.83069
 20
-107.0
 30
0.0
  0
LINE
  5
93
  8
SIZE
  6
CONTINUOUS
 62
    30
 10
205.0
 20
121.0
 30
0.0
 11
205.0
 21
222.054169
 31
0.0
  0
LINE
  5
94
  8
SIZE
  6
CONTINUOUS
 62
    30
 10
-205.0
 20
121.0
 30
0.0
 11
-205.0
 21
222.054169
 31
0.0
  0
LINE
  5
95
  8
SIZE
  6
CONTINUOUS
 62
    30
 10
193.0
 20
202.05416899999989
 30
0.0
 11
-193.0
 21
202.05416899999989
 31
0.0
  0
CIRCLE
  5
96
  8
SIZE
  6
CONTINUOUS
 62
    30
 10
205.0
 20
202.05416899999989
 30
0.0
 40
6.0
  0
LINE
  5
97
  8
SIZE
  6
CONTINUOUS
 62
    30
 10
205.0
 20
202.05416899999989
 30
0.0
 11
193.0
 21
202.05416899999989
 31
0.0
  0
CIRCLE
  5
98
  8
SIZE
  6
CONTINUOUS
 62
    30
 10
-205.0
 20
202.05416899999989
 30
0.0
 40
6.0
  0
LINE
  5
99
  8
SIZE
  6
CONTINUOUS
 62
    30
 10
-205.0
 20
202.05416899999989
 30
0.0
 11
-193.0
 21
202.05416899999989
 31
0.0
  0
TEXT
  5
9A
  8
SIZE
  6
CONTINUOUS
 62
    30
 10
-68.571428571428555
 20
227.05416899999989
 30
0.0
 40
64.0
  1
410
 41
0.9
 72
     1
 11
0.0
 21
227.05416899999989
 31
0.0
  0
POINT
  5
9B
  8
DEFPOINTS
  6
CONTINUOUS
 62
    30
 10
205.0
 20
101.0
 30
0.0
  0
POINT
  5
9C
  8
DEFPOINTS
  6
CONTINUOUS
 62
    30
 10
-205.0
 20
101.0
 30
0.0
  0
POINT
  5
9D
  8
DEFPOINTS
  6
CONTINUOUS
 62
    30
 10
-205.0
 20
202.05416899999989
 30
0.0
  0
CIRCLE
  5
A2
  8
ARRANGE
  6
CONTINUOUS
 62
     1
 39
50.0
 10
0.0
 20
0.0
 30
0.0
 40
40.0
  0
POINT
  5
A3
  8
ARRANGE
  6
CONTINUOUS
 62
     1
 10
0.0
 20
0.0
 30
0.0
 39
50.0
  0
LINE
  5
A4
  8
OUTLINE
  6
CONTINUOUS
 62
     3
 10
0.0
 20
-107.0
 30
0.0
 11
197.0
 21
-107.0
 31
0.0
  0
LINE
  5
A5
  8
OUTLINE
  6
CONTINUOUS
 62
     3
 10
0.0
 20
107.0
 30
0.0
 11
199.0
 21
107.0
 31
0.0
  0
LINE
  5
A6
  8
OUTLINE
  6
CONTINUOUS
 62
     3
 10
-205.0
 20
-99.0
 30
0.0
 11
-205.0
 21
101.0
 31
0.0
  0
LINE
  5
A7
  8
OUTLINE
  6
CONTINUOUS
 62
     3
 10
0.0
 20
-107.0
 30
0.0
 11
-197.0
 21
-107.0
 31
0.0
  0
ARC
  5
A8
  8
OUTLINE
  6
CONTINUOUS
 62
     3
 10
-197.0
 20
-99.0
 30
0.0
 40
8.0
 50
180.0
 51
270.0
  0
LINE
  5
A9
  8
OUTLINE
  6
CONTINUOUS
 62
     3
 10
0.0
 20
107.0
 30
0.0
 11
-199.0
 21
107.0
 31
0.0
  0
ARC
  5
AA
  8
OUTLINE
  6
CONTINUOUS
 62
     3
 10
-199.0
 20
101.0
 30
0.0
 40
6.0
 50
90.0
 51
180.0
  0
LINE
  5
AB
  8
OUTLINE
  6
CONTINUOUS
 62
     3
 10
205.0
 20
-99.0
 30
0.0
 11
205.0
 21
101.0
 31
0.0
  0
ARC
  5
AC
  8
OUTLINE
  6
CONTINUOUS
 62
     3
 10
197.0
 20
-99.0
 30
0.0
 40
8.0
 50
270.0
 51
0.0
  0
ARC
  5
AD
  8
OUTLINE
  6
CONTINUOUS
 62
     3
 10
199.0
 20
101.0
 30
0.0
 40
6.0
 50
0.0
 51
90.0
  0
TEXT
  5
DC
  8
ETC
  6
CONTINUOUS
 62
    61
 10
576.68459731242183
 20
-150.3959815174405
 30
0.0
 40
50.0
  1
VL-12JV-DüCVL-12JV-BE-D
 41
0.9
  0
TEXT
  5
DD
  8
ETC
  6
CONTINUOUS
 62
    61
 10
576.68459731242183
 20
-56.08838651744054
 30
0.0
 40
50.0
  1
VL-10JV-DüCVL-10JV-BE-D
 41
0.9
  0
TEXT
  5
DE
  8
ETC
  6
CONTINUOUS
 62
    61
 10
576.68459731242183
 20
144.07468148255941
 30
0.0
 40
50.0
  1
VL-06JV-DüCVL-06JV-BE-D
 41
0.9
  0
TEXT
  5
DF
  8
ETC
  6
CONTINUOUS
 62
    61
 10
576.68459731242183
 20
43.993152482559474
 30
0.0
 40
50.0
  1
VL-08JV-DüCVL-08JV-BE-D
 41
0.9
  0
TEXT
  5
E0
  8
ETC
  6
CONTINUOUS
 62
    61
 10
567.63211806051731
 20
540.67404351205926
 30
0.0
 40
50.0
  1
VL-06JVüCVL-06JV-BE
 41
0.9
  0
TEXT
  5
E1
  8
ETC
  6
CONTINUOUS
 62
    61
 10
567.63211806051731
 20
246.20338051205931
 30
0.0
 40
50.0
  1
VL-12JVüCVL-12JV-BE
 41
0.9
  0
TEXT
  5
E2
  8
ETC
  6
CONTINUOUS
 62
    61
 10
567.63211806051731
 20
440.59251451205932
 30
0.0
 40
50.0
  1
VL-08JVüCVL-08JV-BE
 41
0.9
  0
TEXT
  5
E3
  8
ETC
  6
CONTINUOUS
 62
    61
 10
567.63211806051731
 20
340.5109755120593
 30
0.0
 40
50.0
  1
VL-10JVüCVL-10JV-BE
 41
0.9
  0
ENDSEC
  0
EOF
