  0
SECTION
  2
HEADER
  9
$ACADVER
  1
AC1009
  9
$INSBASE
 10
0.0
 20
0.0
 30
0.0
  9
$EXTMIN
 10
-660.62304400000005
 20
-701.78152699999998
 30
0.0
  9
$EXTMAX
 10
1507.2121977142849
 20
820.36706000000015
 30
50.0
  9
$LIMMIN
 10
-2970.0
 20
-2100.0
  9
$LIMMAX
 10
2970.0
 20
2100.0
  9
$ORTHOMODE
 70
     1
  9
$REGENMODE
 70
     0
  9
$FILLMODE
 70
     1
  9
$QTEXTMODE
 70
     0
  9
$MIRRTEXT
 70
     0
  9
$DRAGMODE
 70
     2
  9
$LTSCALE
 40
20.0
  9
$OSMODE
 70
   167
  9
$ATTMODE
 70
     1
  9
$TEXTSIZE
 40
64.0
  9
$TRACEWID
 40
0.05
  9
$TEXTSTYLE
  7
STANDARD
  9
$CLAYER
  8
0
  9
$CELTYPE
  6
CONTINUOUS
  9
$CECOLOR
 62
    30
  9
$DIMSCALE
 40
1.0
  9
$DIMASZ
 40
12.0
  9
$DIMEXO
 40
20.0
  9
$DIMDLI
 40
200.0
  9
$DIMRND
 40
0.0
  9
$DIMDLE
 40
0.0
  9
$DIMEXE
 40
20.0
  9
$DIMTP
 40
0.0
  9
$DIMTM
 40
0.0
  9
$DIMTXT
 40
64.0
  9
$DIMCEN
 40
0.09
  9
$DIMTSZ
 40
0.0
  9
$DIMTOL
 70
     0
  9
$DIMLIM
 70
     0
  9
$DIMTIH
 70
     0
  9
$DIMTOH
 70
     0
  9
$DIMSE1
 70
     0
  9
$DIMSE2
 70
     0
  9
$DIMTAD
 70
     1
  9
$DIMZIN
 70
     8
  9
$DIMBLK
  1
DOT1
  9
$DIMASO
 70
     1
  9
$DIMSHO
 70
     0
  9
$DIMPOST
  1

  9
$DIMAPOST
  1

  9
$DIMALT
 70
     0
  9
$DIMALTD
 70
     2
  9
$DIMALTF
 40
25.399999999999999
  9
$DIMLFAC
 40
1.0
  9
$DIMTOFL
 70
     1
  9
$DIMTVP
 40
0.0
  9
$DIMTIX
 70
     1
  9
$DIMSOXD
 70
     0
  9
$DIMSAH
 70
     1
  9
$DIMBLK1
  1
ORIGIN
  9
$DIMBLK2
  1
ORIGIN
  9
$DIMSTYLE
  2
STANDARD
  9
$DIMCLRD
 70
     7
  9
$DIMCLRE
 70
     7
  9
$DIMCLRT
 70
     7
  9
$DIMTFAC
 40
1.0
  9
$DIMGAP
 40
25.0
  9
$LUNITS
 70
     2
  9
$LUPREC
 70
     4
  9
$SKETCHINC
 40
0.1
  9
$FILLETRAD
 40
4.0
  9
$AUNITS
 70
     1
  9
$AUPREC
 70
     3
  9
$MENU
  1
ACAD
  9
$ELEVATION
 40
0.0
  9
$PELEVATION
 40
0.0
  9
$THICKNESS
 40
50.0
  9
$LIMCHECK
 70
     0
  9
$BLIPMODE
 70
     0
  9
$CHAMFERA
 40
0.0
  9
$CHAMFERB
 40
0.0
  9
$SKPOLY
 70
     0
  9
$TDCREATE
 40
2452915.6208266309
  9
$TDUPDATE
 40
2454152.8934138068
  9
$TDINDWG
 40
0.0655421412
  9
$TDUSRTIMER
 40
0.0655421412
  9
$USRTIMER
 70
     1
  9
$ANGBASE
 50
0.0
  9
$ANGDIR
 70
     0
  9
$PDMODE
 70
     3
  9
$PDSIZE
 40
-2.0
  9
$PLINEWID
 40
0.0
  9
$COORDS
 70
     0
  9
$SPLFRAME
 70
     0
  9
$SPLINETYPE
 70
     6
  9
$SPLINESEGS
 70
     8
  9
$ATTDIA
 70
     0
  9
$ATTREQ
 70
     1
  9
$HANDLING
 70
 22529
  9
$HANDSEED
  5
18C
  9
$SURFTAB1
 70
     6
  9
$SURFTAB2
 70
     6
  9
$SURFTYPE
 70
     6
  9
$SURFU
 70
     6
  9
$SURFV
 70
     6
  9
$UCSNAME
  2

  9
$UCSORG
 10
0.0
 20
0.0
 30
0.0
  9
$UCSXDIR
 10
1.0
 20
0.0
 30
0.0
  9
$UCSYDIR
 10
0.0
 20
1.0
 30
0.0
  9
$PUCSNAME
  2

  9
$PUCSORG
 10
0.0
 20
0.0
 30
0.0
  9
$PUCSXDIR
 10
1.0
 20
0.0
 30
0.0
  9
$PUCSYDIR
 10
0.0
 20
1.0
 30
0.0
  9
$USERI1
 70
     0
  9
$USERI2
 70
     0
  9
$USERI3
 70
     0
  9
$USERI4
 70
     0
  9
$USERI5
 70
     0
  9
$USERR1
 40
20.0
  9
$USERR2
 40
0.0
  9
$USERR3
 40
0.0
  9
$USERR4
 40
0.0
  9
$USERR5
 40
0.0
  9
$WORLDVIEW
 70
     1
  9
$SHADEDGE
 70
     3
  9
$SHADEDIF
 70
    70
  9
$TILEMODE
 70
     1
  9
$MAXACTVP
 70
    48
  9
$PLIMCHECK
 70
     0
  9
$PEXTMIN
 10
-1.0000000000000000E+020
 20
-1.0000000000000000E+020
 30
-1.0000000000000000E+020
  9
$PEXTMAX
 10
1.0000000000000000E+020
 20
1.0000000000000000E+020
 30
1.0000000000000000E+020
  9
$PLIMMIN
 10
0.0
 20
0.0
  9
$PLIMMAX
 10
12.0
 20
9.0
  9
$UNITMODE
 70
     0
  9
$VISRETAIN
 70
     0
  9
$PLINEGEN
 70
     0
  9
$PSLTSCALE
 70
     0
  0
ENDSEC
  0
SECTION
  2
TABLES
  0
TABLE
  2
VPORT
 70
     3
  0
VPORT
  2
*ACTIVE
 70
     0
 10
0.0
 20
0.0
 11
1.0
 21
1.0
 12
394.3191085841222
 22
59.280405000000201
 13
0.0
 23
0.0
 14
1.0
 24
1.0
 15
0.0
 25
0.0
 16
0.0
 26
0.0
 36
1.0
 17
0.0
 27
0.0
 37
0.0
 40
1534.4181902854859
 41
1.710526315789473
 42
50.0
 43
0.0
 44
0.0
 50
0.0
 51
0.0
 71
     0
 72
  1000
 73
     1
 74
     0
 75
     0
 76
     0
 77
     0
 78
     0
  0
ENDTAB
  0
TABLE
  2
LTYPE
 70
     4
  0
LTYPE
  2
CONTINUOUS
 70
     0
  3
実線
 72
    65
 73
     0
 40
0.0
  0
LTYPE
  2
DASHDOT
 70
     0
  3
____ _ ____ _ ____ _ ____ _ ____ _ ____ _ ____
 72
    65
 73
     4
 40
5.5
 49
4.0
 49
-0.6
 49
0.3
 49
-0.6
  0
LTYPE
  2
DASHED
 70
     0
  3
-- -- -- -- -- -- -- -- -- -- -- -- -- -- --
 72
    65
 73
     2
 40
0.75
 49
0.5
 49
-0.25
  0
LTYPE
  2
DASHED2
 70
     0
  3
Dashed (.5x) _ _ _ _ _ _ _ _ _ _ _ _ _ _ _ _ _
 72
    65
 73
     2
 40
0.375
 49
0.25
 49
-0.125
  0
ENDTAB
  0
TABLE
  2
LAYER
 70
    12
  0
LAYER
  2
0
 70
     0
 62
     7
  6
CONTINUOUS
  0
LAYER
  2
BASIS
 70
     0
 62
     6
  6
DASHDOT
  0
LAYER
  2
OUTLINE
 70
     0
 62
     3
  6
CONTINUOUS
  0
LAYER
  2
DETAIL
 70
     0
 62
     5
  6
CONTINUOUS
  0
LAYER
  2
SIZE
 70
     0
 62
    30
  6
CONTINUOUS
  0
LAYER
  2
ARRANGE
 70
     0
 62
     1
  6
CONTINUOUS
  0
LAYER
  2
DEFPOINTS
 70
     0
 62
     7
  6
CONTINUOUS
  0
LAYER
  2
ETC
 70
     0
 62
    61
  6
CONTINUOUS
  0
LAYER
  2
FIX
 70
     0
 62
    11
  6
CONTINUOUS
  0
LAYER
  2
NOTE
 70
     0
 62
     4
  6
CONTINUOUS
  0
LAYER
  2
SERVICESPACE
 70
     0
 62
     2
  6
DASHDOT
  0
LAYER
  2
SYMBOLLINE
 70
     0
 62
    15
  6
CONTINUOUS
  0
ENDTAB
  0
TABLE
  2
STYLE
 70
     1
  0
STYLE
  2
STANDARD
 70
     0
 40
64.0
 41
0.9
 50
0.0
 71
     0
 42
64.0
  3
SIMPLEX.shx
  4
BIGFONT.shx
  0
ENDTAB
  0
TABLE
  2
VIEW
 70
     1
  0
VIEW
  2
ALL
 70
     0
 40
4282.6198079999986
 10
0.0
 20
41.309903999999989
 41
5940.0
 11
0.0
 21
0.0
 31
1.0
 12
0.0
 22
0.0
 32
0.0
 42
50.0
 43
0.0
 44
0.0
 50
0.0
 71
     0
  0
ENDTAB
  0
TABLE
  2
UCS
 70
     0
  0
ENDTAB
  0
TABLE
  2
APPID
 70
     2
  0
APPID
  2
ACAD
 70
     0
  0
APPID
  2
AUTOCAD_POSTSCRIPT_FIGURE
 70
     0
  0
ENDTAB
  0
TABLE
  2
DIMSTYLE
 70
     1
  0
DIMSTYLE
  2
STANDARD
 70
     0
  3

  4

  5

  6

  7

 40
1.0
 41
0.18
 42
0.0625
 43
0.38
 44
0.18
 45
0.0
 46
0.0
 47
0.0
 48
0.0
140
0.18
141
0.09
142
0.0
143
25.399999999999999
144
1.0
145
0.0
146
1.0
147
0.09
 71
     0
 72
     0
 73
     1
 74
     1
 75
     0
 76
     0
 77
     0
 78
     0
170
     0
171
     2
172
     0
173
     0
174
     0
175
     0
176
     7
177
     7
178
     7
  0
ENDTAB
  0
ENDSEC
  0
SECTION
  2
BLOCKS
  0
BLOCK
  8
0
  2
$MODEL_SPACE
 70
     0
 10
0.0
 20
0.0
 30
0.0
  3
$MODEL_SPACE
  1

  0
ENDBLK
  5
20
  8
0
  0
BLOCK
 67
     1
  8
0
  2
$PAPER_SPACE
 70
     0
 10
0.0
 20
0.0
 30
0.0
  3
$PAPER_SPACE
  1

  0
ENDBLK
  5
1C
 67
     1
  8
0
  0
BLOCK
  8
0
  2
DOT1
 70
     0
 10
0.0
 20
0.0
 30
0.0
  3
DOT1
  1

  0
CIRCLE
  5
38
  8
SIZE
  6
CONTINUOUS
 62
     7
 10
0.0
 20
0.0
 30
0.0
 40
3.0
  0
ENDBLK
  5
39
  8
0
  0
BLOCK
  8
0
  2
_ORIGIN
 70
     0
 10
0.0
 20
0.0
 30
0.0
  3
_ORIGIN
  1

  0
CIRCLE
  5
3C
  8
0
  6
CONTINUOUS
 62
     7
 10
0.0
 20
0.0
 30
0.0
 40
0.5
  0
LINE
  5
3D
  8
0
  6
CONTINUOUS
 62
     7
 10
0.0
 20
0.0
 30
0.0
 11
-1.0
 21
0.0
 31
0.0
  0
ENDBLK
  5
3E
  8
0
  0
BLOCK
  8
0
 62
    30
  2
_NONE
 70
     0
 10
0.0
 20
0.0
 30
0.0
  3
_NONE
  1

  0
ENDBLK
  5
128
  8
0
 62
    30
  0
BLOCK
  8
0
 62
    30
  2
_OPEN30
 70
     0
 10
0.0
 20
0.0
 30
0.0
  3
_OPEN30
  1

  0
LINE
  5
12A
  8
0
  6
BYBLOCK
 62
     0
 10
-1.0
 20
0.26794919
 30
0.0
 11
0.0
 21
0.0
 31
0.0
  0
LINE
  5
12B
  8
0
  6
BYBLOCK
 62
     0
 10
0.0
 20
0.0
 30
0.0
 11
-1.0
 21
-0.26794919
 31
0.0
  0
LINE
  5
12C
  8
0
  6
BYBLOCK
 62
     0
 10
0.0
 20
0.0
 30
0.0
 11
-1.0
 21
0.0
 31
0.0
  0
ENDBLK
  5
12E
  8
0
 62
    30
  0
ENDSEC
  0
SECTION
  2
ENTITIES
  0
LINE
  5
3F
  8
DETAIL
  6
CONTINUOUS
 62
     5
 10
-260.0
 20
-111.0
 30
0.0
 11
260.0
 21
-111.0
 31
0.0
  0
LINE
  5
40
  8
DETAIL
  6
CONTINUOUS
 62
     5
 10
237.43632500000001
 20
-110.0
 30
0.0
 11
260.0
 21
-110.0
 31
0.0
  0
LINE
  5
41
  8
DETAIL
  6
CONTINUOUS
 62
     5
 10
-260.0
 20
-110.0
 30
0.0
 11
237.43632500000001
 21
-110.0
 31
0.0
  0
LINE
  5
43
  8
SIZE
  6
CONTINUOUS
 62
    30
 10
260.0
 20
-131.0
 30
0.0
 11
260.0
 21
-487.36430799999988
 31
0.0
  0
LINE
  5
44
  8
SIZE
  6
CONTINUOUS
 62
    30
 10
-260.0
 20
-131.0
 30
0.0
 11
-260.0
 21
-487.36430799999988
 31
0.0
  0
LINE
  5
45
  8
SIZE
  6
CONTINUOUS
 62
    30
 10
248.0
 20
-467.36430799999988
 30
0.0
 11
-248.0
 21
-467.36430799999988
 31
0.0
  0
CIRCLE
  5
46
  8
SIZE
  6
CONTINUOUS
 62
    30
 10
260.0
 20
-467.36430799999988
 30
0.0
 40
6.0
  0
LINE
  5
47
  8
SIZE
  6
CONTINUOUS
 62
    30
 10
260.0
 20
-467.36430799999988
 30
0.0
 11
248.0
 21
-467.36430799999988
 31
0.0
  0
CIRCLE
  5
48
  8
SIZE
  6
CONTINUOUS
 62
    30
 10
-260.0
 20
-467.36430799999988
 30
0.0
 40
6.0
  0
LINE
  5
49
  8
SIZE
  6
CONTINUOUS
 62
    30
 10
-260.0
 20
-467.36430799999988
 30
0.0
 11
-248.0
 21
-467.36430799999988
 31
0.0
  0
TEXT
  5
4A
  8
SIZE
  6
CONTINUOUS
 62
    30
 10
-74.05714285714285
 20
-442.36430799999988
 30
0.0
 40
64.0
  1
520
 41
0.9
 72
     1
 11
0.0
 21
-442.36430799999988
 31
0.0
  0
LINE
  5
4E
  8
SIZE
  6
CONTINUOUS
 62
    30
 10
271.50685199999992
 20
-185.0
 30
0.0
 11
636.61596399999985
 21
-185.0
 31
0.0
  0
LINE
  5
4F
  8
SIZE
  6
CONTINUOUS
 62
    30
 10
272.0
 20
0.0
 30
0.0
 11
636.61596399999985
 21
0.0
 31
0.0
  0
LINE
  5
50
  8
SIZE
  6
CONTINUOUS
 62
    30
 10
616.61596399999996
 20
-197.0
 30
0.0
 11
616.61596399999996
 21
-209.0
 31
0.0
  0
LINE
  5
51
  8
SIZE
  6
CONTINUOUS
 62
    30
 10
616.61596399999996
 20
12.0
 30
0.0
 11
616.61596399999996
 21
24.0
 31
0.0
  0
LINE
  5
52
  8
SIZE
  6
CONTINUOUS
 62
    30
 10
616.61596399999996
 20
-185.0
 30
0.0
 11
616.61596399999996
 21
0.0
 31
0.0
  0
CIRCLE
  5
53
  8
SIZE
  6
CONTINUOUS
 62
    30
 10
616.61596399999996
 20
-185.0
 30
0.0
 40
6.0
  0
LINE
  5
54
  8
SIZE
  6
CONTINUOUS
 62
    30
 10
616.61596399999996
 20
-185.0
 30
0.0
 11
616.61596399999996
 21
-197.0
 31
0.0
  0
CIRCLE
  5
55
  8
SIZE
  6
CONTINUOUS
 62
    30
 10
616.61596399999996
 20
0.0
 30
0.0
 40
6.0
  0
LINE
  5
56
  8
SIZE
  6
CONTINUOUS
 62
    30
 10
616.61596399999996
 20
0.0
 30
0.0
 11
616.61596399999996
 21
12.0
 31
0.0
  0
TEXT
  5
57
  8
SIZE
  6
CONTINUOUS
 62
    30
 10
591.61596399999996
 20
-161.0714285714285
 30
0.0
 40
64.0
  1
185
 50
90.0
 41
0.9
 72
     1
 11
591.61596399999996
 21
-92.5
 31
0.0
  0
LINE
  5
5B
  8
DETAIL
  6
CONTINUOUS
 62
     5
 10
-251.50685200000001
 20
-185.0
 30
0.0
 11
251.50685200000001
 21
-185.0
 31
0.0
  0
ARC
  5
5C
  8
DETAIL
  6
CONTINUOUS
 62
     5
 10
-251.50685200000001
 20
-180.0
 30
0.0
 40
5.0
 50
183.0
 51
270.0
  0
LINE
  5
5D
  8
DETAIL
  6
CONTINUOUS
 62
     5
 39
50.0
 10
-252.0
 20
0.0
 30
0.0
 11
252.0
 21
0.0
 31
0.0
  0
ARC
  5
5E
  8
DETAIL
  6
CONTINUOUS
 62
     5
 10
251.50685200000001
 20
-180.0
 30
0.0
 40
5.0
 50
270.0
 51
357.0
  0
LINE
  5
5F
  8
SIZE
  6
CONTINUOUS
 62
    30
 10
252.0
 20
20.0
 30
0.0
 11
252.0
 21
731.98098200000004
 31
0.0
  0
LINE
  5
60
  8
SIZE
  6
CONTINUOUS
 62
    30
 10
-252.0
 20
20.0
 30
0.0
 11
-252.0
 21
731.98098200000004
 31
0.0
  0
LINE
  5
61
  8
SIZE
  6
CONTINUOUS
 62
    30
 10
240.0
 20
711.98098200000004
 30
0.0
 11
-240.0
 21
711.98098200000004
 31
0.0
  0
CIRCLE
  5
62
  8
SIZE
  6
CONTINUOUS
 62
    30
 10
252.0
 20
711.98098200000004
 30
0.0
 40
6.0
  0
LINE
  5
63
  8
SIZE
  6
CONTINUOUS
 62
    30
 10
252.0
 20
711.98098200000004
 30
0.0
 11
240.0
 21
711.98098200000004
 31
0.0
  0
CIRCLE
  5
64
  8
SIZE
  6
CONTINUOUS
 62
    30
 10
-252.0
 20
711.98098200000004
 30
0.0
 40
6.0
  0
LINE
  5
65
  8
SIZE
  6
CONTINUOUS
 62
    30
 10
-252.0
 20
711.98098200000004
 30
0.0
 11
-240.0
 21
711.98098200000004
 31
0.0
  0
TEXT
  5
66
  8
SIZE
  6
CONTINUOUS
 62
    30
 10
-75.428571428571416
 20
736.98098200000004
 30
0.0
 40
64.0
  1
504
 41
0.9
 72
     1
 11
0.0
 21
736.98098200000004
 31
0.0
  0
CIRCLE
  5
6A
  8
ARRANGE
  6
CONTINUOUS
 62
     1
 39
50.0
 10
0.0
 20
0.0
 30
0.0
 40
40.0
  0
POINT
  5
6B
  8
ARRANGE
  6
CONTINUOUS
 62
     1
 10
0.0
 20
0.0
 30
0.0
 39
50.0
  0
LINE
  5
6C
  8
SERVICESPACE
  6
DASHDOT
 62
     2
 10
310.0
 20
67.5
 30
0.0
 11
310.0
 21
-307.5
 31
0.0
  0
LINE
  5
6D
  8
NOTE
  6
CONTINUOUS
 62
     4
 10
-210.49999999999989
 20
-20.0
 30
0.0
 11
-210.49999999999989
 21
20.0
 31
0.0
  0
LINE
  5
6E
  8
NOTE
  6
CONTINUOUS
 62
     4
 10
-230.5
 20
0.0
 30
0.0
 11
-190.5
 21
0.0
 31
0.0
  0
CIRCLE
  5
6F
  8
FIX
  6
CONTINUOUS
 62
    11
 10
-210.49999999999989
 20
0.0
 30
0.0
 40
3.0
  0
LINE
  5
70
  8
NOTE
  6
CONTINUOUS
 62
     4
 10
-150.0
 20
-20.0
 30
0.0
 11
-150.0
 21
20.0
 31
0.0
  0
LINE
  5
71
  8
NOTE
  6
CONTINUOUS
 62
     4
 10
-170.0
 20
0.0
 30
0.0
 11
-130.0
 21
0.0
 31
0.0
  0
CIRCLE
  5
72
  8
FIX
  6
CONTINUOUS
 62
    11
 10
-150.0
 20
0.0
 30
0.0
 40
3.0
  0
LINE
  5
73
  8
NOTE
  6
CONTINUOUS
 62
     4
 10
-100.0
 20
-20.0
 30
0.0
 11
-100.0
 21
20.0
 31
0.0
  0
LINE
  5
74
  8
NOTE
  6
CONTINUOUS
 62
     4
 10
-120.0
 20
0.0
 30
0.0
 11
-80.0
 21
0.0
 31
0.0
  0
CIRCLE
  5
75
  8
FIX
  6
CONTINUOUS
 62
    11
 10
-100.0
 20
0.0
 30
0.0
 40
3.0
  0
LINE
  5
76
  8
NOTE
  6
CONTINUOUS
 62
     4
 10
100.0
 20
-20.0
 30
0.0
 11
100.0
 21
20.0
 31
0.0
  0
LINE
  5
77
  8
NOTE
  6
CONTINUOUS
 62
     4
 10
120.0
 20
0.0
 30
0.0
 11
80.0
 21
0.0
 31
0.0
  0
LINE
  5
78
  8
NOTE
  6
CONTINUOUS
 62
     4
 10
150.0
 20
-20.0
 30
0.0
 11
150.0
 21
20.0
 31
0.0
  0
LINE
  5
79
  8
NOTE
  6
CONTINUOUS
 62
     4
 10
170.0
 20
0.0
 30
0.0
 11
130.0
 21
0.0
 31
0.0
  0
LINE
  5
7A
  8
NOTE
  6
CONTINUOUS
 62
     4
 10
184.0
 20
-20.0
 30
0.0
 11
184.0
 21
20.0
 31
0.0
  0
LINE
  5
7B
  8
NOTE
  6
CONTINUOUS
 62
     4
 10
204.0
 20
0.0
 30
0.0
 11
164.0
 21
0.0
 31
0.0
  0
CIRCLE
  5
7C
  8
FIX
  6
CONTINUOUS
 62
    11
 10
184.0
 20
0.0
 30
0.0
 40
3.0
  0
CIRCLE
  5
7D
  8
FIX
  6
CONTINUOUS
 62
    11
 10
150.0
 20
0.0
 30
0.0
 40
3.0
  0
CIRCLE
  5
7E
  8
FIX
  6
CONTINUOUS
 62
    11
 10
100.0
 20
0.0
 30
0.0
 40
3.0
  0
LINE
  5
7F
  8
NOTE
  6
CONTINUOUS
 62
     4
 10
234.0
 20
-20.0
 30
0.0
 11
234.0
 21
20.0
 31
0.0
  0
LINE
  5
80
  8
NOTE
  6
CONTINUOUS
 62
     4
 10
254.0
 20
0.0
 30
0.0
 11
214.0
 21
0.0
 31
0.0
  0
LINE
  5
81
  8
SIZE
  6
CONTINUOUS
 62
    30
 10
272.0
 20
0.0
 30
0.0
 11
754.69069999999999
 21
0.0
 31
0.0
  0
LINE
  5
82
  8
SIZE
  6
CONTINUOUS
 62
    30
 10
20.0
 20
82.0
 30
0.0
 11
754.69069999999999
 21
82.0
 31
0.0
  0
LINE
  5
83
  8
SIZE
  6
CONTINUOUS
 62
    30
 10
734.69069999999988
 20
12.0
 30
0.0
 11
734.69069999999988
 21
70.0
 31
0.0
  0
LINE
  5
84
  8
SIZE
  6
CONTINUOUS
 62
    30
 10
734.69069999999988
 20
534.28486099999986
 30
0.0
 11
734.69069999999988
 21
82.0
 31
0.0
  0
TEXT
  5
85
  8
SIZE
  6
CONTINUOUS
 62
    30
 10
709.69069999999988
 20
138.45057514285719
 30
0.0
 40
64.0
  1
50～1000
 50
90.0
 41
0.9
 72
     1
 11
709.69069999999988
 21
323.86771800000002
 31
0.0
  0
CIRCLE
  5
86
  8
SIZE
  6
CONTINUOUS
 62
    30
 10
734.69069999999988
 20
0.0
 30
0.0
 40
6.0
  0
LINE
  5
87
  8
SIZE
  6
CONTINUOUS
 62
    30
 10
734.69069999999988
 20
0.0
 30
0.0
 11
734.69069999999988
 21
12.0
 31
0.0
  0
CIRCLE
  5
88
  8
SIZE
  6
CONTINUOUS
 62
    30
 10
734.69069999999988
 20
82.0
 30
0.0
 40
6.0
  0
LINE
  5
89
  8
SIZE
  6
CONTINUOUS
 62
    30
 10
734.69069999999988
 20
82.0
 30
0.0
 11
734.69069999999988
 21
70.0
 31
0.0
  0
LINE
  5
8D
  8
DETAIL
  6
CONTINUOUS
 62
     5
 10
-260.0
 20
-111.0
 30
0.0
 11
-256.49999999999989
 21
-180.26168000000001
 31
0.0
  0
LINE
  5
8E
  8
DETAIL
  6
CONTINUOUS
 62
     5
 10
260.0
 20
-111.0
 30
0.0
 11
256.49999999999989
 21
-180.26168000000001
 31
0.0
  0
LINE
  5
8F
  8
SIZE
  6
CONTINUOUS
 62
    30
 10
100.0
 20
40.0
 30
0.0
 11
100.0
 21
458.72048799999988
 31
0.0
  0
LINE
  5
90
  8
SIZE
  6
CONTINUOUS
 62
    30
 10
-100.0
 20
40.0
 30
0.0
 11
-100.0
 21
458.72048799999988
 31
0.0
  0
LINE
  5
91
  8
SIZE
  6
CONTINUOUS
 62
    30
 10
88.0
 20
438.72048799999988
 30
0.0
 11
-88.0
 21
438.72048799999988
 31
0.0
  0
CIRCLE
  5
92
  8
SIZE
  6
CONTINUOUS
 62
    30
 10
100.0
 20
438.72048799999988
 30
0.0
 40
6.0
  0
LINE
  5
93
  8
SIZE
  6
CONTINUOUS
 62
    30
 10
100.0
 20
438.72048799999988
 30
0.0
 11
88.0
 21
438.72048799999988
 31
0.0
  0
CIRCLE
  5
94
  8
SIZE
  6
CONTINUOUS
 62
    30
 10
-100.0
 20
438.72048799999988
 30
0.0
 40
6.0
  0
LINE
  5
95
  8
SIZE
  6
CONTINUOUS
 62
    30
 10
-100.0
 20
438.72048799999988
 30
0.0
 11
-88.0
 21
438.72048799999988
 31
0.0
  0
TEXT
  5
96
  8
SIZE
  6
CONTINUOUS
 62
    30
 10
-74.05714285714285
 20
463.72048799999988
 30
0.0
 40
64.0
  1
200
 41
0.9
 72
     1
 11
0.0
 21
463.72048799999988
 31
0.0
  0
LINE
  5
9A
  8
SIZE
  6
CONTINUOUS
 62
    30
 10
150.0
 20
40.0
 30
0.0
 11
150.0
 21
592.86687400000005
 31
0.0
  0
LINE
  5
9B
  8
SIZE
  6
CONTINUOUS
 62
    30
 10
-150.0
 20
40.0
 30
0.0
 11
-150.0
 21
592.86687400000005
 31
0.0
  0
LINE
  5
9C
  8
SIZE
  6
CONTINUOUS
 62
    30
 10
138.0
 20
572.86687400000005
 30
0.0
 11
-138.0
 21
572.86687400000005
 31
0.0
  0
CIRCLE
  5
9D
  8
SIZE
  6
CONTINUOUS
 62
    30
 10
150.0
 20
572.86687400000005
 30
0.0
 40
6.0
  0
LINE
  5
9E
  8
SIZE
  6
CONTINUOUS
 62
    30
 10
150.0
 20
572.86687400000005
 30
0.0
 11
138.0
 21
572.86687400000005
 31
0.0
  0
CIRCLE
  5
9F
  8
SIZE
  6
CONTINUOUS
 62
    30
 10
-150.0
 20
572.86687400000005
 30
0.0
 40
6.0
  0
LINE
  5
A0
  8
SIZE
  6
CONTINUOUS
 62
    30
 10
-150.0
 20
572.86687400000005
 30
0.0
 11
-138.0
 21
572.86687400000005
 31
0.0
  0
TEXT
  5
A1
  8
SIZE
  6
CONTINUOUS
 62
    30
 10
-74.05714285714285
 20
597.86687400000005
 30
0.0
 40
64.0
  1
300
 41
0.9
 72
     1
 11
0.0
 21
597.86687400000005
 31
0.0
  0
LINE
  5
A5
  8
SIZE
  6
CONTINUOUS
 62
    30
 10
0.0
 20
110.916112
 30
0.0
 11
0.0
 21
250.869314
 31
0.0
  0
LINE
  5
A6
  8
SIZE
  6
CONTINUOUS
 62
    30
 10
184.0
 20
40.0
 30
0.0
 11
184.0
 21
250.869314
 31
0.0
  0
LINE
  5
A7
  8
SIZE
  6
CONTINUOUS
 62
    30
 10
12.0
 20
230.86931399999989
 30
0.0
 11
172.0
 21
230.86931399999989
 31
0.0
  0
LINE
  5
A8
  8
SIZE
  6
CONTINUOUS
 62
    30
 10
447.87216899999999
 20
230.86931399999989
 30
0.0
 11
184.0
 21
230.86931399999989
 31
0.0
  0
TEXT
  5
A9
  8
SIZE
  6
CONTINUOUS
 62
    30
 10
282.98645485714292
 20
255.86931399999989
 30
0.0
 40
64.0
  1
184
 41
0.9
 72
     1
 11
352.92931199999998
 21
255.86931399999989
 31
0.0
  0
CIRCLE
  5
AA
  8
SIZE
  6
CONTINUOUS
 62
    30
 10
0.0
 20
230.86931399999989
 30
0.0
 40
6.0
  0
LINE
  5
AB
  8
SIZE
  6
CONTINUOUS
 62
    30
 10
0.0
 20
230.86931399999989
 30
0.0
 11
12.0
 21
230.86931399999989
 31
0.0
  0
CIRCLE
  5
AC
  8
SIZE
  6
CONTINUOUS
 62
    30
 10
184.0
 20
230.86931399999989
 30
0.0
 40
6.0
  0
LINE
  5
AD
  8
SIZE
  6
CONTINUOUS
 62
    30
 10
184.0
 20
230.86931399999989
 30
0.0
 11
172.0
 21
230.86931399999989
 31
0.0
  0
LINE
  5
B1
  8
SIZE
  6
CONTINUOUS
 62
    30
 10
0.0
 20
110.916112
 30
0.0
 11
0.0
 21
250.869314
 31
0.0
  0
LINE
  5
B2
  8
SIZE
  6
CONTINUOUS
 62
    30
 10
-210.49999999999989
 20
40.0
 30
0.0
 11
-210.49999999999989
 21
250.869314
 31
0.0
  0
LINE
  5
B3
  8
SIZE
  6
CONTINUOUS
 62
    30
 10
-12.0
 20
230.86931399999989
 30
0.0
 11
-198.5
 21
230.86931399999989
 31
0.0
  0
LINE
  5
B4
  8
SIZE
  6
CONTINUOUS
 62
    30
 10
-527.81429500000002
 20
230.86931399999989
 30
0.0
 11
-210.49999999999989
 21
230.86931399999989
 31
0.0
  0
TEXT
  5
B5
  8
SIZE
  6
CONTINUOUS
 62
    30
 10
-502.81429471428561
 20
255.86931399999989
 30
0.0
 40
64.0
  1
210.5
 41
0.9
 72
     1
 11
-393.10000899999989
 21
255.86931399999989
 31
0.0
  0
CIRCLE
  5
B6
  8
SIZE
  6
CONTINUOUS
 62
    30
 10
0.0
 20
230.86931399999989
 30
0.0
 40
6.0
  0
LINE
  5
B7
  8
SIZE
  6
CONTINUOUS
 62
    30
 10
0.0
 20
230.86931399999989
 30
0.0
 11
-12.0
 21
230.86931399999989
 31
0.0
  0
CIRCLE
  5
B8
  8
SIZE
  6
CONTINUOUS
 62
    30
 10
-210.49999999999989
 20
230.86931399999989
 30
0.0
 40
6.0
  0
LINE
  5
B9
  8
SIZE
  6
CONTINUOUS
 62
    30
 10
-210.49999999999989
 20
230.86931399999989
 30
0.0
 11
-198.5
 21
230.86931399999989
 31
0.0
  0
TEXT
  5
BD
  8
NOTE
  6
CONTINUOUS
 62
     4
 10
318.512202
 20
117.35407099999991
 30
0.0
 40
64.0
  1
EL
 41
0.9
  0
LINE
  5
BE
  8
NOTE
  6
CONTINUOUS
 62
     4
 10
418.53211099999999
 20
96.466661000000002
 30
0.0
 11
303.31719399999992
 21
96.466661000000002
 31
0.0
  0
LINE
  5
BF
  8
NOTE
  6
CONTINUOUS
 62
     4
 10
-646.59834599999999
 20
95.715866000000005
 30
0.0
 11
-328.356088
 21
95.715866000000005
 31
0.0
  0
TEXT
  5
C0
  8
NOTE
  6
CONTINUOUS
 62
     4
 10
-622.54833299999984
 20
118.720274
 30
0.0
 40
64.0
  1
53-φ6
 41
0.9
  0
LINE
  5
C1
  8
NOTE
  6
CONTINUOUS
 62
     4
 10
234.0
 20
0.0
 30
0.0
 11
303.31719399999992
 21
96.466661000000002
 31
0.0
  0
LINE
  5
C2
  8
NOTE
  6
CONTINUOUS
 62
     4
 10
248.776791
 20
37.170504999999999
 30
0.0
 11
234.0
 21
0.0
 31
0.0
  0
LINE
  5
C3
  8
NOTE
  6
CONTINUOUS
 62
     4
 10
234.0
 20
0.0
 30
0.0
 11
265.38232900000003
 21
24.802205999999991
 31
0.0
  0
LINE
  5
C4
  8
NOTE
  6
CONTINUOUS
 62
     4
 10
-210.49999999999989
 20
0.0
 30
0.0
 11
-328.356088
 21
95.715866000000005
 31
0.0
  0
LINE
  5
C5
  8
NOTE
  6
CONTINUOUS
 62
     4
 10
-246.917789
 20
16.54523
 30
0.0
 11
-210.49999999999989
 21
0.0
 31
0.0
  0
LINE
  5
C6
  8
NOTE
  6
CONTINUOUS
 62
     4
 10
-210.49999999999989
 20
0.0
 30
0.0
 11
-233.7661149999999
 21
32.537483999999999
 31
0.0
  0
TEXT
  5
D0
  8
NOTE
  6
CONTINUOUS
 62
     4
 10
835.54666299999997
 20
254.75035899999989
 30
0.0
 40
64.0
  1
壁厚
 50
90.0
 41
0.9
  0
LINE
  5
D1
  8
DETAIL
  6
DASHED
 62
     5
 10
55.0
 20
82.0
 30
0.0
 11
55.0
 21
0.0
 31
0.0
  0
LINE
  5
D2
  8
DETAIL
  6
DASHED
 62
     5
 10
-55.0
 20
82.0
 30
0.0
 11
-55.0
 21
0.0
 31
0.0
  0
LINE
  5
D3
  8
DETAIL
  6
CONTINUOUS
 62
     5
 10
-51.0
 20
33.578651999999998
 30
0.0
 11
-2.149999999999999
 21
33.578651999999998
 31
0.0
  0
LINE
  5
D4
  8
DETAIL
  6
CONTINUOUS
 62
     5
 10
-57.0
 20
28.0
 30
0.0
 11
57.0
 21
28.0
 31
0.0
  0
LINE
  5
D5
  8
DETAIL
  6
DASHED2
 62
     5
 10
-51.0
 20
0.8
 30
0.0
 11
-51.0
 21
26.981999999999989
 31
0.0
  0
LINE
  5
D6
  8
DETAIL
  6
CONTINUOUS
 62
     5
 10
-57.0
 20
0.0
 30
0.0
 11
-57.0
 21
28.0
 31
0.0
  0
LINE
  5
D7
  8
DETAIL
  6
CONTINUOUS
 62
     5
 10
-51.0
 20
26.981999999999989
 30
0.0
 11
-51.0
 21
33.578651999999998
 31
0.0
  0
LINE
  5
D8
  8
DETAIL
  6
CONTINUOUS
 62
     5
 10
2.149999999999999
 20
33.578651999999998
 30
0.0
 11
51.0
 21
33.578651999999998
 31
0.0
  0
LINE
  5
D9
  8
DETAIL
  6
DASHED2
 62
     5
 10
-1.5520240000000001
 20
0.0
 30
0.0
 11
-2.0325250000000001
 21
26.981999999999989
 31
0.0
  0
LINE
  5
DA
  8
DETAIL
  6
DASHED2
 62
     5
 10
1.5520240000000001
 20
0.0
 30
0.0
 11
2.0325250000000001
 21
26.981999999999989
 31
0.0
  0
LINE
  5
DB
  8
DETAIL
  6
CONTINUOUS
 62
     5
 10
-2.0325250000000001
 20
26.981999999999989
 30
0.0
 11
-2.149999999999999
 21
33.578651999999998
 31
0.0
  0
LINE
  5
DC
  8
DETAIL
  6
CONTINUOUS
 62
     5
 10
2.0325250000000001
 20
26.981999999999989
 30
0.0
 11
2.149999999999999
 21
33.578651999999998
 31
0.0
  0
LINE
  5
DD
  8
DETAIL
  6
DASHED2
 62
     5
 10
51.0
 20
0.8
 30
0.0
 11
51.0
 21
26.981999999999989
 31
0.0
  0
LINE
  5
DE
  8
DETAIL
  6
CONTINUOUS
 62
     5
 10
57.0
 20
0.0
 30
0.0
 11
57.0
 21
28.0
 31
0.0
  0
LINE
  5
DF
  8
DETAIL
  6
CONTINUOUS
 62
     5
 10
51.0
 20
26.981999999999989
 30
0.0
 11
51.0
 21
33.578651999999998
 31
0.0
  0
ARC
  5
E0
  8
DETAIL
  6
DASHED
 62
     5
 10
-27.5
 20
28.902096
 30
0.0
 40
59.796632999999993
 50
62.619853999999997
 51
117.3801459999999
  0
ARC
  5
E1
  8
DETAIL
  6
DASHED
 62
     5
 10
27.5
 20
28.902096
 30
0.0
 40
59.796632999999993
 50
62.619853999999997
 51
117.3801459999999
  0
ARC
  5
E2
  8
DETAIL
  6
DASHED
 62
     5
 10
27.5
 20
135.097904
 30
0.0
 40
59.796632999999993
 50
242.619854
 51
297.38014599999991
  0
LINE
  5
E3
  8
SIZE
  6
CONTINUOUS
 62
    30
 10
57.0
 20
48.0
 30
0.0
 11
57.0
 21
335.20706300000001
 31
0.0
  0
LINE
  5
E4
  8
SIZE
  6
CONTINUOUS
 62
    30
 10
-57.0
 20
48.0
 30
0.0
 11
-57.0
 21
335.20706300000001
 31
0.0
  0
LINE
  5
E5
  8
SIZE
  6
CONTINUOUS
 62
    30
 10
69.0
 20
315.20706300000001
 30
0.0
 11
81.0
 21
315.20706300000001
 31
0.0
  0
LINE
  5
E6
  8
SIZE
  6
CONTINUOUS
 62
    30
 10
-69.0
 20
315.20706300000001
 30
0.0
 11
-81.0
 21
315.20706300000001
 31
0.0
  0
LINE
  5
E7
  8
SIZE
  6
CONTINUOUS
 62
    30
 10
57.0
 20
315.20706300000001
 30
0.0
 11
-57.0
 21
315.20706300000001
 31
0.0
  0
CIRCLE
  5
E8
  8
SIZE
  6
CONTINUOUS
 62
    30
 10
57.0
 20
315.20706300000001
 30
0.0
 40
6.0
  0
LINE
  5
E9
  8
SIZE
  6
CONTINUOUS
 62
    30
 10
57.0
 20
315.20706300000001
 30
0.0
 11
69.0
 21
315.20706300000001
 31
0.0
  0
CIRCLE
  5
EA
  8
SIZE
  6
CONTINUOUS
 62
    30
 10
-57.0
 20
315.20706300000001
 30
0.0
 40
6.0
  0
LINE
  5
EB
  8
SIZE
  6
CONTINUOUS
 62
    30
 10
-57.0
 20
315.20706300000001
 30
0.0
 11
-69.0
 21
315.20706300000001
 31
0.0
  0
TEXT
  5
EC
  8
SIZE
  6
CONTINUOUS
 62
    30
 10
-104.77714285714281
 20
340.20706300000001
 30
0.0
 40
64.0
  1
φ114
 41
0.9
 72
     1
 11
0.0
 21
340.20706300000001
 31
0.0
  0
LINE
  5
F0
  8
SIZE
  6
CONTINUOUS
 62
    30
 10
0.0
 20
-272.19507700000003
 30
0.0
 11
0.0
 21
-617.43372899999986
 31
0.0
  0
LINE
  5
F1
  8
SIZE
  6
CONTINUOUS
 62
    30
 10
310.0
 20
-327.49999999999989
 30
0.0
 11
310.0
 21
-617.43372899999986
 31
0.0
  0
LINE
  5
F2
  8
SIZE
  6
CONTINUOUS
 62
    30
 10
12.0
 20
-597.43372899999997
 30
0.0
 11
298.0
 21
-597.43372899999997
 31
0.0
  0
LINE
  5
F3
  8
SIZE
  6
CONTINUOUS
 62
    30
 10
652.58567000000005
 20
-597.43372899999997
 30
0.0
 11
310.0
 21
-597.43372899999997
 31
0.0
  0
TEXT
  5
F4
  8
SIZE
  6
CONTINUOUS
 62
    30
 10
490.44281342857141
 20
-572.43372899999997
 30
0.0
 40
64.0
  1
310
 41
0.9
 72
     1
 11
559.01424199999985
 21
-572.43372899999997
 31
0.0
  0
CIRCLE
  5
F5
  8
SIZE
  6
CONTINUOUS
 62
    30
 10
0.0
 20
-597.43372899999997
 30
0.0
 40
6.0
  0
LINE
  5
F6
  8
SIZE
  6
CONTINUOUS
 62
    30
 10
0.0
 20
-597.43372899999997
 30
0.0
 11
12.0
 21
-597.43372899999997
 31
0.0
  0
CIRCLE
  5
F7
  8
SIZE
  6
CONTINUOUS
 62
    30
 10
310.0
 20
-597.43372899999997
 30
0.0
 40
6.0
  0
LINE
  5
F8
  8
SIZE
  6
CONTINUOUS
 62
    30
 10
310.0
 20
-597.43372899999997
 30
0.0
 11
298.0
 21
-597.43372899999997
 31
0.0
  0
TEXT
  5
FC
  8
NOTE
  6
CONTINUOUS
 62
     4
 10
32.460755999999989
 20
-701.78152699999987
 30
0.0
 40
64.0
  1
右側壁より310以上
 41
0.9
  0
TEXT
  5
FD
  8
NOTE
  6
CONTINUOUS
 62
     4
 10
-660.62304400000005
 20
-701.78152699999987
 30
0.0
 40
64.0
  1
左側壁より310以上
 41
0.9
  0
LINE
  5
FE
  8
SIZE
  6
CONTINUOUS
 62
    30
 10
272.0
 20
0.0
 30
0.0
 11
636.61596399999985
 21
0.0
 31
0.0
  0
LINE
  5
FF
  8
SIZE
  6
CONTINUOUS
 62
    30
 10
77.0
 20
28.0
 30
0.0
 11
636.61596399999985
 21
28.0
 31
0.0
  0
LINE
  5
100
  8
SIZE
  6
CONTINUOUS
 62
    30
 10
616.61596399999996
 20
-12.0
 30
0.0
 11
616.61596399999996
 21
-24.0
 31
0.0
  0
LINE
  5
101
  8
SIZE
  6
CONTINUOUS
 62
    30
 10
616.61596399999996
 20
40.0
 30
0.0
 11
616.61596399999996
 21
52.0
 31
0.0
  0
LINE
  5
102
  8
SIZE
  6
CONTINUOUS
 62
    30
 10
616.61596399999996
 20
230.16951800000001
 30
0.0
 11
616.61596399999996
 21
28.0
 31
0.0
  0
TEXT
  5
103
  8
SIZE
  6
CONTINUOUS
 62
    30
 10
591.61596399999996
 20
111.9123755714285
 30
0.0
 40
64.0
  1
28
 50
90.0
 41
0.9
 72
     1
 11
591.61596399999996
 21
158.5409469999999
 31
0.0
  0
LINE
  5
104
  8
SIZE
  6
CONTINUOUS
 62
    30
 10
616.61596399999996
 20
0.0
 30
0.0
 11
616.61596399999996
 21
28.0
 31
0.0
  0
LINE
  5
105
  8
SIZE
  6
CONTINUOUS
 62
    30
 10
616.61596399999996
 20
0.0
 30
0.0
 11
616.61596399999996
 21
28.0
 31
0.0
  0
CIRCLE
  5
106
  8
SIZE
  6
CONTINUOUS
 62
    30
 10
616.61596399999996
 20
0.0
 30
0.0
 40
6.0
  0
LINE
  5
107
  8
SIZE
  6
CONTINUOUS
 62
    30
 10
616.61596399999996
 20
0.0
 30
0.0
 11
616.61596399999996
 21
-12.0
 31
0.0
  0
CIRCLE
  5
108
  8
SIZE
  6
CONTINUOUS
 62
    30
 10
616.61596399999996
 20
28.0
 30
0.0
 40
6.0
  0
LINE
  5
109
  8
SIZE
  6
CONTINUOUS
 62
    30
 10
616.61596399999996
 20
28.0
 30
0.0
 11
616.61596399999996
 21
40.0
 31
0.0
  0
LINE
  5
10D
  8
SERVICESPACE
  6
DASHDOT
 62
     2
 10
-310.0
 20
67.5
 30
0.0
 11
-310.0
 21
-307.5
 31
0.0
  0
LINE
  5
10E
  8
SIZE
  6
CONTINUOUS
 62
    30
 10
0.0
 20
-272.19507700000003
 30
0.0
 11
0.0
 21
-617.43372899999986
 31
0.0
  0
LINE
  5
10F
  8
SIZE
  6
CONTINUOUS
 62
    30
 10
-310.0
 20
-327.49999999999989
 30
0.0
 11
-310.0
 21
-617.43372899999986
 31
0.0
  0
LINE
  5
110
  8
SIZE
  6
CONTINUOUS
 62
    30
 10
-12.0
 20
-597.43372899999997
 30
0.0
 11
-298.0
 21
-597.43372899999997
 31
0.0
  0
LINE
  5
111
  8
SIZE
  6
CONTINUOUS
 62
    30
 10
-652.58567000000005
 20
-597.43372899999997
 30
0.0
 11
-310.0
 21
-597.43372899999997
 31
0.0
  0
TEXT
  5
112
  8
SIZE
  6
CONTINUOUS
 62
    30
 10
-627.58567057142852
 20
-572.43372899999997
 30
0.0
 40
64.0
  1
310
 41
0.9
 72
     1
 11
-559.01424199999985
 21
-572.43372899999997
 31
0.0
  0
CIRCLE
  5
113
  8
SIZE
  6
CONTINUOUS
 62
    30
 10
0.0
 20
-597.43372899999997
 30
0.0
 40
6.0
  0
LINE
  5
114
  8
SIZE
  6
CONTINUOUS
 62
    30
 10
0.0
 20
-597.43372899999997
 30
0.0
 11
-12.0
 21
-597.43372899999997
 31
0.0
  0
CIRCLE
  5
115
  8
SIZE
  6
CONTINUOUS
 62
    30
 10
-310.0
 20
-597.43372899999997
 30
0.0
 40
6.0
  0
LINE
  5
116
  8
SIZE
  6
CONTINUOUS
 62
    30
 10
-310.0
 20
-597.43372899999997
 30
0.0
 11
-298.0
 21
-597.43372899999997
 31
0.0
  0
LINE
  5
11A
  8
DETAIL
  6
CONTINUOUS
 62
     5
 10
248.2674649999999
 20
-30.0
 30
0.0
 11
-247.87324899999999
 21
-30.0
 31
0.0
  0
LINE
  5
11B
  8
DETAIL
  6
CONTINUOUS
 62
     5
 10
252.0
 20
0.0
 30
0.0
 11
260.0
 21
-110.0
 31
0.0
  0
LINE
  5
11E
  8
DETAIL
  6
CONTINUOUS
 62
     5
 10
-252.0
 20
0.0
 30
0.0
 11
-260.0
 21
-110.0
 31
0.0
  0
TEXT
  5
137
  8
ETC
  6
CONTINUOUS
 62
    61
 10
872.57817768174891
 20
720.12030242640719
 30
0.0
 40
64.0
  1
VL-08ESN2_6
 41
0.9
  0
TEXT
  5
138
  8
ETC
  6
CONTINUOUS
 62
    61
 10
876.87224368174896
 20
619.20833642640707
 30
0.0
 40
64.0
  1
換気扇
 41
0.9
  0
TEXT
  5
139
  8
ETC
  6
CONTINUOUS
 62
    61
 10
1014.254685985778
 20
473.8324141325715
 30
0.0
 40
50.0
  1
VL-08SRN2
 41
0.9
  0
TEXT
  5
13A
  8
ETC
  6
CONTINUOUS
 62
    61
 10
1008.566427571606
 20
550.5640312848758
 30
0.0
 40
50.0
  1
VL-08ESN2
 41
0.9
  0
LINE
  5
13B
  8
BASIS
  6
DASHDOT
 62
     6
 10
0.0
 20
-252.195077
 30
0.0
 11
0.0
 21
90.916111999999998
 31
0.0
  0
LINE
  5
13C
  8
OUTLINE
  6
CONTINUOUS
 62
     3
 39
50.0
 10
-252.0
 20
0.0
 30
0.0
 11
252.0
 21
0.0
 31
0.0
  0
LINE
  5
13D
  8
OUTLINE
  6
CONTINUOUS
 62
     3
 10
-251.5068519999999
 20
-185.0
 30
0.0
 11
251.5068519999999
 21
-185.0
 31
0.0
  0
LINE
  5
13E
  8
OUTLINE
  6
CONTINUOUS
 62
     3
 10
-260.0
 20
-110.0
 30
0.0
 11
237.4363250000001
 21
-110.0
 31
0.0
  0
LINE
  5
13F
  8
OUTLINE
  6
CONTINUOUS
 62
     3
 10
-260.0
 20
-111.0
 30
0.0
 11
260.0
 21
-111.0
 31
0.0
  0
LINE
  5
140
  8
OUTLINE
  6
CONTINUOUS
 62
     3
 10
-260.0
 20
-111.0
 30
0.0
 11
-256.49999999999989
 21
-180.26168000000001
 31
0.0
  0
ARC
  5
141
  8
OUTLINE
  6
CONTINUOUS
 62
     3
 10
-251.5068519999999
 20
-180.0
 30
0.0
 40
5.0
 50
183.0
 51
270.0
  0
LINE
  5
142
  8
OUTLINE
  6
CONTINUOUS
 62
     3
 10
-252.0
 20
0.0
 30
0.0
 11
-260.0
 21
-110.0
 31
0.0
  0
LINE
  5
143
  8
OUTLINE
  6
CONTINUOUS
 62
     3
 10
260.0
 20
-111.0
 30
0.0
 11
256.49999999999989
 21
-180.26168000000001
 31
0.0
  0
ARC
  5
144
  8
OUTLINE
  6
CONTINUOUS
 62
     3
 10
251.5068519999999
 20
-180.0
 30
0.0
 40
5.0
 50
270.0
 51
357.0
  0
LINE
  5
145
  8
OUTLINE
  6
CONTINUOUS
 62
     3
 10
252.0
 20
0.0
 30
0.0
 11
260.0
 21
-110.0
 31
0.0
  0
LINE
  5
146
  8
OUTLINE
  6
CONTINUOUS
 62
     3
 10
237.4363250000001
 20
-110.0
 30
0.0
 11
260.0
 21
-110.0
 31
0.0
  0
ENDSEC
  0
EOF
