  0
SECTION
  2
HEADER
  9
$ACADVER
  1
AC1009
  9
$DWGCODEPAGE
  3
dos932
  9
$INSBASE
 10
0.0
 20
0.0
 30
0.0
  9
$EXTMIN
 10
-788.090499
 20
-550.827015
 30
-0.001526
  9
$EXTMAX
 10
1161.062634
 20
750.137337
 30
50.001526
  9
$LIMMIN
 10
-2970.0
 20
-2100.0
  9
$LIMMAX
 10
2970.0
 20
2100.0
  9
$ORTHOMODE
 70
     1
  9
$REGENMODE
 70
     0
  9
$FILLMODE
 70
     1
  9
$QTEXTMODE
 70
     0
  9
$MIRRTEXT
 70
     0
  9
$DRAGMODE
 70
     2
  9
$LTSCALE
 40
20.0
  9
$OSMODE
 70
    33
  9
$ATTMODE
 70
     1
  9
$TEXTSIZE
 40
64.0
  9
$TRACEWID
 40
0.05
  9
$TEXTSTYLE
  7
STANDARD
  9
$CLAYER
  8
SIZE
  9
$CELTYPE
  6
CONTINUOUS
  9
$CECOLOR
 62
    30
  9
$DIMSCALE
 40
1.0
  9
$DIMASZ
 40
12.0
  9
$DIMEXO
 40
20.0
  9
$DIMDLI
 40
200.0
  9
$DIMRND
 40
0.0
  9
$DIMDLE
 40
0.0
  9
$DIMEXE
 40
20.0
  9
$DIMTP
 40
0.0
  9
$DIMTM
 40
0.0
  9
$DIMTXT
 40
64.0
  9
$DIMCEN
 40
0.09
  9
$DIMTSZ
 40
0.0
  9
$DIMTOL
 70
     0
  9
$DIMLIM
 70
     0
  9
$DIMTIH
 70
     0
  9
$DIMTOH
 70
     0
  9
$DIMSE1
 70
     0
  9
$DIMSE2
 70
     0
  9
$DIMTAD
 70
     1
  9
$DIMZIN
 70
     8
  9
$DIMBLK
  1
DOT1
  9
$DIMASO
 70
     1
  9
$DIMSHO
 70
     0
  9
$DIMPOST
  1

  9
$DIMAPOST
  1

  9
$DIMALT
 70
     0
  9
$DIMALTD
 70
     2
  9
$DIMALTF
 40
25.4
  9
$DIMLFAC
 40
1.0
  9
$DIMTOFL
 70
     1
  9
$DIMTVP
 40
0.0
  9
$DIMTIX
 70
     1
  9
$DIMSOXD
 70
     0
  9
$DIMSAH
 70
     1
  9
$DIMBLK1
  1
_ORIGIN
  9
$DIMBLK2
  1
_ORIGIN
  9
$DIMSTYLE
  2
STANDARD
  9
$DIMCLRD
 70
     7
  9
$DIMCLRE
 70
     7
  9
$DIMCLRT
 70
     7
  9
$DIMTFAC
 40
1.0
  9
$DIMGAP
 40
25.0
  9
$LUNITS
 70
     2
  9
$LUPREC
 70
     4
  9
$SKETCHINC
 40
0.1
  9
$FILLETRAD
 40
2.3
  9
$AUNITS
 70
     1
  9
$AUPREC
 70
     3
  9
$MENU
  1
ACAD
  9
$ELEVATION
 40
0.0
  9
$PELEVATION
 40
0.0
  9
$THICKNESS
 40
50.0
  9
$LIMCHECK
 70
     0
  9
$BLIPMODE
 70
     0
  9
$CHAMFERA
 40
0.0
  9
$CHAMFERB
 40
0.0
  9
$SKPOLY
 70
     0
  9
$TDCREATE
 40
2453066.799810717
  9
$TDUPDATE
 40
2453122.427400116
  9
$TDINDWG
 40
0.0393644792
  9
$TDUSRTIMER
 40
0.0393644792
  9
$USRTIMER
 70
     1
  9
$ANGBASE
 50
0.0
  9
$ANGDIR
 70
     0
  9
$PDMODE
 70
     3
  9
$PDSIZE
 40
-2.0
  9
$PLINEWID
 40
0.0
  9
$COORDS
 70
     2
  9
$SPLFRAME
 70
     0
  9
$SPLINETYPE
 70
     6
  9
$SPLINESEGS
 70
     8
  9
$ATTDIA
 70
     0
  9
$ATTREQ
 70
     1
  9
$HANDLING
 70
     0
  9
$HANDSEED
  5
3981
  9
$SURFTAB1
 70
     6
  9
$SURFTAB2
 70
     6
  9
$SURFTYPE
 70
     6
  9
$SURFU
 70
     6
  9
$SURFV
 70
     6
  9
$UCSNAME
  2

  9
$UCSORG
 10
0.0
 20
0.0
 30
0.0
  9
$UCSXDIR
 10
1.0
 20
0.0
 30
0.0
  9
$UCSYDIR
 10
0.0
 20
1.0
 30
0.0
  9
$PUCSNAME
  2

  9
$PUCSORG
 10
0.0
 20
0.0
 30
0.0
  9
$PUCSXDIR
 10
1.0
 20
0.0
 30
0.0
  9
$PUCSYDIR
 10
0.0
 20
1.0
 30
0.0
  9
$USERI1
 70
     0
  9
$USERI2
 70
     0
  9
$USERI3
 70
     0
  9
$USERI4
 70
     0
  9
$USERI5
 70
     0
  9
$USERR1
 40
20.0
  9
$USERR2
 40
0.0
  9
$USERR3
 40
0.0
  9
$USERR4
 40
0.0
  9
$USERR5
 40
0.0
  9
$WORLDVIEW
 70
     1
  9
$SHADEDGE
 70
     3
  9
$SHADEDIF
 70
    70
  9
$TILEMODE
 70
     1
  9
$MAXACTVP
 70
    48
  9
$PINSBASE
 10
0.0
 20
0.0
 30
0.0
  9
$PLIMCHECK
 70
     0
  9
$PEXTMIN
 10
-100000000000000000000.0
 20
-100000000000000000000.0
 30
-100000000000000000000.0
  9
$PEXTMAX
 10
100000000000000000000.0
 20
100000000000000000000.0
 30
100000000000000000000.0
  9
$PLIMMIN
 10
0.0
 20
0.0
  9
$PLIMMAX
 10
12.0
 20
9.0
  9
$UNITMODE
 70
     0
  9
$VISRETAIN
 70
     0
  9
$PLINEGEN
 70
     0
  9
$PSLTSCALE
 70
     0
  9
$TREEDEPTH
 70
  3020
  0
ENDSEC
  0
SECTION
  2
TABLES
  0
TABLE
  2
LTYPE
 70
     2
  0
LTYPE
  2
CONTINUOUS
 70
     0
  3
実線
 72
    65
 73
     0
 40
0.0
  0
LTYPE
  2
DASHDOT
 70
     0
  3
____ _ ____ _ ____ _ ____ _ ____ _ ____ _ ____
 72
    65
 73
     4
 40
5.5
 49
4.0
 49
-0.6
 49
0.3
 49
-0.6
  0
ENDTAB
  0
TABLE
  2
LAYER
 70
    12
  0
LAYER
  2
0
 70
     0
 62
     7
  6
CONTINUOUS
  0
LAYER
  2
BASIS
 70
     0
 62
     6
  6
DASHDOT
  0
LAYER
  2
OUTLINE
 70
     0
 62
     3
  6
CONTINUOUS
  0
LAYER
  2
DETAIL
 70
     0
 62
     5
  6
CONTINUOUS
  0
LAYER
  2
SIZE
 70
     0
 62
    30
  6
CONTINUOUS
  0
LAYER
  2
ARRANGE
 70
     0
 62
     1
  6
CONTINUOUS
  0
LAYER
  2
DEFPOINTS
 70
     0
 62
     7
  6
CONTINUOUS
  0
LAYER
  2
ETC
 70
     0
 62
    61
  6
CONTINUOUS
  0
LAYER
  2
FIX
 70
     0
 62
    11
  6
CONTINUOUS
  0
LAYER
  2
NOTE
 70
     0
 62
     4
  6
CONTINUOUS
  0
LAYER
  2
SERVICESPACE
 70
    64
 62
     2
  6
DASHDOT
  0
LAYER
  2
SYMBOLLINE
 70
    64
 62
    15
  6
CONTINUOUS
  0
ENDTAB
  0
TABLE
  2
STYLE
 70
     1
  0
STYLE
  2
STANDARD
 70
     0
 40
64.0
 41
0.9
 50
0.0
 71
     0
 42
64.0
  3
SIMPLEX.shx
  4
BIGFONT.shx
  0
ENDTAB
  0
TABLE
  2
APPID
 70
     2
  0
APPID
  2
ACAD
 70
     0
  0
APPID
  2
AUTOCAD_POSTSCRIPT_FIGURE
 70
     0
  0
ENDTAB
  0
TABLE
  2
DIMSTYLE
 70
     1
  0
DIMSTYLE
  2
STANDARD
 70
     0
  3

  4

  5

  6

  7

 40
1.0
 41
0.18
 42
0.0625
 43
0.38
 44
0.18
 45
0.0
 46
0.0
 47
0.0
 48
0.0
140
0.18
141
0.09
142
0.0
143
25.4
144
1.0
145
0.0
146
1.0
147
0.09
 71
     0
 72
     0
 73
     1
 74
     1
 75
     0
 76
     0
 77
     0
 78
     0
170
     0
171
     2
172
     0
173
     0
174
     0
175
     0
176
     7
177
     7
178
     7
  0
ENDTAB
  0
TABLE
  2
VIEW
 70
     1
  0
VIEW
  2
ALL
 70
     0
 40
4282.619808
 10
0.0
 20
41.309904
 41
5940.0
 11
0.0
 21
0.0
 31
1.0
 12
0.0
 22
0.0
 32
0.0
 42
50.0
 43
0.0
 44
0.0
 50
0.0
 71
     0
  0
ENDTAB
  0
TABLE
  2
UCS
 70
     0
  0
ENDTAB
  0
TABLE
  2
VPORT
 70
     1
  0
VPORT
  2
*ACTIVE
 70
     0
 10
0.0
 20
0.0
 11
1.0
 21
1.0
 12
186.486068
 22
99.655161
 13
0.0
 23
0.0
 14
1.0
 24
1.0
 15
0.0
 25
0.0
 16
0.0
 26
0.0
 36
1.0
 17
0.0
 27
0.0
 37
0.0
 40
1327.219278
 41
1.476252
 42
50.0
 43
0.0
 44
0.0
 50
0.0
 51
0.0
 71
     0
 72
  1000
 73
     1
 74
     0
 75
     0
 76
     0
 77
     0
 78
     0
  0
ENDTAB
  0
ENDSEC
  0
SECTION
  2
BLOCKS
  0
BLOCK
  8
0
  2
DOT1
 70
     0
 10
0.0
 20
0.0
 30
0.0
  3
DOT1
  1

  0
CIRCLE
  8
SIZE
  6
CONTINUOUS
 62
     7
 10
0.0
 20
0.0
 30
0.0
 40
3.0
  0
ENDBLK
  8
0
  0
BLOCK
  8
0
  2
_ORIGIN
 70
     0
 10
0.0
 20
0.0
 30
0.0
  3
_ORIGIN
  1

  0
CIRCLE
  8
0
  6
CONTINUOUS
 62
     7
 10
0.0
 20
0.0
 30
0.0
 40
0.5
  0
LINE
  8
0
  6
CONTINUOUS
 62
     7
 10
0.0
 20
0.0
 30
0.0
 11
-1.0
 21
0.0
 31
0.0
  0
ENDBLK
  8
0
  0
ENDSEC
  0
SECTION
  2
ENTITIES
  0
TEXT
  8
ETC
  6
CONTINUOUS
 62
    61
 10
670.034993
 20
681.172023
 30
0.0
 40
64.0
  1
VL-09ZF_3
 41
0.9
  0
TEXT
  8
ETC
  6
CONTINUOUS
 62
    61
 10
672.549246
 20
562.527955
 30
0.0
 40
64.0
  1
換気扇
 41
0.9
  0
CIRCLE
  8
ARRANGE
  6
CONTINUOUS
 62
     1
 39
50.0
 10
0.0
 20
0.0
 30
0.0
 40
40.0
  0
POINT
  8
ARRANGE
  6
CONTINUOUS
 62
     1
 10
0.0
 20
0.0
 30
0.0
 39
50.0
  0
LINE
  8
BASIS
  6
DASHDOT
 62
     6
 10
0.0
 20
-97.907695
 30
0.0
 11
0.0
 21
316.957352
 31
0.0
  0
LINE
  8
DETAIL
  6
CONTINUOUS
 62
     5
 10
-227.5
 20
0.0
 30
0.0
 11
227.5
 21
0.0
 31
0.0
  0
LINE
  8
DETAIL
  6
CONTINUOUS
 62
     5
 10
-214.295341
 20
-9.0
 30
0.0
 11
214.295341
 21
-9.0
 31
0.0
  0
LINE
  8
DETAIL
  6
CONTINUOUS
 62
     5
 10
-227.5
 20
-3.30677
 30
0.0
 11
-227.5
 21
0.0
 31
0.0
  0
ARC
  8
DETAIL
  6
CONTINUOUS
 62
     5
 10
-226.0
 20
-3.30677
 30
0.0
 40
1.5
 50
180.0
 51
230.654603
  0
ARC
  8
DETAIL
  6
CONTINUOUS
 62
     5
 10
-214.271114
 20
11.000001
 30
0.0
 40
20.000001
 50
230.654603
 51
270.0
  0
ARC
  8
DETAIL
  6
CONTINUOUS
 62
     5
 10
214.271114
 20
11.000001
 30
0.0
 40
20.000001
 50
270.0
 51
309.345397
  0
LINE
  8
DETAIL
  6
CONTINUOUS
 62
     5
 10
227.5
 20
-3.30677
 30
0.0
 11
227.5
 21
0.0
 31
0.0
  0
ARC
  8
DETAIL
  6
CONTINUOUS
 62
     5
 10
226.0
 20
-3.30677
 30
0.0
 40
1.5
 50
309.345397
 51
0.0
  0
LINE
  8
SIZE
  6
CONTINUOUS
 62
    30
 10
-247.5
 20
0.0
 30
0.0
 11
-718.790912
 21
0.0
 31
0.0
  0
LINE
  8
SIZE
  6
CONTINUOUS
 62
    30
 10
-234.271114
 20
-9.0
 30
0.0
 11
-718.790912
 21
-9.0
 31
0.0
  0
LINE
  8
SIZE
  6
CONTINUOUS
 62
    30
 10
-698.790912
 20
12.0
 30
0.0
 11
-698.790912
 21
24.0
 31
0.0
  0
LINE
  8
SIZE
  6
CONTINUOUS
 62
    30
 10
-698.790912
 20
-21.0
 30
0.0
 11
-698.790912
 21
-33.0
 31
0.0
  0
LINE
  8
SIZE
  6
CONTINUOUS
 62
    30
 10
-698.790912
 20
-133.779399
 30
0.0
 11
-698.790912
 21
-9.0
 31
0.0
  0
TEXT
  8
SIZE
  6
CONTINUOUS
 62
    30
 10
-723.790912
 20
-117.734827
 30
0.0
 40
64.0
  1
9
 50
90.0
 41
0.9
 51
0.0
  7
STANDARD
 71
     0
 72
     1
 11
-723.790912
 21
-90.950827
 31
0.0
210
0.0
220
0.0
230
1.0
  0
LINE
  8
SIZE
  6
CONTINUOUS
 62
    30
 10
-698.790912
 20
0.0
 30
0.0
 11
-698.790912
 21
-9.0
 31
0.0
  0
LINE
  8
SIZE
  6
CONTINUOUS
 62
    30
 10
-698.790912
 20
0.0
 30
0.0
 11
-698.790912
 21
-9.0
 31
0.0
  0
CIRCLE
  8
SIZE
  6
CONTINUOUS
 62
    30
 10
-698.790912
 20
0.0
 30
0.0
 40
6.0
  0
LINE
  8
SIZE
  6
CONTINUOUS
 62
    30
 10
-698.790912
 20
0.0
 30
0.0
 11
-698.790912
 21
12.0
 31
0.0
  0
CIRCLE
  8
SIZE
  6
CONTINUOUS
 62
    30
 10
-698.790912
 20
-9.0
 30
0.0
 40
6.0
  0
LINE
  8
SIZE
  6
CONTINUOUS
 62
    30
 10
-698.790912
 20
-9.0
 30
0.0
 11
-698.790912
 21
-21.0
 31
0.0
  0
POINT
  8
DEFPOINTS
  6
CONTINUOUS
 62
    30
 10
-227.5
 20
0.0
 30
0.0
  0
POINT
  8
DEFPOINTS
  6
CONTINUOUS
 62
    30
 10
-214.271114
 20
-9.0
 30
0.0
  0
POINT
  8
DEFPOINTS
  6
CONTINUOUS
 62
    30
 10
-698.790912
 20
-9.0
 30
0.0
  0
LINE
  8
SIZE
  6
CONTINUOUS
 62
    30
 10
-227.5
 20
-23.30677
 30
0.0
 11
-227.5
 21
-424.951973
 31
0.0
  0
LINE
  8
SIZE
  6
CONTINUOUS
 62
    30
 10
227.5
 20
-23.30677
 30
0.0
 11
227.5
 21
-424.951973
 31
0.0
  0
LINE
  8
SIZE
  6
CONTINUOUS
 62
    30
 10
-215.5
 20
-404.951973
 30
0.0
 11
215.5
 21
-404.951973
 31
0.0
  0
CIRCLE
  8
SIZE
  6
CONTINUOUS
 62
    30
 10
-227.5
 20
-404.951973
 30
0.0
 40
6.0
  0
LINE
  8
SIZE
  6
CONTINUOUS
 62
    30
 10
-227.5
 20
-404.951973
 30
0.0
 11
-215.5
 21
-404.951973
 31
0.0
  0
CIRCLE
  8
SIZE
  6
CONTINUOUS
 62
    30
 10
227.5
 20
-404.951973
 30
0.0
 40
6.0
  0
LINE
  8
SIZE
  6
CONTINUOUS
 62
    30
 10
227.5
 20
-404.951973
 30
0.0
 11
215.5
 21
-404.951973
 31
0.0
  0
TEXT
  8
SIZE
  6
CONTINUOUS
 62
    30
 10
-115.488
 20
-379.951973
 30
0.0
 40
64.0
  1
□455
 50
0.0
 41
0.9
 51
0.0
  7
STANDARD
 71
     0
 72
     1
 11
0.0
 21
-379.951973
 31
0.0
210
0.0
220
0.0
230
1.0
  0
POINT
  8
DEFPOINTS
  6
CONTINUOUS
 62
    30
 10
-227.5
 20
-3.30677
 30
0.0
  0
POINT
  8
DEFPOINTS
  6
CONTINUOUS
 62
    30
 10
227.5
 20
-3.30677
 30
0.0
  0
POINT
  8
DEFPOINTS
  6
CONTINUOUS
 62
    30
 10
227.5
 20
-404.951973
 30
0.0
  0
LINE
  8
DETAIL
  6
CONTINUOUS
 62
     5
 10
215.0
 20
244.0
 30
0.0
 11
215.0
 21
45.0
 31
0.0
  0
LINE
  8
DETAIL
  6
CONTINUOUS
 62
     5
 10
-215.0
 20
244.0
 30
0.0
 11
-215.0
 21
45.0
 31
0.0
  0
LINE
  8
DETAIL
  6
CONTINUOUS
 62
     5
 10
235.0
 20
139.810975
 30
0.0
 11
235.0
 21
124.0
 31
0.0
  0
LINE
  8
DETAIL
  6
CONTINUOUS
 62
     5
 10
235.0
 20
124.0
 30
0.0
 11
215.0
 21
122.857143
 31
0.0
  0
LINE
  8
DETAIL
  6
CONTINUOUS
 62
     5
 10
-235.0
 20
124.0
 30
0.0
 11
-215.0
 21
122.857143
 31
0.0
  0
LINE
  8
DETAIL
  6
CONTINUOUS
 62
     5
 10
-235.0
 20
172.0
 30
0.0
 11
-235.0
 21
145.0
 31
0.0
  0
LINE
  8
DETAIL
  6
CONTINUOUS
 62
     5
 10
-235.0
 20
172.0
 30
0.0
 11
-215.0
 21
173.142857
 31
0.0
  0
LINE
  8
SIZE
  6
CONTINUOUS
 62
    30
 10
-247.5
 20
0.0
 30
0.0
 11
-597.677359
 21
0.0
 31
0.0
  0
LINE
  8
SIZE
  6
CONTINUOUS
 62
    30
 10
-266.49781
 20
148.0
 30
0.0
 11
-597.677359
 21
148.0
 31
0.0
  0
LINE
  8
SIZE
  6
CONTINUOUS
 62
    30
 10
-577.677359
 20
-12.0
 30
0.0
 11
-577.677359
 21
-24.0
 31
0.0
  0
LINE
  8
SIZE
  6
CONTINUOUS
 62
    30
 10
-577.677359
 20
160.0
 30
0.0
 11
-577.677359
 21
172.0
 31
0.0
  0
LINE
  8
SIZE
  6
CONTINUOUS
 62
    30
 10
-577.677359
 20
0.0
 30
0.0
 11
-577.677359
 21
148.0
 31
0.0
  0
CIRCLE
  8
SIZE
  6
CONTINUOUS
 62
    30
 10
-577.677359
 20
0.0
 30
0.0
 40
6.0
  0
LINE
  8
SIZE
  6
CONTINUOUS
 62
    30
 10
-577.677359
 20
0.0
 30
0.0
 11
-577.677359
 21
-12.0
 31
0.0
  0
CIRCLE
  8
SIZE
  6
CONTINUOUS
 62
    30
 10
-577.677359
 20
148.0
 30
0.0
 40
6.0
  0
LINE
  8
SIZE
  6
CONTINUOUS
 62
    30
 10
-577.677359
 20
148.0
 30
0.0
 11
-577.677359
 21
160.0
 31
0.0
  0
TEXT
  8
SIZE
  6
CONTINUOUS
 62
    30
 10
-602.677359
 20
-1.168
 30
0.0
 40
64.0
  1
148
 50
90.0
 41
0.9
 51
0.0
  7
STANDARD
 71
     0
 72
     1
 11
-602.677359
 21
74.0
 31
0.0
210
0.0
220
0.0
230
1.0
  0
POINT
  8
DEFPOINTS
  6
CONTINUOUS
 62
    30
 10
-227.5
 20
0.0
 30
0.0
  0
POINT
  8
DEFPOINTS
  6
CONTINUOUS
 62
    30
 10
-246.49781
 20
148.0
 30
0.0
  0
POINT
  8
DEFPOINTS
  6
CONTINUOUS
 62
    30
 10
-577.677359
 20
148.0
 30
0.0
  0
TEXT
  8
NOTE
  6
CONTINUOUS
 62
     4
 10
220.299825
 20
53.082384
 30
0.0
 40
64.0
  1
SA
 41
0.9
  0
TEXT
  8
NOTE
  6
CONTINUOUS
 62
     4
 10
-322.889087
 20
50.921588
 30
0.0
 40
64.0
  1
SA
 41
0.9
  0
LINE
  8
DETAIL
  6
CONTINUOUS
 62
     5
 10
-178.5
 20
45.0
 30
0.0
 11
178.5
 21
45.0
 31
0.0
  0
LINE
  8
DETAIL
  6
CONTINUOUS
 62
     5
 10
190.5
 20
45.0
 30
0.0
 11
215.0
 21
45.0
 31
0.0
  0
LINE
  8
DETAIL
  6
CONTINUOUS
 62
     5
 10
178.5
 20
45.0
 30
0.0
 11
178.5
 21
51.4
 31
0.0
  0
LINE
  8
DETAIL
  6
CONTINUOUS
 62
     5
 10
190.5
 20
45.0
 30
0.0
 11
190.5
 21
51.4
 31
0.0
  0
ARC
  8
DETAIL
  6
CONTINUOUS
 62
     5
 10
184.5
 20
51.4
 30
0.0
 40
6.0
 50
0.0
 51
180.0
  0
ARC
  8
DETAIL
  6
CONTINUOUS
 62
     5
 10
-184.5
 20
51.4
 30
0.0
 40
6.0
 50
0.0
 51
180.0
  0
LINE
  8
DETAIL
  6
CONTINUOUS
 62
     5
 10
-190.5
 20
45.0
 30
0.0
 11
-190.5
 21
51.4
 31
0.0
  0
LINE
  8
DETAIL
  6
CONTINUOUS
 62
     5
 10
-178.5
 20
45.0
 30
0.0
 11
-178.5
 21
51.4
 31
0.0
  0
LINE
  8
DETAIL
  6
CONTINUOUS
 62
     5
 10
-190.5
 20
45.0
 30
0.0
 11
-215.0
 21
45.0
 31
0.0
  0
LINE
  8
DETAIL
  6
CONTINUOUS
 62
     5
 10
207.0
 20
0.0
 30
0.0
 11
207.0
 21
45.0
 31
0.0
  0
LINE
  8
DETAIL
  6
CONTINUOUS
 62
     5
 10
-207.0
 20
0.0
 30
0.0
 11
-207.0
 21
45.0
 31
0.0
  0
LINE
  8
DETAIL
  6
CONTINUOUS
 62
     5
 10
-205.0
 20
254.0
 30
0.0
 11
205.0
 21
254.0
 31
0.0
  0
ARC
  8
DETAIL
  6
CONTINUOUS
 62
     5
 10
205.0
 20
244.0
 30
0.0
 40
10.0
 50
0.0
 51
90.0
  0
ARC
  8
DETAIL
  6
CONTINUOUS
 62
     5
 10
-205.0
 20
244.0
 30
0.0
 40
10.0
 50
90.0
 51
180.0
  0
LINE
  8
SIZE
  6
CONTINUOUS
 62
    30
 10
-247.5
 20
0.0
 30
0.0
 11
-718.790912
 21
0.0
 31
0.0
  0
LINE
  8
SIZE
  6
CONTINUOUS
 62
    30
 10
-225.0
 20
254.0
 30
0.0
 11
-718.790912
 21
254.0
 31
0.0
  0
LINE
  8
SIZE
  6
CONTINUOUS
 62
    30
 10
-698.790912
 20
12.0
 30
0.0
 11
-698.790912
 21
242.0
 31
0.0
  0
CIRCLE
  8
SIZE
  6
CONTINUOUS
 62
    30
 10
-698.790912
 20
0.0
 30
0.0
 40
6.0
  0
LINE
  8
SIZE
  6
CONTINUOUS
 62
    30
 10
-698.790912
 20
0.0
 30
0.0
 11
-698.790912
 21
12.0
 31
0.0
  0
CIRCLE
  8
SIZE
  6
CONTINUOUS
 62
    30
 10
-698.790912
 20
254.0
 30
0.0
 40
6.0
  0
LINE
  8
SIZE
  6
CONTINUOUS
 62
    30
 10
-698.790912
 20
254.0
 30
0.0
 11
-698.790912
 21
242.0
 31
0.0
  0
TEXT
  8
SIZE
  6
CONTINUOUS
 62
    30
 10
-723.790912
 20
46.072
 30
0.0
 40
64.0
  1
254
 50
90.0
 41
0.9
 51
0.0
  7
STANDARD
 71
     0
 72
     1
 11
-723.790912
 21
127.0
 31
0.0
210
0.0
220
0.0
230
1.0
  0
POINT
  8
DEFPOINTS
  6
CONTINUOUS
 62
    30
 10
-227.5
 20
0.0
 30
0.0
  0
POINT
  8
DEFPOINTS
  6
CONTINUOUS
 62
    30
 10
-205.0
 20
254.0
 30
0.0
  0
POINT
  8
DEFPOINTS
  6
CONTINUOUS
 62
    30
 10
-698.790912
 20
254.0
 30
0.0
  0
LINE
  8
BASIS
  6
DASHDOT
 62
     6
 10
204.742226
 20
169.0
 30
0.0
 11
286.901732
 21
169.0
 31
0.0
  0
LINE
  8
DETAIL
  6
CONTINUOUS
 62
     5
 10
240.600275
 20
144.995638
 30
0.0
 11
240.599989
 21
194.999806
 31
0.0
  0
LINE
  8
DETAIL
  6
CONTINUOUS
 62
     5
 10
237.200303
 20
140.085928
 30
0.0
 11
237.200288
 21
142.7
 31
0.0
  0
LINE
  8
DETAIL
  6
CONTINUOUS
 62
     5
 10
274.500275
 20
145.0
 30
0.0
 11
274.5
 21
193.0
 31
0.0
  0
LINE
  8
DETAIL
  6
CONTINUOUS
 62
     5
 10
244.047212
 20
143.203184
 30
0.0
 11
274.500275
 21
145.0
 31
0.0
  0
LINE
  8
DETAIL
  6
CONTINUOUS
 62
     5
 10
240.599989
 20
194.999806
 30
0.0
 11
237.199972
 21
197.914072
 31
0.0
  0
LINE
  8
DETAIL
  6
CONTINUOUS
 62
     5
 10
240.599989
 20
194.999806
 30
0.0
 11
274.5
 21
193.0
 31
0.0
  0
LINE
  8
DETAIL
  6
CONTINUOUS
 62
     5
 10
237.199972
 20
197.914072
 30
0.0
 11
215.0
 21
200.688625
 31
0.0
  0
TEXT
  8
NOTE
  6
CONTINUOUS
 62
     4
 10
-707.428476
 20
529.802082
 30
0.0
 40
64.0
  1
配線取出口
 41
0.9
  0
LINE
  8
NOTE
  6
CONTINUOUS
 62
     4
 10
-719.408428
 20
501.587374
 30
0.0
 11
-343.616612
 21
501.587374
 31
0.0
  0
LINE
  8
NOTE
  6
CONTINUOUS
 62
     4
 39
50.0
 10
-343.616612
 20
501.587374
 30
0.0
 11
-161.0
 21
254.0
 31
0.0
  0
LINE
  8
NOTE
  6
CONTINUOUS
 62
     4
 10
-176.561609
 20
290.848831
 30
0.0
 11
-161.0
 21
254.0
 31
0.0
  0
LINE
  8
NOTE
  6
CONTINUOUS
 62
     4
 10
-161.0
 20
254.0
 30
0.0
 11
-192.901164
 21
278.131219
 31
0.0
  0
LINE
  8
NOTE
  6
CONTINUOUS
 62
     4
 10
-161.0
 20
234.0
 30
0.0
 11
-161.0
 21
274.0
 31
0.0
  0
LINE
  8
NOTE
  6
CONTINUOUS
 62
     4
 10
-141.0
 20
254.0
 30
0.0
 11
-181.0
 21
254.0
 31
0.0
  0
CIRCLE
  8
FIX
  6
CONTINUOUS
 62
    11
 39
50.0
 10
0.0
 20
0.0
 30
0.0
 40
2.5
  0
LINE
  8
NOTE
  6
CONTINUOUS
 62
     4
 10
0.0
 20
-20.0
 30
0.0
 11
0.0
 21
20.0
 31
0.0
  0
LINE
  8
NOTE
  6
CONTINUOUS
 62
     4
 10
20.0
 20
0.0
 30
0.0
 11
-20.0
 21
0.0
 31
0.0
  0
CIRCLE
  8
FIX
  6
CONTINUOUS
 62
    11
 39
50.0
 10
150.0
 20
0.0
 30
0.0
 40
2.5
  0
LINE
  8
NOTE
  6
CONTINUOUS
 62
     4
 10
150.0
 20
-20.0
 30
0.0
 11
150.0
 21
20.0
 31
0.0
  0
LINE
  8
NOTE
  6
CONTINUOUS
 62
     4
 10
170.0
 20
0.0
 30
0.0
 11
130.0
 21
0.0
 31
0.0
  0
CIRCLE
  8
FIX
  6
CONTINUOUS
 62
    11
 39
50.0
 10
-150.0
 20
0.0
 30
0.0
 40
2.5
  0
LINE
  8
NOTE
  6
CONTINUOUS
 62
     4
 10
-150.0
 20
-20.0
 30
0.0
 11
-150.0
 21
20.0
 31
0.0
  0
LINE
  8
NOTE
  6
CONTINUOUS
 62
     4
 10
-170.0
 20
0.0
 30
0.0
 11
-130.0
 21
0.0
 31
0.0
  0
TEXT
  8
NOTE
  6
CONTINUOUS
 62
     4
 10
283.498843
 20
178.966059
 30
0.0
 40
64.0
  1
RA
 41
0.9
  0
LINE
  8
SIZE
  6
CONTINUOUS
 62
    30
 10
-247.5
 20
0.0
 30
0.0
 11
-476.890178
 21
0.0
 31
0.0
  0
LINE
  8
SIZE
  6
CONTINUOUS
 62
    30
 10
-235.0
 20
45.0
 30
0.0
 11
-476.890178
 21
45.0
 31
0.0
  0
LINE
  8
SIZE
  6
CONTINUOUS
 62
    30
 10
-456.890178
 20
-12.0
 30
0.0
 11
-456.890178
 21
-24.0
 31
0.0
  0
LINE
  8
SIZE
  6
CONTINUOUS
 62
    30
 10
-456.890178
 20
57.0
 30
0.0
 11
-456.890178
 21
69.0
 31
0.0
  0
LINE
  8
SIZE
  6
CONTINUOUS
 62
    30
 10
-456.890178
 20
-183.471128
 30
0.0
 11
-456.890178
 21
0.0
 31
0.0
  0
TEXT
  8
SIZE
  6
CONTINUOUS
 62
    30
 10
-481.890178
 20
-165.986556
 30
0.0
 40
64.0
  1
45
 50
90.0
 41
0.9
 51
0.0
  7
STANDARD
 71
     0
 72
     1
 11
-481.890178
 21
-111.842556
 31
0.0
210
0.0
220
0.0
230
1.0
  0
LINE
  8
SIZE
  6
CONTINUOUS
 62
    30
 10
-456.890178
 20
0.0
 30
0.0
 11
-456.890178
 21
45.0
 31
0.0
  0
LINE
  8
SIZE
  6
CONTINUOUS
 62
    30
 10
-456.890178
 20
0.0
 30
0.0
 11
-456.890178
 21
45.0
 31
0.0
  0
CIRCLE
  8
SIZE
  6
CONTINUOUS
 62
    30
 10
-456.890178
 20
0.0
 30
0.0
 40
6.0
  0
LINE
  8
SIZE
  6
CONTINUOUS
 62
    30
 10
-456.890178
 20
0.0
 30
0.0
 11
-456.890178
 21
-12.0
 31
0.0
  0
CIRCLE
  8
SIZE
  6
CONTINUOUS
 62
    30
 10
-456.890178
 20
45.0
 30
0.0
 40
6.0
  0
LINE
  8
SIZE
  6
CONTINUOUS
 62
    30
 10
-456.890178
 20
45.0
 30
0.0
 11
-456.890178
 21
57.0
 31
0.0
  0
POINT
  8
DEFPOINTS
  6
CONTINUOUS
 62
    30
 10
-227.5
 20
0.0
 30
0.0
  0
POINT
  8
DEFPOINTS
  6
CONTINUOUS
 62
    30
 10
-215.0
 20
45.0
 30
0.0
  0
POINT
  8
DEFPOINTS
  6
CONTINUOUS
 62
    30
 10
-456.890178
 20
45.0
 30
0.0
  0
LINE
  8
SIZE
  6
CONTINUOUS
 62
    30
 10
247.5
 20
0.0
 30
0.0
 11
487.09386
 21
0.0
 31
0.0
  0
LINE
  8
SIZE
  6
CONTINUOUS
 62
    30
 10
235.0
 20
45.0
 30
0.0
 11
487.09386
 21
45.0
 31
0.0
  0
LINE
  8
SIZE
  6
CONTINUOUS
 62
    30
 10
467.09386
 20
-12.0
 30
0.0
 11
467.09386
 21
-24.0
 31
0.0
  0
LINE
  8
SIZE
  6
CONTINUOUS
 62
    30
 10
467.09386
 20
57.0
 30
0.0
 11
467.09386
 21
69.0
 31
0.0
  0
LINE
  8
SIZE
  6
CONTINUOUS
 62
    30
 10
467.09386
 20
-189.291011
 30
0.0
 11
467.09386
 21
0.0
 31
0.0
  0
TEXT
  8
SIZE
  6
CONTINUOUS
 62
    30
 10
442.09386
 20
-171.80644
 30
0.0
 40
64.0
  1
45
 50
90.0
 41
0.9
 51
0.0
  7
STANDARD
 71
     0
 72
     1
 11
442.09386
 21
-117.66244
 31
0.0
210
0.0
220
0.0
230
1.0
  0
LINE
  8
SIZE
  6
CONTINUOUS
 62
    30
 10
467.09386
 20
0.0
 30
0.0
 11
467.09386
 21
45.0
 31
0.0
  0
LINE
  8
SIZE
  6
CONTINUOUS
 62
    30
 10
467.09386
 20
0.0
 30
0.0
 11
467.09386
 21
45.0
 31
0.0
  0
CIRCLE
  8
SIZE
  6
CONTINUOUS
 62
    30
 10
467.09386
 20
0.0
 30
0.0
 40
6.0
  0
LINE
  8
SIZE
  6
CONTINUOUS
 62
    30
 10
467.09386
 20
0.0
 30
0.0
 11
467.09386
 21
-12.0
 31
0.0
  0
CIRCLE
  8
SIZE
  6
CONTINUOUS
 62
    30
 10
467.09386
 20
45.0
 30
0.0
 40
6.0
  0
LINE
  8
SIZE
  6
CONTINUOUS
 62
    30
 10
467.09386
 20
45.0
 30
0.0
 11
467.09386
 21
57.0
 31
0.0
  0
POINT
  8
DEFPOINTS
  6
CONTINUOUS
 62
    30
 10
227.5
 20
0.0
 30
0.0
  0
POINT
  8
DEFPOINTS
  6
CONTINUOUS
 62
    30
 10
215.0
 20
45.0
 30
0.0
  0
POINT
  8
DEFPOINTS
  6
CONTINUOUS
 62
    30
 10
467.09386
 20
45.0
 30
0.0
  0
LINE
  8
SIZE
  6
CONTINUOUS
 62
    30
 10
247.5
 20
0.0
 30
0.0
 11
820.370857
 21
0.0
 31
0.0
  0
LINE
  8
SIZE
  6
CONTINUOUS
 62
    30
 10
306.901732
 20
169.0
 30
0.0
 11
820.370857
 21
169.0
 31
0.0
  0
LINE
  8
SIZE
  6
CONTINUOUS
 62
    30
 10
800.370857
 20
-12.0
 30
0.0
 11
800.370857
 21
-24.0
 31
0.0
  0
LINE
  8
SIZE
  6
CONTINUOUS
 62
    30
 10
800.370857
 20
181.0
 30
0.0
 11
800.370857
 21
193.0
 31
0.0
  0
LINE
  8
SIZE
  6
CONTINUOUS
 62
    30
 10
800.370857
 20
0.0
 30
0.0
 11
800.370857
 21
169.0
 31
0.0
  0
CIRCLE
  8
SIZE
  6
CONTINUOUS
 62
    30
 10
800.370857
 20
0.0
 30
0.0
 40
6.0
  0
LINE
  8
SIZE
  6
CONTINUOUS
 62
    30
 10
800.370857
 20
0.0
 30
0.0
 11
800.370857
 21
-12.0
 31
0.0
  0
CIRCLE
  8
SIZE
  6
CONTINUOUS
 62
    30
 10
800.370857
 20
169.0
 30
0.0
 40
6.0
  0
LINE
  8
SIZE
  6
CONTINUOUS
 62
    30
 10
800.370857
 20
169.0
 30
0.0
 11
800.370857
 21
181.0
 31
0.0
  0
TEXT
  8
SIZE
  6
CONTINUOUS
 62
    30
 10
775.370857
 20
9.908
 30
0.0
 40
64.0
  1
169
 50
90.0
 41
0.9
 51
0.0
  7
STANDARD
 71
     0
 72
     1
 11
775.370857
 21
84.5
 31
0.0
210
0.0
220
0.0
230
1.0
  0
POINT
  8
DEFPOINTS
  6
CONTINUOUS
 62
    30
 10
227.5
 20
0.0
 30
0.0
  0
POINT
  8
DEFPOINTS
  6
CONTINUOUS
 62
    30
 10
286.901732
 20
169.0
 30
0.0
  0
POINT
  8
DEFPOINTS
  6
CONTINUOUS
 62
    30
 10
800.370857
 20
169.0
 30
0.0
  0
LINE
  8
SIZE
  6
CONTINUOUS
 62
    30
 10
-150.0
 20
-40.0
 30
0.0
 11
-150.0
 21
-290.067554
 31
0.0
  0
LINE
  8
SIZE
  6
CONTINUOUS
 62
    30
 10
150.0
 20
-40.0
 30
0.0
 11
150.0
 21
-290.067554
 31
0.0
  0
LINE
  8
SIZE
  6
CONTINUOUS
 62
    30
 10
-138.0
 20
-270.067554
 30
0.0
 11
138.0
 21
-270.067554
 31
0.0
  0
CIRCLE
  8
SIZE
  6
CONTINUOUS
 62
    30
 10
-150.0
 20
-270.067554
 30
0.0
 40
6.0
  0
LINE
  8
SIZE
  6
CONTINUOUS
 62
    30
 10
-150.0
 20
-270.067554
 30
0.0
 11
-138.0
 21
-270.067554
 31
0.0
  0
CIRCLE
  8
SIZE
  6
CONTINUOUS
 62
    30
 10
150.0
 20
-270.067554
 30
0.0
 40
6.0
  0
LINE
  8
SIZE
  6
CONTINUOUS
 62
    30
 10
150.0
 20
-270.067554
 30
0.0
 11
138.0
 21
-270.067554
 31
0.0
  0
TEXT
  8
SIZE
  6
CONTINUOUS
 62
    30
 10
-81.504
 20
-245.067554
 30
0.0
 40
64.0
  1
300
 50
0.0
 41
0.9
 51
0.0
  7
STANDARD
 71
     0
 72
     1
 11
0.0
 21
-245.067554
 31
0.0
210
0.0
220
0.0
230
1.0
  0
POINT
  8
DEFPOINTS
  6
CONTINUOUS
 62
    30
 10
-150.0
 20
-20.0
 30
0.0
  0
POINT
  8
DEFPOINTS
  6
CONTINUOUS
 62
    30
 10
150.0
 20
-20.0
 30
0.0
  0
POINT
  8
DEFPOINTS
  6
CONTINUOUS
 62
    30
 10
150.0
 20
-270.067554
 30
0.0
  0
LINE
  8
NOTE
  6
CONTINUOUS
 62
     4
 10
406.294181
 20
-346.720467
 30
0.0
 11
1118.237954
 21
-346.720467
 31
0.0
  0
TEXT
  8
NOTE
  6
CONTINUOUS
 62
     4
 10
415.756871
 20
-318.505758
 30
0.0
 40
64.0
  1
木枠固定用（12ヵ所）
 41
0.9
  0
LINE
  8
NOTE
  6
CONTINUOUS
 62
     4
 10
150.0
 20
0.0
 30
0.0
 11
406.294181
 21
-346.720467
 31
0.0
  0
LINE
  8
NOTE
  6
CONTINUOUS
 62
     4
 10
164.585254
 20
-37.246079
 30
0.0
 11
150.0
 21
0.0
 31
0.0
  0
LINE
  8
NOTE
  6
CONTINUOUS
 62
     4
 10
150.0
 20
0.0
 30
0.0
 11
181.25424
 21
-24.963423
 31
0.0
  0
ARC
  8
OUTLINE
  6
CONTINUOUS
 62
     3
 10
205.0
 20
244.0
 30
0.0
 40
10.0
 50
0.0
 51
90.0
  0
LINE
  8
OUTLINE
  6
CONTINUOUS
 62
     3
 10
-205.0
 20
254.0
 30
0.0
 11
205.0
 21
254.0
 31
0.0
  0
LINE
  8
OUTLINE
  6
CONTINUOUS
 62
     3
 10
215.0
 20
244.0
 30
0.0
 11
215.0
 21
45.0
 31
0.0
  0
ARC
  8
OUTLINE
  6
CONTINUOUS
 62
     3
 10
-205.0
 20
244.0
 30
0.0
 40
10.0
 50
90.0
 51
180.0
  0
LINE
  8
OUTLINE
  6
CONTINUOUS
 62
     3
 10
-215.0
 20
244.0
 30
0.0
 11
-215.0
 21
45.0
 31
0.0
  0
LINE
  8
OUTLINE
  6
CONTINUOUS
 62
     3
 10
207.0
 20
0.0
 30
0.0
 11
207.0
 21
45.0
 31
0.0
  0
LINE
  8
OUTLINE
  6
CONTINUOUS
 62
     3
 10
-207.0
 20
0.0
 30
0.0
 11
-207.0
 21
45.0
 31
0.0
  0
LINE
  8
OUTLINE
  6
CONTINUOUS
 62
     3
 10
-227.5
 20
0.0
 30
0.0
 11
227.5
 21
0.0
 31
0.0
  0
LINE
  8
OUTLINE
  6
CONTINUOUS
 62
     3
 10
215.0
 20
45.0
 30
0.0
 11
207.0
 21
45.0
 31
0.0
  0
LINE
  8
OUTLINE
  6
CONTINUOUS
 62
     3
 10
-207.0
 20
45.0
 30
0.0
 11
-215.0
 21
45.0
 31
0.0
  0
LINE
  8
DETAIL
  6
CONTINUOUS
 62
     5
 10
237.199972
 20
140.085928
 30
0.0
 11
215.0
 21
137.311375
 31
0.0
  0
LINE
  8
DETAIL
  6
CONTINUOUS
 62
     5
 10
240.249758
 20
142.7
 30
0.0
 11
237.199972
 21
140.085928
 31
0.0
  0
LINE
  8
DETAIL
  6
CONTINUOUS
 62
     5
 10
-245.0
 20
140.4
 30
0.0
 11
-245.0
 21
134.0
 31
0.0
  0
LINE
  8
DETAIL
  6
CONTINUOUS
 62
     5
 10
-240.4
 20
145.0
 30
0.0
 11
-215.0
 21
145.0
 31
0.0
  0
LINE
  8
DETAIL
  6
CONTINUOUS
 62
     5
 10
-240.4
 20
142.7
 30
0.0
 11
-215.0
 21
142.7
 31
0.0
  0
LINE
  8
DETAIL
  6
CONTINUOUS
 62
     5
 10
-245.0
 20
134.0
 30
0.0
 11
-242.7
 21
134.0
 31
0.0
  0
LINE
  8
DETAIL
  6
CONTINUOUS
 62
     5
 10
-242.7
 20
140.4
 30
0.0
 11
-242.7
 21
134.0
 31
0.0
  0
ARC
  8
DETAIL
  6
CONTINUOUS
 62
     5
 10
-240.4
 20
140.4
 30
0.0
 40
4.6
 50
90.0
 51
180.0
  0
ARC
  8
DETAIL
  6
CONTINUOUS
 62
     5
 10
-240.4
 20
140.4
 30
0.0
 40
2.3
 50
90.0
 51
180.0
  0
CIRCLE
  8
FIX
  6
CONTINUOUS
 62
    11
 39
50.0
 10
-225.0
 20
145.0
 30
0.0
 40
5.5
  0
LINE
  8
NOTE
  6
CONTINUOUS
 62
     4
 10
-225.0
 20
165.0
 30
0.0
 11
-225.0
 21
125.0
 31
0.0
  0
LINE
  8
NOTE
  6
CONTINUOUS
 62
     4
 10
-205.0
 20
145.0
 30
0.0
 11
-245.0
 21
145.0
 31
0.0
  0
LINE
  8
DETAIL
  6
CONTINUOUS
 62
     5
 10
-209.3
 20
0.0
 30
0.0
 11
-209.3
 21
45.0
 31
0.0
  0
LINE
  8
DETAIL
  6
CONTINUOUS
 62
     5
 10
-235.0
 20
142.7
 30
0.0
 11
-235.0
 21
124.0
 31
0.0
  0
CIRCLE
  8
FIX
  6
CONTINUOUS
 62
    11
 39
50.0
 10
225.0
 20
145.0
 30
0.0
 40
5.5
  0
LINE
  8
DETAIL
  6
CONTINUOUS
 62
     5
 10
240.4
 20
142.7
 30
0.0
 11
215.0
 21
142.7
 31
0.0
  0
LINE
  8
DETAIL
  6
CONTINUOUS
 62
     5
 10
240.4
 20
145.0
 30
0.0
 11
215.0
 21
145.0
 31
0.0
  0
LINE
  8
NOTE
  6
CONTINUOUS
 62
     4
 10
225.0
 20
165.0
 30
0.0
 11
225.0
 21
125.0
 31
0.0
  0
LINE
  8
NOTE
  6
CONTINUOUS
 62
     4
 10
205.0
 20
145.0
 30
0.0
 11
245.0
 21
145.0
 31
0.0
  0
ARC
  8
DETAIL
  6
CONTINUOUS
 62
     5
 10
240.4
 20
140.4
 30
0.0
 40
4.6
 50
0.0
 51
90.0
  0
ARC
  8
DETAIL
  6
CONTINUOUS
 62
     5
 10
240.4
 20
140.4
 30
0.0
 40
2.3
 50
0.0
 51
90.0
  0
LINE
  8
DETAIL
  6
CONTINUOUS
 62
     5
 10
245.0
 20
134.0
 30
0.0
 11
242.7
 21
134.0
 31
0.0
  0
LINE
  8
DETAIL
  6
CONTINUOUS
 62
     5
 10
245.0
 20
140.4
 30
0.0
 11
245.0
 21
134.0
 31
0.0
  0
LINE
  8
DETAIL
  6
CONTINUOUS
 62
     5
 10
242.7
 20
140.4
 30
0.0
 11
242.7
 21
134.0
 31
0.0
  0
LINE
  8
DETAIL
  6
CONTINUOUS
 62
     5
 10
237.200275
 20
145.0
 30
0.0
 11
237.199972
 21
197.914072
 31
0.0
  0
LINE
  8
DETAIL
  6
CONTINUOUS
 62
     5
 10
209.3
 20
0.0
 30
0.0
 11
209.3
 21
45.0
 31
0.0
  0
LINE
  8
BASIS
  6
DASHDOT
 62
     6
 10
-202.886227
 20
163.0
 30
0.0
 11
-26.517919
 21
163.0
 31
0.0
  0
LINE
  8
BASIS
  6
DASHDOT
 62
     6
 10
-201.016625
 20
148.0
 30
0.0
 11
-246.49781
 21
148.0
 31
0.0
  0
LINE
  8
DETAIL
  6
CONTINUOUS
 62
     5
 10
-66.596666
 20
231.0
 30
0.0
 11
-163.403333
 21
231.0
 31
0.0
  0
LINE
  8
DETAIL
  6
CONTINUOUS
 62
     5
 10
-163.0
 20
95.0
 30
0.0
 11
-66.596667
 21
95.0
 31
0.0
  0
LINE
  8
DETAIL
  6
CONTINUOUS
 62
     5
 10
-183.0
 20
211.0
 30
0.0
 11
-183.0
 21
115.0
 31
0.0
  0
ARC
  8
DETAIL
  6
CONTINUOUS
 62
     5
 10
-163.0
 20
115.0
 30
0.0
 40
20.0
 50
180.0
 51
270.0
  0
ARC
  8
DETAIL
  6
CONTINUOUS
 62
     5
 10
-163.0
 20
211.0
 30
0.0
 40
20.0
 50
90.0
 51
180.0
  0
LINE
  8
DETAIL
  6
CONTINUOUS
 62
     5
 10
-47.0
 20
114.596666
 30
0.0
 11
-47.0
 21
211.403333
 31
0.0
  0
ARC
  8
DETAIL
  6
CONTINUOUS
 62
     5
 10
-67.0
 20
115.0
 30
0.0
 40
20.0
 50
270.0
 51
0.0
  0
ARC
  8
DETAIL
  6
CONTINUOUS
 62
     5
 10
-67.0
 20
211.0
 30
0.0
 40
20.0
 50
0.0
 51
90.0
  0
LINE
  8
BASIS
  6
DASHDOT
 62
     6
 10
-115.0
 20
80.381827
 30
0.0
 11
-115.0
 21
247.894919
 31
0.0
  0
CIRCLE
  8
DETAIL
  6
CONTINUOUS
 62
     5
 10
-115.0
 20
163.0
 30
0.0
 40
62.0
  0
CIRCLE
  8
DETAIL
  6
CONTINUOUS
 62
     5
 10
-115.0
 20
163.0
 30
0.0
 40
49.0
  0
CIRCLE
  8
DETAIL
  6
CONTINUOUS
 62
     5
 10
-115.0
 20
163.0
 30
0.0
 40
67.0
  0
LINE
  8
DETAIL
  6
CONTINUOUS
 62
     5
 10
47.0
 20
114.596666
 30
0.0
 11
47.0
 21
211.403333
 31
0.0
  0
CIRCLE
  8
DETAIL
  6
CONTINUOUS
 62
     5
 10
115.0
 20
163.0
 30
0.0
 40
62.0
  0
CIRCLE
  8
DETAIL
  6
CONTINUOUS
 62
     5
 10
115.0
 20
163.0
 30
0.0
 40
49.0
  0
CIRCLE
  8
DETAIL
  6
CONTINUOUS
 62
     5
 10
115.0
 20
163.0
 30
0.0
 40
67.0
  0
LINE
  8
DETAIL
  6
CONTINUOUS
 62
     5
 10
163.0
 20
95.0
 30
0.0
 11
66.596667
 21
95.0
 31
0.0
  0
ARC
  8
DETAIL
  6
CONTINUOUS
 62
     5
 10
67.0
 20
115.0
 30
0.0
 40
20.0
 50
180.0
 51
270.0
  0
LINE
  8
DETAIL
  6
CONTINUOUS
 62
     5
 10
66.596666
 20
231.0
 30
0.0
 11
163.403333
 21
231.0
 31
0.0
  0
ARC
  8
DETAIL
  6
CONTINUOUS
 62
     5
 10
67.0
 20
211.0
 30
0.0
 40
20.0
 50
90.0
 51
180.0
  0
LINE
  8
DETAIL
  6
CONTINUOUS
 62
     5
 10
183.0
 20
211.0
 30
0.0
 11
183.0
 21
115.0
 31
0.0
  0
ARC
  8
DETAIL
  6
CONTINUOUS
 62
     5
 10
163.0
 20
115.0
 30
0.0
 40
20.0
 50
270.0
 51
0.0
  0
ARC
  8
DETAIL
  6
CONTINUOUS
 62
     5
 10
163.0
 20
211.0
 30
0.0
 40
20.0
 50
0.0
 51
90.0
  0
LINE
  8
BASIS
  6
DASHDOT
 62
     6
 10
115.0
 20
80.381827
 30
0.0
 11
115.0
 21
247.894919
 31
0.0
  0
LINE
  8
BASIS
  6
DASHDOT
 62
     6
 10
29.862111
 20
163.0
 30
0.0
 11
199.002216
 21
163.0
 31
0.0
  0
TEXT
  8
NOTE
  6
CONTINUOUS
 62
     4
 10
76.262023
 20
266.103983
 30
0.0
 40
64.0
  1
EA
 41
0.9
  0
TEXT
  8
NOTE
  6
CONTINUOUS
 62
     4
 10
-168.649957
 20
266.103983
 30
0.0
 40
64.0
  1
OA
 41
0.9
  0
LINE
  8
SIZE
  6
CONTINUOUS
 62
    30
 10
-235.0
 20
104.0
 30
0.0
 11
-235.0
 21
-550.539953
 31
0.0
  0
LINE
  8
SIZE
  6
CONTINUOUS
 62
    30
 10
235.0
 20
104.0
 30
0.0
 11
235.0
 21
-550.539953
 31
0.0
  0
LINE
  8
SIZE
  6
CONTINUOUS
 62
    30
 10
-223.0
 20
-530.539953
 30
0.0
 11
223.0
 21
-530.539953
 31
0.0
  0
CIRCLE
  8
SIZE
  6
CONTINUOUS
 62
    30
 10
-235.0
 20
-530.539953
 30
0.0
 40
6.0
  0
LINE
  8
SIZE
  6
CONTINUOUS
 62
    30
 10
-235.0
 20
-530.539953
 30
0.0
 11
-223.0
 21
-530.539953
 31
0.0
  0
CIRCLE
  8
SIZE
  6
CONTINUOUS
 62
    30
 10
235.0
 20
-530.539953
 30
0.0
 40
6.0
  0
LINE
  8
SIZE
  6
CONTINUOUS
 62
    30
 10
235.0
 20
-530.539953
 30
0.0
 11
223.0
 21
-530.539953
 31
0.0
  0
TEXT
  8
SIZE
  6
CONTINUOUS
 62
    30
 10
-81.504
 20
-505.539953
 30
0.0
 40
64.0
  1
470
 50
0.0
 41
0.9
 51
0.0
  7
STANDARD
 71
     0
 72
     1
 11
0.0
 21
-505.539953
 31
0.0
210
0.0
220
0.0
230
1.0
  0
POINT
  8
DEFPOINTS
  6
CONTINUOUS
 62
    30
 10
-235.0
 20
124.0
 30
0.0
  0
POINT
  8
DEFPOINTS
  6
CONTINUOUS
 62
    30
 10
235.0
 20
124.0
 30
0.0
  0
POINT
  8
DEFPOINTS
  6
CONTINUOUS
 62
    30
 10
235.0
 20
-530.539953
 30
0.0
  0
LINE
  8
SIZE
  6
CONTINUOUS
 62
    30
 10
66.0
 20
183.0
 30
0.0
 11
66.0
 21
475.885454
 31
0.0
  0
LINE
  8
SIZE
  6
CONTINUOUS
 62
    30
 10
164.0
 20
183.0
 30
0.0
 11
164.0
 21
475.885454
 31
0.0
  0
LINE
  8
SIZE
  6
CONTINUOUS
 62
    30
 10
78.0
 20
455.885454
 30
0.0
 11
152.0
 21
455.885454
 31
0.0
  0
LINE
  8
SIZE
  6
CONTINUOUS
 62
    30
 10
422.694279
 20
455.885454
 30
0.0
 11
164.0
 21
455.885454
 31
0.0
  0
TEXT
  8
SIZE
  6
CONTINUOUS
 62
    30
 10
236.880565
 20
480.885454
 30
0.0
 40
64.0
  1
φ98
 50
0.0
 41
0.9
 51
0.0
  7
STANDARD
 71
     0
 72
     1
 11
325.008565
 21
480.885454
 31
0.0
210
0.0
220
0.0
230
1.0
  0
CIRCLE
  8
SIZE
  6
CONTINUOUS
 62
    30
 10
66.0
 20
455.885454
 30
0.0
 40
6.0
  0
LINE
  8
SIZE
  6
CONTINUOUS
 62
    30
 10
66.0
 20
455.885454
 30
0.0
 11
78.0
 21
455.885454
 31
0.0
  0
CIRCLE
  8
SIZE
  6
CONTINUOUS
 62
    30
 10
164.0
 20
455.885454
 30
0.0
 40
6.0
  0
LINE
  8
SIZE
  6
CONTINUOUS
 62
    30
 10
164.0
 20
455.885454
 30
0.0
 11
152.0
 21
455.885454
 31
0.0
  0
POINT
  8
DEFPOINTS
  6
CONTINUOUS
 62
    30
 10
66.0
 20
163.0
 30
0.0
  0
POINT
  8
DEFPOINTS
  6
CONTINUOUS
 62
    30
 10
164.0
 20
163.0
 30
0.0
  0
POINT
  8
DEFPOINTS
  6
CONTINUOUS
 62
    30
 10
164.0
 20
455.885454
 30
0.0
  0
LINE
  8
SIZE
  6
CONTINUOUS
 62
    30
 10
-115.0
 20
267.894919
 30
0.0
 11
-115.0
 21
558.370259
 31
0.0
  0
LINE
  8
SIZE
  6
CONTINUOUS
 62
    30
 10
115.0
 20
267.894919
 30
0.0
 11
115.0
 21
558.370259
 31
0.0
  0
LINE
  8
SIZE
  6
CONTINUOUS
 62
    30
 10
-103.0
 20
538.370259
 30
0.0
 11
103.0
 21
538.370259
 31
0.0
  0
CIRCLE
  8
SIZE
  6
CONTINUOUS
 62
    30
 10
-115.0
 20
538.370259
 30
0.0
 40
6.0
  0
LINE
  8
SIZE
  6
CONTINUOUS
 62
    30
 10
-115.0
 20
538.370259
 30
0.0
 11
-103.0
 21
538.370259
 31
0.0
  0
CIRCLE
  8
SIZE
  6
CONTINUOUS
 62
    30
 10
115.0
 20
538.370259
 30
0.0
 40
6.0
  0
LINE
  8
SIZE
  6
CONTINUOUS
 62
    30
 10
115.0
 20
538.370259
 30
0.0
 11
103.0
 21
538.370259
 31
0.0
  0
TEXT
  8
SIZE
  6
CONTINUOUS
 62
    30
 10
-80.928
 20
563.370259
 30
0.0
 40
64.0
  1
230
 50
0.0
 41
0.9
 51
0.0
  7
STANDARD
 71
     0
 72
     1
 11
0.0
 21
563.370259
 31
0.0
210
0.0
220
0.0
230
1.0
  0
POINT
  8
DEFPOINTS
  6
CONTINUOUS
 62
    30
 10
-115.0
 20
247.894919
 30
0.0
  0
POINT
  8
DEFPOINTS
  6
CONTINUOUS
 62
    30
 10
115.0
 20
247.894919
 30
0.0
  0
POINT
  8
DEFPOINTS
  6
CONTINUOUS
 62
    30
 10
115.0
 20
538.370259
 30
0.0
  0
LINE
  8
SIZE
  6
CONTINUOUS
 62
    30
 10
225.0
 20
185.0
 30
0.0
 11
225.0
 21
680.998616
 31
0.0
  0
LINE
  8
SIZE
  6
CONTINUOUS
 62
    30
 10
-225.0
 20
185.0
 30
0.0
 11
-225.0
 21
680.998616
 31
0.0
  0
LINE
  8
SIZE
  6
CONTINUOUS
 62
    30
 10
213.0
 20
660.998616
 30
0.0
 11
-213.0
 21
660.998616
 31
0.0
  0
CIRCLE
  8
SIZE
  6
CONTINUOUS
 62
    30
 10
225.0
 20
660.998616
 30
0.0
 40
6.0
  0
LINE
  8
SIZE
  6
CONTINUOUS
 62
    30
 10
225.0
 20
660.998616
 30
0.0
 11
213.0
 21
660.998616
 31
0.0
  0
CIRCLE
  8
SIZE
  6
CONTINUOUS
 62
    30
 10
-225.0
 20
660.998616
 30
0.0
 40
6.0
  0
LINE
  8
SIZE
  6
CONTINUOUS
 62
    30
 10
-225.0
 20
660.998616
 30
0.0
 11
-213.0
 21
660.998616
 31
0.0
  0
TEXT
  8
SIZE
  6
CONTINUOUS
 62
    30
 10
-81.504
 20
685.998616
 30
0.0
 40
64.0
  1
450
 50
0.0
 41
0.9
 51
0.0
  7
STANDARD
 71
     0
 72
     1
 11
0.0
 21
685.998616
 31
0.0
210
0.0
220
0.0
230
1.0
  0
POINT
  8
DEFPOINTS
  6
CONTINUOUS
 62
    30
 10
225.0
 20
165.0
 30
0.0
  0
POINT
  8
DEFPOINTS
  6
CONTINUOUS
 62
    30
 10
-225.0
 20
165.0
 30
0.0
  0
POINT
  8
DEFPOINTS
  6
CONTINUOUS
 62
    30
 10
-225.0
 20
660.998616
 30
0.0
  0
LINE
  8
SIZE
  6
CONTINUOUS
 62
    30
 10
247.5
 20
0.0
 30
0.0
 11
716.75251
 21
0.0
 31
0.0
  0
LINE
  8
SIZE
  6
CONTINUOUS
 62
    30
 10
219.002216
 20
163.0
 30
0.0
 11
716.75251
 21
163.0
 31
0.0
  0
LINE
  8
SIZE
  6
CONTINUOUS
 62
    30
 10
696.75251
 20
-12.0
 30
0.0
 11
696.75251
 21
-24.0
 31
0.0
  0
LINE
  8
SIZE
  6
CONTINUOUS
 62
    30
 10
696.75251
 20
175.0
 30
0.0
 11
696.75251
 21
187.0
 31
0.0
  0
LINE
  8
SIZE
  6
CONTINUOUS
 62
    30
 10
696.75251
 20
0.0
 30
0.0
 11
696.75251
 21
163.0
 31
0.0
  0
CIRCLE
  8
SIZE
  6
CONTINUOUS
 62
    30
 10
696.75251
 20
0.0
 30
0.0
 40
6.0
  0
LINE
  8
SIZE
  6
CONTINUOUS
 62
    30
 10
696.75251
 20
0.0
 30
0.0
 11
696.75251
 21
-12.0
 31
0.0
  0
CIRCLE
  8
SIZE
  6
CONTINUOUS
 62
    30
 10
696.75251
 20
163.0
 30
0.0
 40
6.0
  0
LINE
  8
SIZE
  6
CONTINUOUS
 62
    30
 10
696.75251
 20
163.0
 30
0.0
 11
696.75251
 21
175.0
 31
0.0
  0
TEXT
  8
SIZE
  6
CONTINUOUS
 62
    30
 10
671.75251
 20
6.908
 30
0.0
 40
64.0
  1
163
 50
90.0
 41
0.9
 51
0.0
  7
STANDARD
 71
     0
 72
     1
 11
671.75251
 21
81.5
 31
0.0
210
0.0
220
0.0
230
1.0
  0
POINT
  8
DEFPOINTS
  6
CONTINUOUS
 62
    30
 10
227.5
 20
0.0
 30
0.0
  0
POINT
  8
DEFPOINTS
  6
CONTINUOUS
 62
    30
 10
199.002216
 20
163.0
 30
0.0
  0
POINT
  8
DEFPOINTS
  6
CONTINUOUS
 62
    30
 10
696.75251
 20
163.0
 30
0.0
  0
LINE
  8
SIZE
  6
CONTINUOUS
 62
    30
 10
-255.0
 20
172.0
 30
0.0
 11
-401.066361
 21
172.0
 31
0.0
  0
LINE
  8
SIZE
  6
CONTINUOUS
 62
    30
 10
-255.0
 20
124.0
 30
0.0
 11
-401.066361
 21
124.0
 31
0.0
  0
LINE
  8
SIZE
  6
CONTINUOUS
 62
    30
 10
-381.066361
 20
184.0
 30
0.0
 11
-381.066361
 21
196.0
 31
0.0
  0
LINE
  8
SIZE
  6
CONTINUOUS
 62
    30
 10
-381.066361
 20
112.0
 30
0.0
 11
-381.066361
 21
100.0
 31
0.0
  0
LINE
  8
SIZE
  6
CONTINUOUS
 62
    30
 10
-381.066361
 20
452.185701
 30
0.0
 11
-381.066361
 21
172.0
 31
0.0
  0
TEXT
  8
SIZE
  6
CONTINUOUS
 62
    30
 10
-406.066361
 20
265.795987
 30
0.0
 40
64.0
  1
φ48
 50
90.0
 41
0.9
 51
0.0
  7
STANDARD
 71
     0
 72
     1
 11
-406.066361
 21
354.499987
 31
0.0
210
0.0
220
0.0
230
1.0
  0
LINE
  8
SIZE
  6
CONTINUOUS
 62
    30
 10
-381.066361
 20
172.0
 30
0.0
 11
-381.066361
 21
124.0
 31
0.0
  0
LINE
  8
SIZE
  6
CONTINUOUS
 62
    30
 10
-381.066361
 20
172.0
 30
0.0
 11
-381.066361
 21
124.0
 31
0.0
  0
CIRCLE
  8
SIZE
  6
CONTINUOUS
 62
    30
 10
-381.066361
 20
172.0
 30
0.0
 40
6.0
  0
LINE
  8
SIZE
  6
CONTINUOUS
 62
    30
 10
-381.066361
 20
172.0
 30
0.0
 11
-381.066361
 21
184.0
 31
0.0
  0
CIRCLE
  8
SIZE
  6
CONTINUOUS
 62
    30
 10
-381.066361
 20
124.0
 30
0.0
 40
6.0
  0
LINE
  8
SIZE
  6
CONTINUOUS
 62
    30
 10
-381.066361
 20
124.0
 30
0.0
 11
-381.066361
 21
112.0
 31
0.0
  0
POINT
  8
DEFPOINTS
  6
CONTINUOUS
 62
    30
 10
-235.0
 20
172.0
 30
0.0
  0
POINT
  8
DEFPOINTS
  6
CONTINUOUS
 62
    30
 10
-235.0
 20
124.0
 30
0.0
  0
POINT
  8
DEFPOINTS
  6
CONTINUOUS
 62
    30
 10
-381.066361
 20
124.0
 30
0.0
  0
LINE
  8
SIZE
  6
CONTINUOUS
 62
    30
 10
247.5
 20
0.0
 30
0.0
 11
599.194039
 21
0.0
 31
0.0
  0
LINE
  8
SIZE
  6
CONTINUOUS
 62
    30
 10
265.0
 20
145.0
 30
0.0
 11
599.194039
 21
145.0
 31
0.0
  0
LINE
  8
SIZE
  6
CONTINUOUS
 62
    30
 10
579.194039
 20
-12.0
 30
0.0
 11
579.194039
 21
-24.0
 31
0.0
  0
LINE
  8
SIZE
  6
CONTINUOUS
 62
    30
 10
579.194039
 20
157.0
 30
0.0
 11
579.194039
 21
169.0
 31
0.0
  0
LINE
  8
SIZE
  6
CONTINUOUS
 62
    30
 10
579.194039
 20
0.0
 30
0.0
 11
579.194039
 21
145.0
 31
0.0
  0
CIRCLE
  8
SIZE
  6
CONTINUOUS
 62
    30
 10
579.194039
 20
0.0
 30
0.0
 40
6.0
  0
LINE
  8
SIZE
  6
CONTINUOUS
 62
    30
 10
579.194039
 20
0.0
 30
0.0
 11
579.194039
 21
-12.0
 31
0.0
  0
CIRCLE
  8
SIZE
  6
CONTINUOUS
 62
    30
 10
579.194039
 20
145.0
 30
0.0
 40
6.0
  0
LINE
  8
SIZE
  6
CONTINUOUS
 62
    30
 10
579.194039
 20
145.0
 30
0.0
 11
579.194039
 21
157.0
 31
0.0
  0
TEXT
  8
SIZE
  6
CONTINUOUS
 62
    30
 10
554.194039
 20
-2.668
 30
0.0
 40
64.0
  1
145
 50
90.0
 41
0.9
 51
0.0
  7
STANDARD
 71
     0
 72
     1
 11
554.194039
 21
72.5
 31
0.0
210
0.0
220
0.0
230
1.0
  0
POINT
  8
DEFPOINTS
  6
CONTINUOUS
 62
    30
 10
227.5
 20
0.0
 30
0.0
  0
POINT
  8
DEFPOINTS
  6
CONTINUOUS
 62
    30
 10
245.0
 20
145.0
 30
0.0
  0
POINT
  8
DEFPOINTS
  6
CONTINUOUS
 62
    30
 10
579.194039
 20
145.0
 30
0.0
  0
TEXT
  8
NOTE
  6
CONTINUOUS
 62
     4
 10
323.473739
 20
355.713786
 30
0.0
 40
64.0
  1
AH-4
 41
0.9
  0
LINE
  8
NOTE
  6
CONTINUOUS
 62
     4
 10
309.84923
 20
327.499078
 30
0.0
 11
561.649659
 21
327.499078
 31
0.0
  0
LINE
  8
NOTE
  6
CONTINUOUS
 62
     4
 39
50.0
 10
225.0
 20
145.0
 30
0.0
 11
309.84923
 21
327.499078
 31
0.0
  0
LINE
  8
NOTE
  6
CONTINUOUS
 62
     4
 10
232.686853
 20
184.254456
 30
0.0
 11
225.0
 21
145.0
 31
0.0
  0
LINE
  8
NOTE
  6
CONTINUOUS
 62
     4
 10
225.0
 20
145.0
 30
0.0
 11
251.284238
 21
175.151929
 31
0.0
  0
ENDSEC
  0
EOF
