  0
SECTION
  2
HEADER
  9
$ACADVER
  1
AC1009
  9
$INSBASE
 10
0.0
 20
0.0
 30
0.0
  9
$EXTMIN
 10
-650.95477599999981
 20
-726.95043299999998
 30
0.0
  9
$EXTMAX
 10
1505.4582482488729
 20
779.95237883642767
 30
0.0
  9
$LIMMIN
 10
-2970.0
 20
-2100.0
  9
$LIMMAX
 10
2970.0
 20
2100.0
  9
$ORTHOMODE
 70
     0
  9
$REGENMODE
 70
     0
  9
$FILLMODE
 70
     1
  9
$QTEXTMODE
 70
     0
  9
$MIRRTEXT
 70
     0
  9
$DRAGMODE
 70
     2
  9
$LTSCALE
 40
20.0
  9
$OSMODE
 70
  2221
  9
$ATTMODE
 70
     1
  9
$TEXTSIZE
 40
64.0
  9
$TRACEWID
 40
0.05
  9
$TEXTSTYLE
  7
STANDARD
  9
$CLAYER
  8
0
  9
$CELTYPE
  6
CONTINUOUS
  9
$CECOLOR
 62
     8
  9
$DIMSCALE
 40
1.0
  9
$DIMASZ
 40
2.0
  9
$DIMEXO
 40
20.0
  9
$DIMDLI
 40
200.0
  9
$DIMRND
 40
0.0
  9
$DIMDLE
 40
0.0
  9
$DIMEXE
 40
30.0
  9
$DIMTP
 40
0.0
  9
$DIMTM
 40
0.0
  9
$DIMTXT
 40
64.0
  9
$DIMCEN
 40
0.09
  9
$DIMTSZ
 40
0.0
  9
$DIMTOL
 70
     0
  9
$DIMLIM
 70
     0
  9
$DIMTIH
 70
     0
  9
$DIMTOH
 70
     0
  9
$DIMSE1
 70
     0
  9
$DIMSE2
 70
     0
  9
$DIMTAD
 70
     1
  9
$DIMZIN
 70
     8
  9
$DIMBLK
  1

  9
$DIMASO
 70
     1
  9
$DIMSHO
 70
     0
  9
$DIMPOST
  1

  9
$DIMAPOST
  1

  9
$DIMALT
 70
     0
  9
$DIMALTD
 70
     2
  9
$DIMALTF
 40
25.399999999999999
  9
$DIMLFAC
 40
1.0
  9
$DIMTOFL
 70
     1
  9
$DIMTVP
 40
0.0
  9
$DIMTIX
 70
     1
  9
$DIMSOXD
 70
     0
  9
$DIMSAH
 70
     0
  9
$DIMBLK1
  1

  9
$DIMBLK2
  1

  9
$DIMSTYLE
  2
STANDARD
  9
$DIMCLRD
 70
     0
  9
$DIMCLRE
 70
     0
  9
$DIMCLRT
 70
     0
  9
$DIMTFAC
 40
1.0
  9
$DIMGAP
 40
0.09
  9
$LUNITS
 70
     2
  9
$LUPREC
 70
     4
  9
$SKETCHINC
 40
0.1
  9
$FILLETRAD
 40
10.0
  9
$AUNITS
 70
     1
  9
$AUPREC
 70
     3
  9
$MENU
  1
ACAD
  9
$ELEVATION
 40
0.0
  9
$PELEVATION
 40
0.0
  9
$THICKNESS
 40
0.0
  9
$LIMCHECK
 70
     1
  9
$BLIPMODE
 70
     0
  9
$CHAMFERA
 40
0.0
  9
$CHAMFERB
 40
0.0
  9
$SKPOLY
 70
     0
  9
$TDCREATE
 40
2451120.480868055
  9
$TDUPDATE
 40
2453775.708982558
  9
$TDINDWG
 40
0.0394498727
  9
$TDUSRTIMER
 40
0.0394498727
  9
$USRTIMER
 70
     1
  9
$ANGBASE
 50
0.0
  9
$ANGDIR
 70
     0
  9
$PDMODE
 70
     3
  9
$PDSIZE
 40
-2.0
  9
$PLINEWID
 40
0.0
  9
$COORDS
 70
     2
  9
$SPLFRAME
 70
     0
  9
$SPLINETYPE
 70
     6
  9
$SPLINESEGS
 70
     8
  9
$ATTDIA
 70
     0
  9
$ATTREQ
 70
     1
  9
$HANDLING
 70
 22529
  9
$HANDSEED
  5
49F
  9
$SURFTAB1
 70
     6
  9
$SURFTAB2
 70
     6
  9
$SURFTYPE
 70
     6
  9
$SURFU
 70
     6
  9
$SURFV
 70
     6
  9
$UCSNAME
  2

  9
$UCSORG
 10
0.0
 20
0.0
 30
0.0
  9
$UCSXDIR
 10
1.0
 20
0.0
 30
0.0
  9
$UCSYDIR
 10
0.0
 20
1.0
 30
0.0
  9
$PUCSNAME
  2

  9
$PUCSORG
 10
0.0
 20
0.0
 30
0.0
  9
$PUCSXDIR
 10
1.0
 20
0.0
 30
0.0
  9
$PUCSYDIR
 10
0.0
 20
1.0
 30
0.0
  9
$USERI1
 70
     0
  9
$USERI2
 70
     0
  9
$USERI3
 70
     0
  9
$USERI4
 70
     0
  9
$USERI5
 70
     0
  9
$USERR1
 40
20.0
  9
$USERR2
 40
0.0
  9
$USERR3
 40
0.0
  9
$USERR4
 40
0.0
  9
$USERR5
 40
0.0
  9
$WORLDVIEW
 70
     1
  9
$SHADEDGE
 70
     3
  9
$SHADEDIF
 70
    70
  9
$TILEMODE
 70
     1
  9
$MAXACTVP
 70
    48
  9
$PLIMCHECK
 70
     0
  9
$PEXTMIN
 10
1.0000000000000000E+020
 20
1.0000000000000000E+020
 30
1.0000000000000000E+020
  9
$PEXTMAX
 10
-1.0000000000000000E+020
 20
-1.0000000000000000E+020
 30
-1.0000000000000000E+020
  9
$PLIMMIN
 10
0.0
 20
0.0
  9
$PLIMMAX
 10
12.0
 20
9.0
  9
$UNITMODE
 70
     0
  9
$VISRETAIN
 70
     1
  9
$PLINEGEN
 70
     0
  9
$PSLTSCALE
 70
     1
  0
ENDSEC
  0
SECTION
  2
TABLES
  0
TABLE
  2
VPORT
 70
     5
  0
VPORT
  2
*ACTIVE
 70
     0
 10
0.0
 20
0.0
 11
1.0
 21
1.0
 12
202.8868115986028
 22
-52.43121053567188
 13
0.0
 23
0.0
 14
400.0
 24
400.0
 15
400.0
 25
400.0
 16
0.0
 26
0.0
 36
1.0
 17
0.0
 27
0.0
 37
0.0
 40
2174.6871157099558
 41
1.447268106734434
 42
50.0
 43
0.0
 44
0.0
 50
0.0
 51
0.0
 71
     0
 72
   500
 73
     1
 74
     0
 75
     0
 76
     0
 77
     0
 78
     0
  0
ENDTAB
  0
TABLE
  2
LTYPE
 70
     7
  0
LTYPE
  2
CONTINUOUS
 70
     0
  3
実線
 72
    65
 73
     0
 40
0.0
  0
LTYPE
  2
DOT
 70
     0
  3
...............................................
 72
    65
 73
     2
 40
0.8
 49
0.5
 49
-0.3
  0
LTYPE
  2
DASHED
 70
     0
  3
_ _ _ _ _ _ _ _ _ _ _ _ _ _ _ _ _ _ _ _ _ _ _
 72
    65
 73
     2
 40
2.0
 49
1.1999999999999991
 49
-0.8
  0
LTYPE
  2
DASHDOT
 70
     0
  3
____ _ ____ _ ____ _ ____ _ ____ _ ____ _ ____
 72
    65
 73
     4
 40
5.5
 49
4.0
 49
-0.6
 49
0.3
 49
-0.6
  0
LTYPE
  2
DASHDOT1
 70
     0
  3
____ _ ____ _ ____ _ ____ _ ____ _ ____ _ ____
 72
    65
 73
     4
 40
2.0
 49
1.5
 49
-0.2
 49
0.1
 49
-0.2
  0
LTYPE
  2
DIVIDE
 70
     0
  3
_____ _ _ _____ _ _ _____ _ _ _____ _ _ ____
 72
    65
 73
     6
 40
6.4000000000000004
 49
4.0
 49
-0.6
 49
0.3
 49
-0.6
 49
0.3
 49
-0.6
  0
LTYPE
  2
DIVIDE1
 70
     0
  3
_____ _ _ _____ _ _ _____ _ _ _____ _ _ ____
 72
    65
 73
     6
 40
3.2000000000000002
 49
2.0
 49
-0.3
 49
0.15
 49
-0.3
 49
0.15
 49
-0.3
  0
ENDTAB
  0
TABLE
  2
LAYER
 70
    12
  0
LAYER
  2
0
 70
     0
 62
     7
  6
CONTINUOUS
  0
LAYER
  2
OUTLINE
 70
     0
 62
     3
  6
CONTINUOUS
  0
LAYER
  2
DETAIL
 70
     0
 62
     5
  6
CONTINUOUS
  0
LAYER
  2
BASIS
 70
     0
 62
     6
  6
DASHDOT
  0
LAYER
  2
SIZE
 70
     0
 62
    30
  6
CONTINUOUS
  0
LAYER
  2
NOTE
 70
     0
 62
     4
  6
CONTINUOUS
  0
LAYER
  2
ARRANGE
 70
     0
 62
     1
  6
CONTINUOUS
  0
LAYER
  2
DEFPOINTS
 70
     0
 62
     7
  6
CONTINUOUS
  0
LAYER
  2
ETC
 70
     0
 62
    61
  6
CONTINUOUS
  0
LAYER
  2
FIX
 70
     0
 62
    11
  6
CONTINUOUS
  0
LAYER
  2
SERVICESPACE
 70
     0
 62
     2
  6
DASHDOT
  0
LAYER
  2
SYMBOLLINE
 70
     0
 62
    15
  6
CONTINUOUS
  0
ENDTAB
  0
TABLE
  2
STYLE
 70
     1
  0
STYLE
  2
STANDARD
 70
     0
 40
0.0
 41
0.9
 50
0.0
 71
     0
 42
64.0
  3
SIMPLEX
  4
BIGFONT
  0
ENDTAB
  0
TABLE
  2
VIEW
 70
     1
  0
VIEW
  2
ALL
 70
     0
 40
4508.0208510000002
 10
0.0
 20
41.309903999999989
 41
6252.631578999999
 11
0.0
 21
0.0
 31
1.0
 12
0.0
 22
0.0
 32
0.0
 42
50.0
 43
0.0
 44
0.0
 50
0.0
 71
     0
  0
ENDTAB
  0
TABLE
  2
UCS
 70
     0
  0
ENDTAB
  0
TABLE
  2
APPID
 70
     1
  0
APPID
  2
ACAD
 70
     0
  0
ENDTAB
  0
TABLE
  2
DIMSTYLE
 70
     1
  0
DIMSTYLE
  2
STANDARD
 70
     0
  3

  4

  5

  6

  7

 40
1.0
 41
0.18
 42
0.0625
 43
0.38
 44
0.18
 45
0.0
 46
0.0
 47
0.0
 48
0.0
140
0.18
141
0.09
142
0.0
143
25.399999999999999
144
1.0
145
0.0
146
1.0
147
0.09
 71
     0
 72
     0
 73
     1
 74
     1
 75
     0
 76
     0
 77
     0
 78
     0
170
     0
171
     2
172
     0
173
     0
174
     0
175
     0
176
     0
177
     0
178
     0
  0
ENDTAB
  0
ENDSEC
  0
SECTION
  2
BLOCKS
  0
BLOCK
  8
0
  2
$MODEL_SPACE
 70
     0
 10
0.0
 20
0.0
 30
0.0
  3
$MODEL_SPACE
  1

  0
ENDBLK
  5
320
  8
0
  0
BLOCK
 67
     1
  8
0
  2
$PAPER_SPACE
 70
     0
 10
0.0
 20
0.0
 30
0.0
  3
$PAPER_SPACE
  1

  0
ENDBLK
  5
31C
 67
     1
  8
0
  0
ENDSEC
  0
SECTION
  2
ENTITIES
  0
LINE
  5
33F
  8
DETAIL
  6
CONTINUOUS
 62
     5
 10
227.49999999999989
 20
-2.0
 30
0.0
 11
227.49999999999989
 21
0.0
 31
0.0
  0
LINE
  5
340
  8
DETAIL
  6
CONTINUOUS
 62
     5
 10
-227.49999999999989
 20
-2.0
 30
0.0
 11
-227.49999999999989
 21
0.0
 31
0.0
  0
LINE
  5
341
  8
BASIS
  6
DASHDOT
 62
     6
 10
0.0
 20
-84.944275000000005
 30
0.0
 11
0.0
 21
256.22279099999992
 31
0.0
  0
LINE
  5
342
  8
DETAIL
  6
CONTINUOUS
 62
     5
 10
-220.5
 20
-9.0
 30
0.0
 11
220.5
 21
-9.0
 31
0.0
  0
LINE
  5
343
  8
DETAIL
  6
CONTINUOUS
 62
     5
 10
-227.49999999999989
 20
0.0
 30
0.0
 11
227.49999999999989
 21
0.0
 31
0.0
  0
LINE
  5
344
  8
DETAIL
  6
CONTINUOUS
 62
     5
 10
-185.0
 20
204.0
 30
0.0
 11
185.0
 21
204.0
 31
0.0
  0
ARC
  5
345
  8
DETAIL
  6
CONTINUOUS
 62
     5
 10
220.5
 20
-2.0
 30
0.0
 40
7.0
 50
270.0
 51
0.0
  0
ARC
  5
346
  8
DETAIL
  6
CONTINUOUS
 62
     5
 10
-220.5
 20
-2.0
 30
0.0
 40
7.0
 50
180.0
 51
270.0
  0
LINE
  5
347
  8
DETAIL
  6
CONTINUOUS
 62
     5
 10
193.0
 20
0.0
 30
0.0
 11
185.0
 21
204.0
 31
0.0
  0
LINE
  5
348
  8
DETAIL
  6
CONTINUOUS
 62
     5
 10
-193.0
 20
0.0
 30
0.0
 11
-185.0
 21
204.0
 31
0.0
  0
CIRCLE
  5
349
  8
ARRANGE
  6
CONTINUOUS
 62
     1
 10
0.0
 20
0.0
 30
0.0
 40
40.0
  0
LINE
  5
34A
  8
DETAIL
  6
CONTINUOUS
 62
     5
 10
-163.0
 20
40.0
 30
0.0
 11
-143.0
 21
40.0
 31
0.0
  0
LINE
  5
34B
  8
OUTLINE
  6
CONTINUOUS
 62
     3
 10
-193.0
 20
0.0
 30
0.0
 11
-185.0
 21
204.0
 31
0.0
  0
LINE
  5
34C
  8
OUTLINE
  6
CONTINUOUS
 62
     3
 10
193.0
 20
0.0
 30
0.0
 11
185.0
 21
204.0
 31
0.0
  0
ARC
  5
34D
  8
OUTLINE
  6
CONTINUOUS
 62
     3
 10
-220.5
 20
-2.0
 30
0.0
 40
7.0
 50
180.0
 51
270.0
  0
ARC
  5
34E
  8
OUTLINE
  6
CONTINUOUS
 62
     3
 10
220.5
 20
-2.0
 30
0.0
 40
7.0
 50
270.0
 51
0.0
  0
LINE
  5
34F
  8
OUTLINE
  6
CONTINUOUS
 62
     3
 10
-185.0
 20
204.0
 30
0.0
 11
185.0
 21
204.0
 31
0.0
  0
LINE
  5
350
  8
OUTLINE
  6
CONTINUOUS
 62
     3
 10
-227.49999999999989
 20
0.0
 30
0.0
 11
227.49999999999989
 21
0.0
 31
0.0
  0
LINE
  5
351
  8
OUTLINE
  6
CONTINUOUS
 62
     3
 10
-220.5
 20
-9.0
 30
0.0
 11
220.5
 21
-9.0
 31
0.0
  0
LINE
  5
352
  8
OUTLINE
  6
CONTINUOUS
 62
     3
 10
-227.49999999999989
 20
-2.0
 30
0.0
 11
-227.49999999999989
 21
0.0
 31
0.0
  0
LINE
  5
353
  8
OUTLINE
  6
CONTINUOUS
 62
     3
 10
227.49999999999989
 20
-2.0
 30
0.0
 11
227.49999999999989
 21
0.0
 31
0.0
  0
CIRCLE
  5
354
  8
FIX
  6
CONTINUOUS
 62
    11
 10
-185.0
 20
147.5
 30
0.0
 40
6.5
  0
CIRCLE
  5
355
  8
FIX
  6
CONTINUOUS
 62
    11
 10
185.0
 20
147.5
 30
0.0
 40
6.5
  0
TEXT
  5
356
  8
NOTE
  6
CONTINUOUS
 62
     4
 10
299.53856400000001
 20
395.9332799999998
 30
0.0
 40
64.0
  1
AH
 41
0.9
  0
LINE
  5
357
  8
NOTE
  6
CONTINUOUS
 62
     4
 10
424.23752999999988
 20
372.09338899999989
 30
0.0
 11
280.151861
 21
372.09338899999989
 31
0.0
  0
TEXT
  5
358
  8
NOTE
  6
CONTINUOUS
 62
     4
 10
-401.413522
 20
284.95893399999972
 30
0.0
 40
64.0
  1
AH
 41
0.9
  0
LINE
  5
359
  8
NOTE
  6
CONTINUOUS
 62
     4
 10
-424.38703099999998
 20
256.23311100000001
 30
0.0
 11
-279.55330499999991
 21
256.23311100000001
 31
0.0
  0
TEXT
  5
35A
  8
NOTE
  6
CONTINUOUS
 62
     4
 10
-637.10611399999982
 20
-140.70550900000001
 30
0.0
 40
64.0
  1
8-5×7
 41
0.9
  0
TEXT
  5
35B
  8
NOTE
  6
CONTINUOUS
 62
     4
 10
45.279678999999987
 20
95.626548999999997
 30
0.0
 40
64.0
  1
EA
 41
0.9
  0
TEXT
  5
35C
  8
NOTE
  6
CONTINUOUS
 62
     4
 10
286.49452500000001
 20
503.75607300000001
 30
0.0
 40
64.0
  1
EL,CL
 41
0.9
  0
LINE
  5
35D
  8
NOTE
  6
CONTINUOUS
 62
     4
 10
510.98062499999997
 20
476.42487799999992
 30
0.0
 11
259.27639099999982
 21
476.42487799999992
 31
0.0
  0
LINE
  5
35E
  8
SIZE
  6
CONTINUOUS
 62
    30
 10
971.02281000000005
 20
-11.0
 30
0.0
 11
971.02281000000005
 21
-107.511382
 31
0.0
  0
LINE
  5
35F
  8
NOTE
  6
CONTINUOUS
 62
     4
 10
-206.0
 20
0.0
 30
0.0
 11
-344.30575199999993
 21
-164.0918199999999
 31
0.0
  0
LINE
  5
360
  8
NOTE
  6
CONTINUOUS
 62
     4
 10
-344.30575199999993
 20
-164.0918199999999
 30
0.0
 11
-650.95477599999981
 21
-164.0918199999999
 31
0.0
  0
LINE
  5
361
  8
NOTE
  6
CONTINUOUS
 62
     4
 10
-185.0
 20
147.5
 30
0.0
 11
-279.55330499999991
 21
256.23311100000001
 31
0.0
  0
LINE
  5
362
  8
NOTE
  6
CONTINUOUS
 62
     4
 10
185.0
 20
147.5
 30
0.0
 11
280.151861
 21
372.09338899999989
 31
0.0
  0
LINE
  5
363
  8
NOTE
  6
CONTINUOUS
 62
     4
 10
177.5
 20
204.0
 30
0.0
 11
259.27639099999982
 21
476.42487799999992
 31
0.0
  0
CIRCLE
  5
364
  8
FIX
  6
CONTINUOUS
 62
    11
 10
-206.0
 20
0.0
 30
0.0
 40
2.5
  0
CIRCLE
  5
365
  8
FIX
  6
CONTINUOUS
 62
    11
 10
-150.0
 20
0.0
 30
0.0
 40
2.5
  0
CIRCLE
  5
366
  8
FIX
  6
CONTINUOUS
 62
    11
 10
150.0
 20
0.0
 30
0.0
 40
2.5
  0
CIRCLE
  5
367
  8
FIX
  6
CONTINUOUS
 62
    11
 10
206.0
 20
0.0
 30
0.0
 40
2.5
  0
LINE
  5
368
  8
DETAIL
  6
CONTINUOUS
 62
     5
 10
190.44606399999989
 20
65.125364000000005
 30
0.0
 11
229.49999999999989
 21
78.5
 31
0.0
  0
LINE
  5
369
  8
DETAIL
  6
CONTINUOUS
 62
     5
 10
185.20909299999991
 20
198.6681189999999
 30
0.0
 11
229.49999999999989
 21
183.4999999999998
 31
0.0
  0
LINE
  5
36A
  8
DETAIL
  6
CONTINUOUS
 62
     5
 10
272.5
 20
183.4999999999998
 30
0.0
 11
229.49999999999989
 21
183.4999999999998
 31
0.0
  0
LINE
  5
36B
  8
DETAIL
  6
CONTINUOUS
 62
     5
 10
272.5
 20
78.5
 30
0.0
 11
229.49999999999989
 21
78.5
 31
0.0
  0
LINE
  5
36C
  8
DETAIL
  6
CONTINUOUS
 62
     5
 10
299.0
 20
180.0
 30
0.0
 11
272.5
 21
180.0
 31
0.0
  0
LINE
  5
36D
  8
DETAIL
  6
CONTINUOUS
 62
     5
 10
299.0
 20
82.0
 30
0.0
 11
272.5
 21
82.0
 31
0.0
  0
LINE
  5
36E
  8
DETAIL
  6
CONTINUOUS
 62
     5
 10
229.49999999999989
 20
78.5
 30
0.0
 11
229.49999999999989
 21
183.4999999999998
 31
0.0
  0
LINE
  5
36F
  8
DETAIL
  6
CONTINUOUS
 62
     5
 10
272.5
 20
78.5
 30
0.0
 11
272.5
 21
183.4999999999998
 31
0.0
  0
LINE
  5
370
  8
DETAIL
  6
CONTINUOUS
 62
     5
 10
299.0
 20
82.0
 30
0.0
 11
299.0
 21
180.0
 31
0.0
  0
LINE
  5
371
  8
BASIS
  6
DASHDOT
 62
     6
 10
329.01170799999989
 20
131.0
 30
0.0
 11
172.395895
 21
131.0
 31
0.0
  0
LINE
  5
372
  8
DETAIL
  6
CONTINUOUS
 62
     5
 10
-163.0
 20
0.0
 30
0.0
 11
-163.0
 21
147.5
 31
0.0
  0
LINE
  5
373
  8
DETAIL
  6
CONTINUOUS
 62
     5
 10
-224.5
 20
142.5
 30
0.0
 11
-224.5
 21
147.5
 31
0.0
  0
LINE
  5
374
  8
DETAIL
  6
CONTINUOUS
 62
     5
 10
-224.5
 20
147.5
 30
0.0
 11
-163.0
 21
147.5
 31
0.0
  0
LINE
  5
375
  8
DETAIL
  6
CONTINUOUS
 62
     5
 10
163.0
 20
147.5
 30
0.0
 11
224.5
 21
147.5
 31
0.0
  0
LINE
  5
376
  8
DETAIL
  6
CONTINUOUS
 62
     5
 10
-224.5
 20
142.5
 30
0.0
 11
-163.0
 21
142.5
 31
0.0
  0
LINE
  5
377
  8
DETAIL
  6
CONTINUOUS
 62
     5
 10
-198.0
 20
0.0
 30
0.0
 11
-198.0
 21
142.5
 31
0.0
  0
LINE
  5
378
  8
DETAIL
  6
CONTINUOUS
 62
     5
 10
163.0
 20
142.5
 30
0.0
 11
224.5
 21
142.5
 31
0.0
  0
LINE
  5
379
  8
DETAIL
  6
CONTINUOUS
 62
     5
 10
224.5
 20
142.5
 30
0.0
 11
224.5
 21
147.5
 31
0.0
  0
LINE
  5
37A
  8
DETAIL
  6
CONTINUOUS
 62
     5
 10
163.0
 20
0.0
 30
0.0
 11
163.0
 21
147.5
 31
0.0
  0
LINE
  5
37B
  8
SIZE
  6
CONTINUOUS
 62
    30
 10
676.20246299999985
 20
187.5
 30
0.0
 11
676.20246299999985
 21
437.524361
 31
0.0
  0
LINE
  5
37C
  8
SIZE
  6
CONTINUOUS
 62
    30
 10
542.40866700000004
 20
184.0
 30
0.0
 11
542.40866700000004
 21
417.27931699999999
 31
0.0
  0
LINE
  5
37D
  8
SIZE
  6
CONTINUOUS
 62
    30
 10
296.54991899999999
 20
-446.983699
 30
0.0
 11
519.626983
 21
-446.983699
 31
0.0
  0
LINE
  5
37E
  8
SIZE
  6
CONTINUOUS
 62
    30
 10
299.0
 20
-316.77972399999999
 30
0.0
 11
523.64800599999978
 21
-316.77972399999999
 31
0.0
  0
LINE
  5
37F
  8
SIZE
  6
CONTINUOUS
 62
    30
 10
299.0
 20
-192.68022500000001
 30
0.0
 11
523.64800599999978
 21
-192.68022500000001
 31
0.0
  0
LINE
  5
380
  8
DETAIL
  6
CONTINUOUS
 62
     5
 10
143.0
 20
40.0
 30
0.0
 11
143.0
 21
55.0
 31
0.0
  0
LINE
  5
381
  8
DETAIL
  6
CONTINUOUS
 62
     5
 10
113.0
 20
40.0
 30
0.0
 11
113.0
 21
55.0
 31
0.0
  0
LINE
  5
382
  8
DETAIL
  6
CONTINUOUS
 62
     5
 10
-143.0
 20
40.0
 30
0.0
 11
-143.0
 21
55.0
 31
0.0
  0
LINE
  5
383
  8
DETAIL
  6
CONTINUOUS
 62
     5
 10
-113.0
 20
40.0
 30
0.0
 11
-113.0
 21
55.0
 31
0.0
  0
LINE
  5
384
  8
DETAIL
  6
CONTINUOUS
 62
     5
 10
143.0
 20
40.0
 30
0.0
 11
163.0
 21
40.0
 31
0.0
  0
LINE
  5
385
  8
DETAIL
  6
CONTINUOUS
 62
     5
 10
-113.0
 20
40.0
 30
0.0
 11
113.0
 21
40.0
 31
0.0
  0
LINE
  5
386
  8
DETAIL
  6
CONTINUOUS
 62
     5
 10
-143.0
 20
55.0
 30
0.0
 11
-113.0
 21
55.0
 31
0.0
  0
LINE
  5
387
  8
DETAIL
  6
CONTINUOUS
 62
     5
 10
113.0
 20
55.0
 30
0.0
 11
143.0
 21
55.0
 31
0.0
  0
LINE
  5
388
  8
DETAIL
  6
CONTINUOUS
 62
     5
 10
198.0
 20
0.0
 30
0.0
 11
198.0
 21
142.5
 31
0.0
  0
LINE
  5
389
  8
NOTE
  6
CONTINUOUS
 62
     4
 10
46.626288000000002
 20
-103.457145
 30
0.0
 11
46.626288000000002
 21
-28.457145000000001
 31
0.0
  0
TEXT
  5
38A
  8
NOTE
  6
CONTINUOUS
 62
     4
 10
-1.0174459999999981
 20
-175.69041899999999
 30
0.0
 40
64.0
  1
RA
 41
0.9
  0
POINT
  5
38B
  8
ARRANGE
  6
CONTINUOUS
 62
     1
 10
0.0
 20
0.0
 30
0.0
  0
LINE
  5
38C
  8
SIZE
  6
BYBLOCK
 62
    30
 10
-246.0
 20
0.0
 30
0.0
 11
-433.91920699999997
 21
0.0
 31
0.0
  0
LINE
  5
38D
  8
SIZE
  6
BYBLOCK
 62
    30
 10
-244.4999999999998
 20
147.5
 30
0.0
 11
-433.91920699999997
 21
147.5
 31
0.0
  0
LINE
  5
38E
  8
SIZE
  6
BYBLOCK
 62
    30
 10
-403.91920699999991
 20
149.5
 30
0.0
 11
-403.91920699999991
 21
151.5
 31
0.0
  0
LINE
  5
38F
  8
SIZE
  6
BYBLOCK
 62
    30
 10
-403.91920699999991
 20
-2.0
 30
0.0
 11
-403.91920699999991
 21
-4.0
 31
0.0
  0
LINE
  5
390
  8
SIZE
  6
BYBLOCK
 62
    30
 10
-403.91920699999991
 20
147.5
 30
0.0
 11
-403.91920699999991
 21
0.0
 31
0.0
  0
TEXT
  5
391
  8
SIZE
  6
BYBLOCK
 62
    30
 10
-435.9192069999998
 20
-35.964286000000001
 30
0.0
 40
64.0
  1
147.5
 50
90.0
 41
0.9
  0
LINE
  5
392
  8
SIZE
  6
BYBLOCK
 62
    30
 10
299.0
 20
62.0
 30
0.0
 11
299.0
 21
-222.68022499999989
 31
0.0
  0
LINE
  5
393
  8
SIZE
  6
BYBLOCK
 62
    30
 10
272.5
 20
58.5
 30
0.0
 11
272.5
 21
-222.68022499999989
 31
0.0
  0
LINE
  5
394
  8
SIZE
  6
BYBLOCK
 62
    30
 10
270.5
 20
-192.68022500000001
 30
0.0
 11
268.5
 21
-192.68022500000001
 31
0.0
  0
LINE
  5
395
  8
SIZE
  6
BYBLOCK
 62
    30
 10
301.0
 20
-192.68022500000001
 30
0.0
 11
303.0
 21
-192.68022500000001
 31
0.0
  0
LINE
  5
396
  8
SIZE
  6
BYBLOCK
 62
    30
 10
272.5
 20
-192.68022500000001
 30
0.0
 11
299.0
 21
-192.68022500000001
 31
0.0
  0
TEXT
  5
397
  8
SIZE
  6
BYBLOCK
 62
    30
 10
329.93769099999992
 20
-160.68022500000001
 30
0.0
 40
64.0
  1
26.5
 41
0.9
  0
LINE
  5
398
  8
SIZE
  6
BYBLOCK
 62
    30
 10
299.0
 20
62.0
 30
0.0
 11
299.0
 21
-346.77972399999987
 31
0.0
  0
LINE
  5
399
  8
SIZE
  6
BYBLOCK
 62
    30
 10
229.49999999999989
 20
58.5
 30
0.0
 11
229.49999999999989
 21
-346.77972399999987
 31
0.0
  0
LINE
  5
39A
  8
SIZE
  6
BYBLOCK
 62
    30
 10
227.49999999999989
 20
-316.77972399999999
 30
0.0
 11
225.49999999999989
 21
-316.77972399999999
 31
0.0
  0
LINE
  5
39B
  8
SIZE
  6
BYBLOCK
 62
    30
 10
301.0
 20
-316.77972399999999
 30
0.0
 11
303.0
 21
-316.77972399999999
 31
0.0
  0
LINE
  5
39C
  8
SIZE
  6
BYBLOCK
 62
    30
 10
229.49999999999989
 20
-316.77972399999999
 30
0.0
 11
299.0
 21
-316.77972399999999
 31
0.0
  0
TEXT
  5
39D
  8
SIZE
  6
BYBLOCK
 62
    30
 10
332.00182000000001
 20
-284.77972399999982
 30
0.0
 40
64.0
  1
69.5
 41
0.9
  0
LINE
  5
39E
  8
SIZE
  6
BYBLOCK
 62
    30
 10
193.0
 20
-20.0
 30
0.0
 11
193.0
 21
-476.98369899999989
 31
0.0
  0
LINE
  5
39F
  8
SIZE
  6
BYBLOCK
 62
    30
 10
299.0
 20
62.0
 30
0.0
 11
299.0
 21
-476.98369899999989
 31
0.0
  0
LINE
  5
3A0
  8
SIZE
  6
BYBLOCK
 62
    30
 10
301.0
 20
-446.983699
 30
0.0
 11
303.0
 21
-446.983699
 31
0.0
  0
LINE
  5
3A1
  8
SIZE
  6
BYBLOCK
 62
    30
 10
191.0
 20
-446.983699
 30
0.0
 11
189.0
 21
-446.983699
 31
0.0
  0
LINE
  5
3A2
  8
SIZE
  6
BYBLOCK
 62
    30
 10
299.0
 20
-446.983699
 30
0.0
 11
193.0
 21
-446.983699
 31
0.0
  0
TEXT
  5
3A3
  8
SIZE
  6
BYBLOCK
 62
    30
 10
331.87316699999991
 20
-414.98369899999989
 30
0.0
 40
64.0
  1
106
 41
0.9
  0
LINE
  5
3A4
  8
SIZE
  6
BYBLOCK
 62
    30
 10
319.0
 20
180.0
 30
0.0
 11
572.40866700000004
 21
180.0
 31
0.0
  0
LINE
  5
3A5
  8
SIZE
  6
BYBLOCK
 62
    30
 10
319.0
 20
82.0
 30
0.0
 11
572.40866700000004
 21
82.0
 31
0.0
  0
LINE
  5
3A6
  8
SIZE
  6
BYBLOCK
 62
    30
 10
542.40866700000004
 20
80.0
 30
0.0
 11
542.40866700000004
 21
78.0
 31
0.0
  0
LINE
  5
3A7
  8
SIZE
  6
BYBLOCK
 62
    30
 10
542.40866700000004
 20
182.0
 30
0.0
 11
542.40866700000004
 21
184.0
 31
0.0
  0
LINE
  5
3A8
  8
SIZE
  6
BYBLOCK
 62
    30
 10
542.40866700000004
 20
82.0
 30
0.0
 11
542.40866700000004
 21
180.0
 31
0.0
  0
TEXT
  5
3A9
  8
SIZE
  6
BYBLOCK
 62
    30
 10
510.40866699999998
 20
219.21886499999991
 30
0.0
 40
64.0
  1
φ98
 50
90.0
 41
0.9
  0
LINE
  5
3AA
  8
SIZE
  6
BYBLOCK
 62
    30
 10
292.5
 20
78.5
 30
0.0
 11
706.20246299999985
 21
78.5
 31
0.0
  0
LINE
  5
3AB
  8
SIZE
  6
BYBLOCK
 62
    30
 10
292.5
 20
183.4999999999998
 30
0.0
 11
706.20246299999985
 21
183.4999999999998
 31
0.0
  0
LINE
  5
3AC
  8
SIZE
  6
BYBLOCK
 62
    30
 10
676.20246299999985
 20
185.5
 30
0.0
 11
676.20246299999985
 21
187.5
 31
0.0
  0
LINE
  5
3AD
  8
SIZE
  6
BYBLOCK
 62
    30
 10
676.20246299999985
 20
76.5
 30
0.0
 11
676.20246299999985
 21
74.5
 31
0.0
  0
LINE
  5
3AE
  8
SIZE
  6
BYBLOCK
 62
    30
 10
676.20246299999985
 20
183.4999999999998
 30
0.0
 11
676.20246299999985
 21
78.5
 31
0.0
  0
TEXT
  5
3AF
  8
SIZE
  6
BYBLOCK
 62
    30
 10
644.20246299999985
 20
215.83396499999981
 30
0.0
 40
64.0
  1
φ105
 50
90.0
 41
0.9
  0
LINE
  5
3B0
  8
SIZE
  6
BYBLOCK
 62
    30
 10
185.0
 20
187.5
 30
0.0
 11
185.0
 21
506.400038
 31
0.0
  0
LINE
  5
3B1
  8
SIZE
  6
BYBLOCK
 62
    30
 10
-185.0
 20
187.5
 30
0.0
 11
-185.0
 21
506.400038
 31
0.0
  0
LINE
  5
3B2
  8
SIZE
  6
BYBLOCK
 62
    30
 10
183.0
 20
476.40003799999988
 30
0.0
 11
0.0
 21
476.40003799999988
 31
0.0
  0
LINE
  5
3B3
  8
SIZE
  6
BYBLOCK
 62
    30
 10
-183.0
 20
476.40003799999988
 30
0.0
 11
0.0
 21
476.40003799999988
 31
0.0
  0
TEXT
  5
3B4
  8
SIZE
  6
BYBLOCK
 62
    30
 10
-74.057143000000025
 20
508.40003799999988
 30
0.0
 40
64.0
  1
370
 41
0.9
  0
LINE
  5
3B5
  8
SIZE
  6
BYBLOCK
 62
    30
 10
246.0
 20
0.0
 30
0.0
 11
850.25461399999972
 21
0.0
 31
0.0
  0
LINE
  5
3B6
  8
SIZE
  6
BYBLOCK
 62
    30
 10
349.011708
 20
131.0
 30
0.0
 11
850.25461399999972
 21
131.0
 31
0.0
  0
LINE
  5
3B7
  8
SIZE
  6
BYBLOCK
 62
    30
 10
820.25461399999995
 20
2.0
 30
0.0
 11
820.25461399999995
 21
65.5
 31
0.0
  0
LINE
  5
3B8
  8
SIZE
  6
BYBLOCK
 62
    30
 10
820.25461399999995
 20
129.0
 30
0.0
 11
820.25461399999995
 21
65.5
 31
0.0
  0
TEXT
  5
3B9
  8
SIZE
  6
BYBLOCK
 62
    30
 10
788.25461399999983
 20
9.2714289999999995
 30
0.0
 40
64.0
  1
131
 50
90.0
 41
0.9
  0
LINE
  5
3BA
  8
SIZE
  6
BYBLOCK
 62
    30
 10
247.5
 20
0.0
 30
0.0
 11
1001.02281
 21
0.0
 31
0.0
  0
LINE
  5
3BB
  8
SIZE
  6
BYBLOCK
 62
    30
 10
205.0
 20
204.0
 30
0.0
 11
1001.02281
 21
204.0
 31
0.0
  0
LINE
  5
3BC
  8
SIZE
  6
BYBLOCK
 62
    30
 10
971.02281000000005
 20
2.0
 30
0.0
 11
971.02281000000005
 21
102.0
 31
0.0
  0
LINE
  5
3BD
  8
SIZE
  6
BYBLOCK
 62
    30
 10
971.02281000000005
 20
202.0
 30
0.0
 11
971.02281000000005
 21
102.0
 31
0.0
  0
TEXT
  5
3BE
  8
SIZE
  6
BYBLOCK
 62
    30
 10
939.02280999999994
 20
26.571428999999998
 30
0.0
 40
64.0
  1
204
 50
90.0
 41
0.9
  0
LINE
  5
3BF
  8
SIZE
  6
BYBLOCK
 62
    30
 10
240.5
 20
-9.0
 30
0.0
 11
1001.02281
 21
-9.0
 31
0.0
  0
LINE
  5
3C0
  8
SIZE
  6
BYBLOCK
 62
    30
 10
247.5
 20
0.0
 30
0.0
 11
1001.02281
 21
0.0
 31
0.0
  0
LINE
  5
3C1
  8
SIZE
  6
BYBLOCK
 62
    30
 10
971.02281000000005
 20
2.0
 30
0.0
 11
971.02281000000005
 21
4.0
 31
0.0
  0
LINE
  5
3C2
  8
SIZE
  6
BYBLOCK
 62
    30
 10
971.02281000000005
 20
-11.0
 30
0.0
 11
971.02281000000005
 21
-13.0
 31
0.0
  0
LINE
  5
3C3
  8
SIZE
  6
BYBLOCK
 62
    30
 10
971.02281000000005
 20
0.0
 30
0.0
 11
971.02281000000005
 21
-9.0
 31
0.0
  0
TEXT
  5
3C4
  8
SIZE
  6
BYBLOCK
 62
    30
 10
939.02280999999994
 20
-75.827814000000004
 30
0.0
 40
64.0
  1
9
 50
90.0
 41
0.9
  0
LINE
  5
3C5
  8
SIZE
  6
BYBLOCK
 62
    30
 10
193.0
 20
-20.0
 30
0.0
 11
193.0
 21
-476.96165000000002
 31
0.0
  0
LINE
  5
3C6
  8
SIZE
  6
BYBLOCK
 62
    30
 10
-193.0
 20
-20.0
 30
0.0
 11
-193.0
 21
-476.96165000000002
 31
0.0
  0
LINE
  5
3C7
  8
SIZE
  6
BYBLOCK
 62
    30
 10
191.0
 20
-446.96164999999979
 30
0.0
 11
0.0
 21
-446.96164999999979
 31
0.0
  0
LINE
  5
3C8
  8
SIZE
  6
BYBLOCK
 62
    30
 10
-191.0
 20
-446.96164999999979
 30
0.0
 11
0.0
 21
-446.96164999999979
 31
0.0
  0
TEXT
  5
3C9
  8
SIZE
  6
BYBLOCK
 62
    30
 10
-105.32571399999991
 20
-414.96165000000002
 30
0.0
 40
64.0
  1
□386
 41
0.9
  0
LINE
  5
3CA
  8
SIZE
  6
BYBLOCK
 62
    30
 10
227.49999999999989
 20
-22.0
 30
0.0
 11
227.49999999999989
 21
-726.95043299999998
 31
0.0
  0
LINE
  5
3CB
  8
SIZE
  6
BYBLOCK
 62
    30
 10
-227.49999999999989
 20
-22.0
 30
0.0
 11
-227.49999999999989
 21
-726.95043299999998
 31
0.0
  0
LINE
  5
3CC
  8
SIZE
  6
BYBLOCK
 62
    30
 10
225.49999999999989
 20
-696.95043299999975
 30
0.0
 11
0.0
 21
-696.95043299999975
 31
0.0
  0
LINE
  5
3CD
  8
SIZE
  6
BYBLOCK
 62
    30
 10
-225.49999999999989
 20
-696.95043299999975
 30
0.0
 11
0.0
 21
-696.95043299999975
 31
0.0
  0
TEXT
  5
3CE
  8
SIZE
  6
BYBLOCK
 62
    30
 10
-106.6971429999999
 20
-664.95043299999998
 30
0.0
 40
64.0
  1
□455
 41
0.9
  0
LINE
  5
3CF
  8
SIZE
  6
BYBLOCK
 62
    30
 10
-206.0
 20
-40.0
 30
0.0
 11
-206.0
 21
-600.96046100000001
 31
0.0
  0
LINE
  5
3D0
  8
SIZE
  6
BYBLOCK
 62
    30
 10
206.0
 20
-40.0
 30
0.0
 11
206.0
 21
-600.96046100000001
 31
0.0
  0
LINE
  5
3D1
  8
SIZE
  6
BYBLOCK
 62
    30
 10
-204.0
 20
-570.96046100000001
 30
0.0
 11
0.0
 21
-570.96046100000001
 31
0.0
  0
LINE
  5
3D2
  8
SIZE
  6
BYBLOCK
 62
    30
 10
204.0
 20
-570.96046100000001
 30
0.0
 11
0.0
 21
-570.96046100000001
 31
0.0
  0
TEXT
  5
3D3
  8
SIZE
  6
BYBLOCK
 62
    30
 10
-68.571429000000009
 20
-538.96046100000001
 30
0.0
 40
64.0
  1
412
 41
0.9
  0
LINE
  5
3D4
  8
SIZE
  6
BYBLOCK
 62
    30
 10
-150.0
 20
-40.0
 30
0.0
 11
-150.0
 21
-345.21291300000001
 31
0.0
  0
LINE
  5
3D5
  8
SIZE
  6
BYBLOCK
 62
    30
 10
150.0
 20
-40.0
 30
0.0
 11
150.0
 21
-345.21291300000001
 31
0.0
  0
LINE
  5
3D6
  8
SIZE
  6
BYBLOCK
 62
    30
 10
-148.0
 20
-315.21291300000001
 30
0.0
 11
0.0
 21
-315.21291300000001
 31
0.0
  0
LINE
  5
3D7
  8
SIZE
  6
BYBLOCK
 62
    30
 10
148.0
 20
-315.21291300000001
 30
0.0
 11
0.0
 21
-315.21291300000001
 31
0.0
  0
TEXT
  5
3D8
  8
SIZE
  6
BYBLOCK
 62
    30
 10
-74.057143000000025
 20
-283.21291300000001
 30
0.0
 40
64.0
  1
300
 41
0.9
  0
CIRCLE
  5
3D9
  8
SIZE
  6
CONTINUOUS
 62
    30
 10
150.0
 20
-315.21291300000001
 30
0.0
 40
6.0
  0
CIRCLE
  5
3DA
  8
SIZE
  6
CONTINUOUS
 62
    30
 10
-150.0
 20
-315.21291300000001
 30
0.0
 40
6.0
  0
CIRCLE
  5
3DB
  8
SIZE
  6
CONTINUOUS
 62
    30
 10
206.0
 20
-570.96046100000001
 30
0.0
 40
6.0
  0
CIRCLE
  5
3DC
  8
SIZE
  6
CONTINUOUS
 62
    30
 10
-206.0
 20
-570.96046100000001
 30
0.0
 40
6.0
  0
CIRCLE
  5
3DD
  8
SIZE
  6
CONTINUOUS
 62
    30
 10
-227.49999999999989
 20
-696.95043299999975
 30
0.0
 40
6.0
  0
CIRCLE
  5
3DE
  8
SIZE
  6
CONTINUOUS
 62
    30
 10
227.49999999999989
 20
-696.95043299999975
 30
0.0
 40
6.0
  0
CIRCLE
  5
3DF
  8
SIZE
  6
CONTINUOUS
 62
    30
 10
-193.0
 20
-446.96164999999979
 30
0.0
 40
6.0
  0
CIRCLE
  5
3E0
  8
SIZE
  6
CONTINUOUS
 62
    30
 10
193.0
 20
-446.96164999999979
 30
0.0
 40
6.0
  0
CIRCLE
  5
3E1
  8
SIZE
  6
CONTINUOUS
 62
    30
 10
971.02281000000005
 20
-9.0
 30
0.0
 40
6.0
  0
CIRCLE
  5
3E2
  8
SIZE
  6
CONTINUOUS
 62
    30
 10
971.02281000000005
 20
0.0
 30
0.0
 40
6.0
  0
CIRCLE
  5
3E3
  8
SIZE
  6
CONTINUOUS
 62
    30
 10
971.02281000000005
 20
204.0
 30
0.0
 40
6.0
  0
CIRCLE
  5
3E4
  8
SIZE
  6
CONTINUOUS
 62
    30
 10
971.02281000000005
 20
0.0
 30
0.0
 40
6.0
  0
CIRCLE
  5
3E5
  8
SIZE
  6
CONTINUOUS
 62
    30
 10
820.25461399999995
 20
131.0
 30
0.0
 40
6.0
  0
CIRCLE
  5
3E6
  8
SIZE
  6
CONTINUOUS
 62
    30
 10
820.25461399999995
 20
0.0
 30
0.0
 40
6.0
  0
CIRCLE
  5
3E7
  8
SIZE
  6
CONTINUOUS
 62
    30
 10
-185.0
 20
476.40003799999988
 30
0.0
 40
6.0
  0
CIRCLE
  5
3E8
  8
SIZE
  6
CONTINUOUS
 62
    30
 10
185.0
 20
476.40003799999988
 30
0.0
 40
6.0
  0
CIRCLE
  5
3E9
  8
SIZE
  6
CONTINUOUS
 62
    30
 10
676.20246299999985
 20
78.5
 30
0.0
 40
6.0
  0
CIRCLE
  5
3EA
  8
SIZE
  6
CONTINUOUS
 62
    30
 10
676.20246299999985
 20
183.4999999999998
 30
0.0
 40
6.0
  0
CIRCLE
  5
3EB
  8
SIZE
  6
CONTINUOUS
 62
    30
 10
542.40866700000004
 20
180.0
 30
0.0
 40
6.0
  0
CIRCLE
  5
3EC
  8
SIZE
  6
CONTINUOUS
 62
    30
 10
542.40866700000004
 20
82.0
 30
0.0
 40
6.0
  0
CIRCLE
  5
3ED
  8
SIZE
  6
CONTINUOUS
 62
    30
 10
193.0
 20
-446.983699
 30
0.0
 40
6.0
  0
CIRCLE
  5
3EE
  8
SIZE
  6
CONTINUOUS
 62
    30
 10
299.0
 20
-446.983699
 30
0.0
 40
6.0
  0
CIRCLE
  5
3EF
  8
SIZE
  6
CONTINUOUS
 62
    30
 10
299.0
 20
-316.77972399999999
 30
0.0
 40
6.0
  0
CIRCLE
  5
3F0
  8
SIZE
  6
CONTINUOUS
 62
    30
 10
229.49999999999989
 20
-316.77972399999999
 30
0.0
 40
6.0
  0
CIRCLE
  5
3F1
  8
SIZE
  6
CONTINUOUS
 62
    30
 10
299.0
 20
-192.68022500000001
 30
0.0
 40
6.0
  0
CIRCLE
  5
3F2
  8
SIZE
  6
CONTINUOUS
 62
    30
 10
272.5
 20
-192.68022500000001
 30
0.0
 40
6.0
  0
CIRCLE
  5
3F3
  8
SIZE
  6
CONTINUOUS
 62
    30
 10
-403.91920699999991
 20
0.0
 30
0.0
 40
6.0
  0
CIRCLE
  5
3F4
  8
SIZE
  6
CONTINUOUS
 62
    30
 10
-403.91920699999991
 20
147.5
 30
0.0
 40
6.0
  0
LINE
  5
3F5
  8
NOTE
  6
CONTINUOUS
 62
     4
 10
206.0
 20
-20.0
 30
0.0
 11
206.0
 21
20.0
 31
0.0
  0
LINE
  5
3F6
  8
NOTE
  6
CONTINUOUS
 62
     4
 10
186.0
 20
0.0
 30
0.0
 11
226.0
 21
0.0
 31
0.0
  0
LINE
  5
3F7
  8
NOTE
  6
CONTINUOUS
 62
     4
 10
150.0
 20
-20.0
 30
0.0
 11
150.0
 21
20.0
 31
0.0
  0
LINE
  5
3F8
  8
NOTE
  6
CONTINUOUS
 62
     4
 10
130.0
 20
0.0
 30
0.0
 11
170.0
 21
0.0
 31
0.0
  0
LINE
  5
3F9
  8
NOTE
  6
CONTINUOUS
 62
     4
 10
-150.0
 20
-20.0
 30
0.0
 11
-150.0
 21
20.0
 31
0.0
  0
LINE
  5
3FA
  8
NOTE
  6
CONTINUOUS
 62
     4
 10
-170.0
 20
0.0
 30
0.0
 11
-130.0
 21
0.0
 31
0.0
  0
LINE
  5
3FB
  8
NOTE
  6
CONTINUOUS
 62
     4
 10
-206.0
 20
-20.0
 30
0.0
 11
-206.0
 21
20.0
 31
0.0
  0
LINE
  5
3FC
  8
NOTE
  6
CONTINUOUS
 62
     4
 10
-226.0
 20
0.0
 30
0.0
 11
-186.0
 21
0.0
 31
0.0
  0
LINE
  5
3FD
  8
NOTE
  6
CONTINUOUS
 62
     4
 10
177.5
 20
184.0
 30
0.0
 11
177.5
 21
224.0
 31
0.0
  0
LINE
  5
3FE
  8
NOTE
  6
CONTINUOUS
 62
     4
 10
157.5
 20
204.0
 30
0.0
 11
197.5
 21
204.0
 31
0.0
  0
LINE
  5
3FF
  8
NOTE
  6
CONTINUOUS
 62
     4
 10
185.0
 20
127.5
 30
0.0
 11
185.0
 21
167.5
 31
0.0
  0
LINE
  5
400
  8
NOTE
  6
CONTINUOUS
 62
     4
 10
165.0
 20
147.5
 30
0.0
 11
205.0
 21
147.5
 31
0.0
  0
LINE
  5
401
  8
NOTE
  6
CONTINUOUS
 62
     4
 10
-185.0
 20
127.5
 30
0.0
 11
-185.0
 21
167.5
 31
0.0
  0
LINE
  5
402
  8
NOTE
  6
CONTINUOUS
 62
     4
 10
-205.0
 20
147.5
 30
0.0
 11
-165.0
 21
147.5
 31
0.0
  0
LINE
  5
404
  8
NOTE
  6
CONTINUOUS
 62
     4
 10
-222.64717499999989
 20
-36.371301000000003
 30
0.0
 11
-206.0
 21
0.0
 31
0.0
  0
LINE
  5
405
  8
NOTE
  6
CONTINUOUS
 62
     4
 10
-206.0
 20
0.0
 30
0.0
 11
-238.60252700000001
 21
-23.174882999999991
 31
0.0
  0
LINE
  5
406
  8
NOTE
  6
CONTINUOUS
 62
     4
 10
-217.9476579999999
 20
170.18153100000001
 30
0.0
 11
-185.0
 21
147.5
 31
0.0
  0
LINE
  5
407
  8
NOTE
  6
CONTINUOUS
 62
     4
 10
-185.0
 20
147.5
 30
0.0
 11
-202.19274300000001
 21
183.61661100000001
 31
0.0
  0
LINE
  5
408
  8
NOTE
  6
CONTINUOUS
 62
     4
 10
36.273525999999997
 20
-67.094177999999999
 30
0.0
 11
46.626288000000002
 21
-28.457145000000001
 31
0.0
  0
LINE
  5
409
  8
NOTE
  6
CONTINUOUS
 62
     4
 10
46.626288000000002
 20
-28.457145000000001
 30
0.0
 11
56.979050000000001
 21
-67.094177999999999
 31
0.0
  0
LINE
  5
40A
  8
NOTE
  6
CONTINUOUS
 62
     4
 10
189.45095499999999
 20
187.25159099999991
 30
0.0
 11
185.0
 21
147.5
 31
0.0
  0
LINE
  5
40B
  8
NOTE
  6
CONTINUOUS
 62
     4
 10
185.0
 20
147.5
 30
0.0
 11
208.730436
 21
179.70041000000001
 31
0.0
  0
LINE
  5
40C
  8
NOTE
  6
CONTINUOUS
 62
     4
 10
178.90977699999991
 20
243.9751489999999
 30
0.0
 11
177.5
 21
204.0
 31
0.0
  0
LINE
  5
40D
  8
NOTE
  6
CONTINUOUS
 62
     4
 10
177.5
 20
204.0
 30
0.0
 11
198.7084769999999
 21
237.91460599999999
 31
0.0
  0
TEXT
  5
41B
  8
ETC
  6
CONTINUOUS
 62
    61
 10
910.25824824887275
 20
715.95237883642744
 30
0.0
 40
64.0
  1
VL-100ZS2_5
 41
0.9
  0
TEXT
  5
41C
  8
0
  6
CONTINUOUS
 62
    61
 10
1057.0288904527249
 20
411.42311635220528
 30
0.0
 40
50.0
  1
VL-100ZSD2
 41
0.9
  0
TEXT
  5
41D
  8
0
  6
CONTINUOUS
 62
    61
 10
1057.9632678217099
 20
493.83817076710869
 30
0.0
 40
50.0
  1
VL-100ZS2
 41
0.9
  0
TEXT
  5
41E
  8
0
  6
CONTINUOUS
 62
    61
 10
1062.7376336442931
 20
327.94470291259222
 30
0.0
 40
50.0
  1
VL-200ZSD2
 41
0.9
  0
TEXT
  5
41F
  8
0
  6
CONTINUOUS
 62
    61
 10
1065.866173488025
 20
249.76198289540289
 30
0.0
 40
50.0
  1
VL-200ZSA2
 41
0.9
  0
TEXT
  5
420
  8
ETC
  6
CONTINUOUS
 62
    61
 10
906.0722542488727
 20
601.59376483642745
 30
0.0
 40
64.0
  1
換気扇
 41
0.9
  0
ENDSEC
  0
EOF
