  0
SECTION
  2
HEADER
  9
$ACADVER
  1
AC1009
  9
$DWGCODEPAGE
  3
dos932
  9
$INSBASE
 10
0.0
 20
0.0
 30
0.0
  9
$EXTMIN
 10
-706.51701234341454
 20
-546.6613653659133
 30
-0.0015258207003583
  9
$EXTMAX
 10
1162.422191901622
 20
584.1522296938947
 30
0.0000000349246037
  9
$LIMMIN
 10
-2970.0
 20
-2100.0
  9
$LIMMAX
 10
2970.0
 20
2100.0
  9
$ORTHOMODE
 70
     1
  9
$REGENMODE
 70
     1
  9
$FILLMODE
 70
     1
  9
$QTEXTMODE
 70
     0
  9
$MIRRTEXT
 70
     0
  9
$LTSCALE
 40
20.0
  9
$ATTMODE
 70
     1
  9
$TEXTSIZE
 40
64.0
  9
$TRACEWID
 40
0.05
  9
$TEXTSTYLE
  7
STANDARD
  9
$CLAYER
  8
SIZE
  9
$CELTYPE
  6
CONTINUOUS
  9
$CECOLOR
 62
     7
  9
$DIMSCALE
 40
1.0
  9
$DIMASZ
 40
12.0
  9
$DIMEXO
 40
20.0
  9
$DIMDLI
 40
200.0
  9
$DIMRND
 40
0.0
  9
$DIMDLE
 40
0.0
  9
$DIMEXE
 40
20.0
  9
$DIMTP
 40
0.0
  9
$DIMTM
 40
0.0
  9
$DIMTXT
 40
64.0
  9
$DIMCEN
 40
0.09
  9
$DIMTSZ
 40
0.0
  9
$DIMTOL
 70
     0
  9
$DIMLIM
 70
     0
  9
$DIMTIH
 70
     0
  9
$DIMTOH
 70
     0
  9
$DIMSE1
 70
     0
  9
$DIMSE2
 70
     0
  9
$DIMTAD
 70
     1
  9
$DIMZIN
 70
     8
  9
$DIMBLK
  1

  9
$DIMASO
 70
     1
  9
$DIMSHO
 70
     0
  9
$DIMPOST
  1

  9
$DIMAPOST
  1

  9
$DIMALT
 70
     0
  9
$DIMALTD
 70
     2
  9
$DIMALTF
 40
25.399999999999999
  9
$DIMLFAC
 40
1.0
  9
$DIMTOFL
 70
     1
  9
$DIMTVP
 40
0.0
  9
$DIMTIX
 70
     1
  9
$DIMSOXD
 70
     0
  9
$DIMSAH
 70
     0
  9
$DIMBLK1
  1

  9
$DIMBLK2
  1

  9
$DIMSTYLE
  2
STANDARD
  9
$DIMCLRD
 70
     7
  9
$DIMCLRE
 70
     7
  9
$DIMCLRT
 70
     7
  9
$DIMTFAC
 40
1.0
  9
$DIMGAP
 40
25.0
  9
$LUNITS
 70
     2
  9
$LUPREC
 70
     4
  9
$SKETCHINC
 40
0.1
  9
$FILLETRAD
 40
3.0
  9
$AUNITS
 70
     1
  9
$AUPREC
 70
     3
  9
$MENU
  1
ACAD
  9
$ELEVATION
 40
0.0
  9
$PELEVATION
 40
0.0
  9
$THICKNESS
 40
0.0
  9
$LIMCHECK
 70
     0
  9
$CHAMFERA
 40
0.0
  9
$CHAMFERB
 40
0.0
  9
$SKPOLY
 70
     0
  9
$TDCREATE
 40
2453019.62301037
  9
$TDUPDATE
 40
2459019.502721516
  9
$TDINDWG
 40
1.7134766319
  9
$TDUSRTIMER
 40
1.7134766319
  9
$USRTIMER
 70
     1
  9
$ANGBASE
 50
0.0
  9
$ANGDIR
 70
     0
  9
$PDMODE
 70
     3
  9
$PDSIZE
 40
-2.0
  9
$PLINEWID
 40
0.0
  9
$SPLFRAME
 70
     0
  9
$SPLINETYPE
 70
     6
  9
$SPLINESEGS
 70
     8
  9
$SURFTAB1
 70
     6
  9
$SURFTAB2
 70
     6
  9
$SURFTYPE
 70
     6
  9
$SURFU
 70
     6
  9
$SURFV
 70
     6
  9
$UCSNAME
  2

  9
$UCSORG
 10
0.0
 20
0.0
 30
0.0
  9
$UCSXDIR
 10
1.0
 20
0.0
 30
0.0
  9
$UCSYDIR
 10
0.0
 20
1.0
 30
0.0
  9
$PUCSNAME
  2

  9
$PUCSORG
 10
0.0
 20
0.0
 30
0.0
  9
$PUCSXDIR
 10
1.0
 20
0.0
 30
0.0
  9
$PUCSYDIR
 10
0.0
 20
1.0
 30
0.0
  9
$USERI1
 70
     0
  9
$USERI2
 70
     0
  9
$USERI3
 70
     0
  9
$USERI4
 70
     0
  9
$USERI5
 70
     0
  9
$USERR1
 40
20.0
  9
$USERR2
 40
0.0
  9
$USERR3
 40
0.0
  9
$USERR4
 40
0.0
  9
$USERR5
 40
0.0
  9
$WORLDVIEW
 70
     1
  9
$SHADEDGE
 70
     3
  9
$SHADEDIF
 70
    70
  9
$TILEMODE
 70
     1
  9
$MAXACTVP
 70
    48
  9
$PINSBASE
 10
0.0
 20
0.0
 30
0.0
  9
$PLIMCHECK
 70
     0
  9
$PEXTMIN
 10
-100000000000000000000.0
 20
-100000000000000000000.0
 30
-100000000000000000000.0
  9
$PEXTMAX
 10
100000000000000000000.0
 20
100000000000000000000.0
 30
100000000000000000000.0
  9
$PLIMMIN
 10
0.0
 20
0.0
  9
$PLIMMAX
 10
12.0
 20
9.0
  9
$UNITMODE
 70
     0
  9
$VISRETAIN
 70
     0
  9
$PLINEGEN
 70
     0
  9
$PSLTSCALE
 70
     0
  9
$TREEDEPTH
 70
  3020
  9
$ATTDIA
 70
     0
  9
$ATTREQ
 70
     1
  9
$BLIPMODE
 70
     1
  9
$COORDS
 70
     1
  9
$DRAGMODE
 70
     2
  9
$OSMODE
 70
     0
  9
$HANDLING
 70
     0
  9
$HANDSEED
  5
FC62
  0
ENDSEC
  0
SECTION
  2
TABLES
  0
TABLE
  2
LTYPE
 70
     2
  0
LTYPE
  2
CONTINUOUS
 70
     0
  3
実線
 72
    65
 73
     0
 40
0.0
  0
LTYPE
  2
DASHDOT
 70
     0
  3
____ _ ____ _ ____ _ ____ _ ____ _ ____ _ ____
 72
    65
 73
     4
 40
5.5
 49
4.0
 49
-0.6
 49
0.3
 49
-0.6
  0
ENDTAB
  0
TABLE
  2
LAYER
 70
    12
  0
LAYER
  2
0
 70
     0
 62
     7
  6
CONTINUOUS
  0
LAYER
  2
BASIS
 70
     0
 62
     6
  6
DASHDOT
  0
LAYER
  2
OUTLINE
 70
     0
 62
     3
  6
CONTINUOUS
  0
LAYER
  2
DETAIL
 70
     0
 62
     5
  6
CONTINUOUS
  0
LAYER
  2
SIZE
 70
     0
 62
    30
  6
CONTINUOUS
  0
LAYER
  2
ARRANGE
 70
     0
 62
     1
  6
CONTINUOUS
  0
LAYER
  2
DEFPOINTS
 70
     0
 62
     7
  6
CONTINUOUS
  0
LAYER
  2
ETC
 70
     0
 62
    61
  6
CONTINUOUS
  0
LAYER
  2
FIX
 70
     0
 62
    11
  6
CONTINUOUS
  0
LAYER
  2
NOTE
 70
     0
 62
     4
  6
CONTINUOUS
  0
LAYER
  2
SERVICESPACE
 70
    64
 62
     2
  6
DASHDOT
  0
LAYER
  2
SYMBOLLINE
 70
    64
 62
    15
  6
CONTINUOUS
  0
ENDTAB
  0
TABLE
  2
STYLE
 70
     1
  0
STYLE
  2
STANDARD
 70
     0
 40
64.0
 41
0.9
 50
0.0
 71
     0
 42
64.0
  3
SIMPLEX.shx
  4
BIGFONT.shx
  0
ENDTAB
  0
TABLE
  2
APPID
 70
    19
  0
APPID
  2
ACAD
 70
     0
  0
APPID
  2
AUTOCAD_POSTSCRIPT_FIGURE
 70
     0
  0
APPID
  2
ACAD_EXEMPT_FROM_CAD_STANDARDS
 70
     0
  0
APPID
  2
ACAD_PSEXT
 70
     0
  0
APPID
  2
ACAUTHENVIRON
 70
     0
  0
APPID
  2
GENIUS_GENOENT_13
 70
     0
  0
APPID
  2
GENIUS_GENCFG_13
 70
     0
  0
APPID
  2
GENIUS_GENCFG0_13
 70
     0
  0
APPID
  2
GENIUS_GENCFG1_13
 70
     0
  0
APPID
  2
GENIUS_GENCFG2_13
 70
     0
  0
APPID
  2
GENIUS_GENCFG3_13
 70
     0
  0
APPID
  2
GENIUS_GENCFG4_13
 70
     0
  0
APPID
  2
GENIUS_GEVCFG0_13
 70
     0
  0
APPID
  2
CONTENTBLOCKICON
 70
     0
  0
APPID
  2
CONTENTBLOCKDESCRIPTION
 70
     0
  0
APPID
  2
ACAD_NAV_VCDISPLAY
 70
     0
  0
APPID
  2
ACAD_MLEADERVER
 70
     0
  0
APPID
  2
ACDBDYNAMICBLOCKTRUENAME
 70
     0
  0
APPID
  2
ACDBDYNAMICBLOCKGUID
 70
     0
  0
ENDTAB
  0
TABLE
  2
DIMSTYLE
 70
     1
  0
DIMSTYLE
  2
STANDARD
 70
     0
  3

  4

  5
_ORIGIN
  6

  7

 40
1.0
 41
12.0
 42
20.0
 43
200.0
 44
20.0
 45
0.0
 46
0.0
 47
0.0
 48
0.0
140
64.0
141
0.09
142
0.0
143
25.399999999999999
144
1.0
145
0.0
146
1.0
147
25.0
 71
     0
 72
     0
 73
     0
 74
     0
 75
     0
 76
     0
 77
     1
 78
     8
170
     0
171
     2
172
     1
173
     0
174
     1
175
     0
176
     7
177
     7
178
     7
  0
ENDTAB
  0
TABLE
  2
VIEW
 70
     1
  0
VIEW
  2
ALL
 70
     0
 40
4282.6198079999986
 10
0.0
 20
41.309904000000003
 41
5940.0
 11
0.0
 21
0.0
 31
1.0
 12
0.0
 22
0.0
 32
0.0
 42
50.0
 43
0.0
 44
0.0
 50
0.0
 71
     0
  0
ENDTAB
  0
TABLE
  2
UCS
 70
     0
  0
ENDTAB
  0
TABLE
  2
VPORT
 70
     1
  0
VPORT
  2
*ACTIVE
 70
     0
 10
0.0
 20
0.0
 11
1.0
 21
1.0
 12
227.95258977910359
 22
18.745432163990699
 13
0.0
 23
0.0
 14
1.0
 24
1.0
 15
0.0
 25
0.0
 16
0.0
 26
0.0
 36
1.0
 17
0.0
 27
0.0
 37
0.0
 40
1138.3107017673869
 41
1.747787610619469
 42
50.0
 43
0.0
 44
0.0
 50
0.0
 51
0.0
 71
     0
 72
  1000
 73
     1
 74
     3
 75
     0
 76
     0
 77
     0
 78
     0
  0
ENDTAB
  0
ENDSEC
  0
SECTION
  2
BLOCKS
  0
BLOCK
  8
0
  2
_ORIGIN
 70
     0
 10
0.0
 20
0.0
 30
0.0
  3
_ORIGIN
  1
_ORIGIN
  0
CIRCLE
  8
0
  6
CONTINUOUS
 62
     7
 10
0.0
 20
0.0
 30
0.0
 40
0.5
  0
LINE
  8
0
  6
CONTINUOUS
 62
     7
 10
0.0
 20
0.0
 30
0.0
 11
-1.0
 21
0.0
 31
0.0
  0
ENDBLK
  8
0
  0
ENDSEC
  0
SECTION
  2
ENTITIES
  0
CIRCLE
  8
ARRANGE
  6
CONTINUOUS
 62
     1
 10
0.0
 20
0.0
 30
0.0
 40
40.0
  0
POINT
  8
ARRANGE
  6
CONTINUOUS
 62
     1
 10
0.0
 20
0.0
 30
0.0
  0
LINE
  8
BASIS
  6
DASHDOT
 62
     6
 10
0.0
 20
-240.753567
 30
0.0
 11
0.0
 21
50.62944600000003
 31
0.0
  0
LINE
  8
BASIS
  6
DASHDOT
 62
     6
 10
-461.00003299999997
 20
-114.0
 30
0.0
 11
-272.05152399999997
 21
-114.0
 31
0.0
  0
LINE
  8
BASIS
  6
DASHDOT
 62
     6
 10
273.60085299999992
 20
-114.0
 30
0.0
 11
483.84510999999998
 21
-114.0
 31
0.0
  0
TEXT
  8
NOTE
  6
CONTINUOUS
 62
     4
 10
-471.95476600000001
 20
-254.996297
 30
0.0
 40
64.0
  1
SA RA3 RA1
 50
90.0
 41
0.9
  0
LINE
  8
DETAIL
  6
CONTINUOUS
 62
     5
 10
219.88502000000011
 20
-246.80000000000001
 30
0.0
 11
-219.88502000000011
 21
-246.80000000000001
 31
0.0
  0
LINE
  8
DETAIL
  6
CONTINUOUS
 62
     5
 10
-257.6123
 20
-222.80000000000001
 30
0.0
 11
257.6123
 21
-222.80000000000001
 31
0.0
  0
LINE
  8
DETAIL
  6
CONTINUOUS
 62
     5
 10
137.27234999999999
 20
-232.30000000000001
 30
0.0
 11
7.5
 21
-232.29930999999999
 31
0.0
  0
LINE
  8
DETAIL
  6
CONTINUOUS
 62
     5
 10
75.570280000000025
 20
-185.5
 30
0.0
 11
291.63627999999989
 21
-185.5
 31
0.0
  0
LINE
  8
DETAIL
  6
CONTINUOUS
 62
     5
 10
-210.40000000000001
 20
0.0
 30
0.0
 11
210.40000000000001
 21
0.0
 31
0.0
  0
LINE
  8
DETAIL
  6
CONTINUOUS
 62
     5
 10
-195.40000000000001
 20
-24.0
 30
0.0
 11
-195.40000000000001
 21
-30.0
 31
0.0
  0
LINE
  8
DETAIL
  6
CONTINUOUS
 62
     5
 10
-197.40000000000001
 20
-30.0
 30
0.0
 11
-197.40000000000001
 21
-24.0
 31
0.0
  0
LINE
  8
DETAIL
  6
CONTINUOUS
 62
     5
 10
-200.40000000000001
 20
-32.0
 30
0.0
 11
-200.40000000000001
 21
-10.0
 31
0.0
  0
LINE
  8
DETAIL
  6
CONTINUOUS
 62
     5
 10
-340.39999999999998
 20
-32.0
 30
0.0
 11
-340.39999999999998
 21
-10.0
 31
0.0
  0
LINE
  8
DETAIL
  6
CONTINUOUS
 62
     5
 10
-343.39999999999998
 20
-30.0
 30
0.0
 11
-343.39999999999998
 21
-24.0
 31
0.0
  0
LINE
  8
DETAIL
  6
CONTINUOUS
 62
     5
 10
-345.39999999999998
 20
-30.0
 30
0.0
 11
-345.39999999999998
 21
-24.0
 31
0.0
  0
LINE
  8
DETAIL
  6
CONTINUOUS
 62
     5
 10
-352.29624999999999
 20
-32.0
 30
0.0
 11
-187.75459000000001
 21
-32.0
 31
0.0
  0
LINE
  8
DETAIL
  6
CONTINUOUS
 62
     5
 10
-352.29624999999999
 20
-34.0
 30
0.0
 11
-187.75459000000001
 21
-34.0
 31
0.0
  0
LINE
  8
DETAIL
  6
CONTINUOUS
 62
     5
 10
-238.0
 20
-228.80000000000001
 30
0.0
 11
-257.02618000000001
 21
-228.80000000000001
 31
0.0
  0
LINE
  8
DETAIL
  6
CONTINUOUS
 62
     5
 10
-291.63628
 20
-185.5
 30
0.0
 11
-75.570280000000025
 21
-185.5
 31
0.0
  0
LINE
  8
DETAIL
  6
CONTINUOUS
 62
     5
 10
-435.00243999999998
 20
-163.06983
 30
0.0
 11
-389.0
 21
-166.28999999999999
 31
0.0
  0
LINE
  8
DETAIL
  6
CONTINUOUS
 62
     5
 10
-435.00243999999998
 20
-64.930169999999976
 30
0.0
 11
-389.0
 21
-61.70999999999998
 31
0.0
  0
LINE
  8
DETAIL
  6
CONTINUOUS
 62
     5
 10
-436.0
 20
-162.0
 30
0.0
 11
-436.0
 21
-66.0
 31
0.0
  0
LINE
  8
DETAIL
  6
CONTINUOUS
 62
     5
 10
-435.00243999999998
 20
-163.06983
 30
0.0
 11
-436.0
 21
-162.0
 31
0.0
  0
LINE
  8
DETAIL
  6
CONTINUOUS
 62
     5
 10
-435.00243999999998
 20
-64.930169999999976
 30
0.0
 11
-436.0
 21
-66.0
 31
0.0
  0
LINE
  8
DETAIL
  6
CONTINUOUS
 62
     5
 10
-288.0
 20
-178.5
 30
0.0
 11
-288.0
 21
-60.5
 31
0.0
  0
LINE
  8
DETAIL
  6
CONTINUOUS
 62
     5
 10
-359.0
 20
-186.75
 30
0.0
 11
-359.0
 21
-41.25
 31
0.0
  0
LINE
  8
DETAIL
  6
CONTINUOUS
 62
     5
 10
-329.0
 20
-198.5
 30
0.0
 11
-329.0
 21
-34.0
 31
0.0
  0
LINE
  8
DETAIL
  6
CONTINUOUS
 62
     5
 10
-389.0
 20
-178.0
 30
0.0
 11
-389.0
 21
-50.0
 31
0.0
  0
LINE
  8
DETAIL
  6
CONTINUOUS
 62
     5
 10
-285.0
 20
-34.0
 30
0.0
 11
-285.0
 21
-185.5
 31
0.0
  0
LINE
  8
DETAIL
  6
CONTINUOUS
 62
     5
 10
-329.0
 20
-186.75
 30
0.0
 11
-359.0
 21
-186.75
 31
0.0
  0
LINE
  8
DETAIL
  6
CONTINUOUS
 62
     5
 10
-359.0
 20
-178.0
 30
0.0
 11
-389.0
 21
-178.0
 31
0.0
  0
LINE
  8
DETAIL
  6
CONTINUOUS
 62
     5
 10
-261.69429000000002
 20
-220.85035999999999
 30
0.0
 11
-273.67374000000001
 21
-195.89318
 31
0.0
  0
LINE
  8
DETAIL
  6
CONTINUOUS
 62
     5
 10
-257.02618000000001
 20
-228.80000000000001
 30
0.0
 11
-257.11315000000002
 21
-223.81746000000001
 31
0.0
  0
ARC
  8
DETAIL
  6
CONTINUOUS
 62
     5
 10
-256.11329999999998
 20
-223.80000000000001
 30
0.0
 40
1.0
 50
90.0
 51
180.99999800000049
  0
ARC
  8
DETAIL
  6
CONTINUOUS
 62
     5
 10
-257.6123
 20
-217.80000000000001
 30
0.0
 40
5.0
 50
216.9857670000016
 51
270.0
  0
ARC
  8
DETAIL
  6
CONTINUOUS
 62
     5
 10
-257.6123
 20
-217.80000000000001
 30
0.0
 40
5.0
 50
205.64100600000319
 51
208.64248400000329
  0
LINE
  8
DETAIL
  6
CONTINUOUS
 62
     5
 10
-288.0
 20
-198.5
 30
0.0
 11
-329.0
 21
-198.5
 31
0.0
  0
LINE
  8
DETAIL
  6
CONTINUOUS
 62
     5
 10
-288.0
 20
-198.5
 30
0.0
 11
-288.0
 21
-193.337717
 31
0.0
  0
ARC
  8
DETAIL
  6
CONTINUOUS
 62
     5
 10
-270.96917000000002
 20
-194.59499
 30
0.0
 40
3.0
 50
181.00000000000171
 51
205.64100600000319
  0
LINE
  8
DETAIL
  6
CONTINUOUS
 62
     5
 10
-292.46393999999998
 20
-190.55235999999999
 30
0.0
 11
-292.53615000000002
 21
-186.41570999999999
 31
0.0
  0
LINE
  8
DETAIL
  6
CONTINUOUS
 62
     5
 10
-273.96870999999999
 20
-194.64734999999999
 30
0.0
 11
-273.97158999999999
 21
-194.48255
 31
0.0
  0
LINE
  8
DETAIL
  6
CONTINUOUS
 62
     5
 10
-290.96535
 20
-192.39752999999999
 30
0.0
 11
-291.18254000000002
 21
-192.25926999999999
 31
0.0
  0
LINE
  8
DETAIL
  6
CONTINUOUS
 62
     5
 10
-291.05435
 20
-192.34087
 30
0.0
 11
-291.13632000000001
 21
-192.27727999999999
 31
0.0
  0
LINE
  8
DETAIL
  6
CONTINUOUS
 62
     5
 10
-286.017
 20
-193.5
 30
0.0
 11
-274.97143999999997
 21
-193.5
 31
0.0
  0
ARC
  8
DETAIL
  6
CONTINUOUS
 62
     5
 10
-291.63628
 20
-186.40000000000001
 30
0.0
 40
0.9
 50
90.0
 51
180.99999700000311
  0
ARC
  8
DETAIL
  6
CONTINUOUS
 62
     5
 10
-286.383083
 20
-185.776636
 30
0.0
 40
7.7320349999999998
 50
218.1450080000042
 51
272.71375800000158
  0
ARC
  8
DETAIL
  6
CONTINUOUS
 62
     5
 10
-274.97143999999997
 20
-194.5
 30
0.0
 40
1.0
 50
0.9999569999975194
 51
90.0
  0
LINE
  8
DETAIL
  6
CONTINUOUS
 62
     5
 10
-329.0
 20
-41.25
 30
0.0
 11
-359.0
 21
-41.25
 31
0.0
  0
LINE
  8
DETAIL
  6
CONTINUOUS
 62
     5
 10
-359.0
 20
-50.0
 30
0.0
 11
-389.0
 21
-50.0
 31
0.0
  0
ARC
  8
DETAIL
  6
CONTINUOUS
 62
     5
 10
-341.39999999999998
 20
-30.0
 30
0.0
 40
2.0
 50
180.0
 51
270.0
  0
ARC
  8
DETAIL
  6
CONTINUOUS
 62
     5
 10
-341.39999999999998
 20
-30.0
 30
0.0
 40
4.0
 50
180.0
 51
210.00000000000051
  0
LINE
  8
DETAIL
  6
CONTINUOUS
 62
     5
 10
-352.29624999999999
 20
-34.0
 30
0.0
 11
-352.29624999999999
 21
-32.0
 31
0.0
  0
LINE
  8
DETAIL
  6
CONTINUOUS
 62
     5
 10
-296.80000000000001
 20
-35.306429999999978
 30
0.0
 11
-296.80000000000001
 21
-35.300000000000011
 31
0.0
  0
LINE
  8
DETAIL
  6
CONTINUOUS
 62
     5
 10
-296.30000000000001
 20
-35.331379999999967
 30
0.0
 11
-296.30000000000001
 21
-35.300000000000011
 31
0.0
  0
LINE
  8
DETAIL
  6
CONTINUOUS
 62
     5
 10
-288.0
 20
-60.5
 30
0.0
 11
-288.0
 21
-34.0
 31
0.0
  0
LINE
  8
DETAIL
  6
CONTINUOUS
 62
     5
 10
-7.7276500000000397
 20
-232.30000000000001
 30
0.0
 11
-90.5
 21
-232.30000000000001
 31
0.0
  0
LINE
  8
DETAIL
  6
CONTINUOUS
 62
     5
 10
-152.72765999999999
 20
-232.30000000000001
 30
0.0
 11
-211.5
 21
-232.30000000000001
 31
0.0
  0
ARC
  8
DETAIL
  6
CONTINUOUS
 62
     5
 10
-219.88502000000011
 20
-236.80000000000001
 30
0.0
 40
10.0
 50
181.00000000000171
 51
270.0
  0
LINE
  8
DETAIL
  6
CONTINUOUS
 62
     5
 10
-212.5
 20
-230.30000000000001
 30
0.0
 11
-237.5
 21
-230.30000000000001
 31
0.0
  0
LINE
  8
DETAIL
  6
CONTINUOUS
 62
     5
 10
-229.99142000000001
 20
-230.79128
 30
0.0
 11
-229.88348999999999
 21
-236.97452999999999
 31
0.0
  0
LINE
  8
DETAIL
  6
CONTINUOUS
 62
     5
 10
-238.0
 20
-228.80000000000001
 30
0.0
 11
-238.0
 21
-229.80000000000001
 31
0.0
  0
ARC
  8
DETAIL
  6
CONTINUOUS
 62
     5
 10
-230.49135000000001
 20
-230.80000000000001
 30
0.0
 40
0.5
 50
1.0000000000017759
 51
90.0
  0
ARC
  8
DETAIL
  6
CONTINUOUS
 62
     5
 10
-237.5
 20
-229.80000000000001
 30
0.0
 40
0.5
 50
180.0
 51
270.0
  0
LINE
  8
DETAIL
  6
CONTINUOUS
 62
     5
 10
-212.0
 20
-231.80000000000001
 30
0.0
 11
-212.0
 21
-230.80000999999999
 31
0.0
  0
ARC
  8
DETAIL
  6
CONTINUOUS
 62
     5
 10
-211.5
 20
-231.80000000000001
 30
0.0
 40
0.5
 50
180.0
 51
270.0
  0
ARC
  8
DETAIL
  6
CONTINUOUS
 62
     5
 10
-212.5
 20
-230.80000000000001
 30
0.0
 40
0.5
 50
359.99924299999941
 51
90.0
  0
LINE
  8
DETAIL
  6
CONTINUOUS
 62
     5
 10
-90.500409999999988
 20
-232.16315
 30
0.0
 11
-137.72765000000001
 21
-232.30000000000001
 31
0.0
  0
LINE
  8
DETAIL
  6
CONTINUOUS
 62
     5
 10
-137.72765000000001
 20
-232.30000000000001
 30
0.0
 11
-152.5
 21
-232.29930999999999
 31
0.0
  0
LINE
  8
DETAIL
  6
CONTINUOUS
 62
     5
 10
-152.5
 20
-232.29930999999999
 30
0.0
 11
-152.72765000000001
 21
-232.30000000000001
 31
0.0
  0
ARC
  8
DETAIL
  6
CONTINUOUS
 62
     5
 10
-199.40000000000001
 20
-30.0
 30
0.0
 40
2.0
 50
270.0
 51
0.0
  0
ARC
  8
DETAIL
  6
CONTINUOUS
 62
     5
 10
-199.40000000000001
 20
-30.0
 30
0.0
 40
4.0
 50
329.99999999999949
 51
0.0
  0
LINE
  8
DETAIL
  6
CONTINUOUS
 62
     5
 10
-187.75459000000001
 20
-34.0
 30
0.0
 11
-187.75459000000001
 21
-32.0
 31
0.0
  0
LINE
  8
DETAIL
  6
CONTINUOUS
 62
     5
 10
7.2723499999999603
 20
-232.30000000000001
 30
0.0
 11
-7.5
 21
-232.29930999999999
 31
0.0
  0
LINE
  8
DETAIL
  6
CONTINUOUS
 62
     5
 10
-73.008799999999951
 20
-193.5
 30
0.0
 11
72.91551000000004
 21
-193.5
 31
0.0
  0
LINE
  8
DETAIL
  6
CONTINUOUS
 62
     5
 10
-72.511160000000018
 20
-192.03863999999999
 30
0.0
 11
-72.50816999999995
 21
-192.07132999999999
 31
0.0
  0
LINE
  8
DETAIL
  6
CONTINUOUS
 62
     5
 10
-72.50816999999995
 20
-192.07132999999999
 30
0.0
 11
-72.506869999999935
 21
-192.10614000000001
 31
0.0
  0
LINE
  8
DETAIL
  6
CONTINUOUS
 62
     5
 10
-72.570730000000026
 20
-188.44765000000001
 30
0.0
 11
-72.5
 21
-192.5
 31
0.0
  0
LINE
  8
DETAIL
  6
CONTINUOUS
 62
     5
 10
-72.5
 20
-192.5
 30
0.0
 11
-72.508879999999976
 21
-193.00873000000001
 31
0.0
  0
ARC
  8
DETAIL
  6
CONTINUOUS
 62
     5
 10
-73.008799999999951
 20
-193.0
 30
0.0
 40
0.5
 50
270.0
 51
358.99999199999962
  0
ARC
  8
DETAIL
  6
CONTINUOUS
 62
     5
 10
-75.570280000000025
 20
-188.5
 30
0.0
 40
3.0
 50
1.0000000000017759
 51
90.0
  0
LINE
  8
DETAIL
  6
CONTINUOUS
 62
     5
 10
72.508879999999976
 20
-193.00873000000001
 30
0.0
 11
72.5
 21
-192.5
 31
0.0
  0
LINE
  8
DETAIL
  6
CONTINUOUS
 62
     5
 10
72.5
 20
-192.5
 30
0.0
 11
72.570740000000001
 21
-188.44765000000001
 31
0.0
  0
LINE
  8
DETAIL
  6
CONTINUOUS
 62
     5
 10
72.506880000000024
 20
-192.10614000000001
 30
0.0
 11
72.508100000000013
 21
-192.07243
 31
0.0
  0
LINE
  8
DETAIL
  6
CONTINUOUS
 62
     5
 10
72.508100000000013
 20
-192.07243
 30
0.0
 11
72.510940000000005
 21
-192.04035999999999
 31
0.0
  0
LINE
  8
DETAIL
  6
CONTINUOUS
 62
     5
 10
72.510940000000005
 20
-192.04035999999999
 30
0.0
 11
72.516010000000051
 21
-192.01009999999999
 31
0.0
  0
ARC
  8
DETAIL
  6
CONTINUOUS
 62
     5
 10
73.008799999999951
 20
-193.0
 30
0.0
 40
0.5
 50
181.00036600000041
 51
270.0
  0
ARC
  8
DETAIL
  6
CONTINUOUS
 62
     5
 10
75.570280000000025
 20
-188.5
 30
0.0
 40
3.0
 50
90.0
 51
178.99999999999821
  0
LINE
  8
DETAIL
  6
CONTINUOUS
 62
     5
 10
-330.39999999999998
 20
0.0
 30
0.0
 11
-210.40000000000001
 21
0.0
 31
0.0
  0
ARC
  8
DETAIL
  6
CONTINUOUS
 62
     5
 10
-330.39999999999998
 20
-10.0
 30
0.0
 40
10.0
 50
90.0
 51
180.0
  0
LINE
  8
DETAIL
  6
CONTINUOUS
 62
     5
 10
-345.39999999999998
 20
-24.0
 30
0.0
 11
-343.39999999999998
 21
-24.0
 31
0.0
  0
CIRCLE
  8
DETAIL
  6
CONTINUOUS
 62
     5
 10
-324.71746000000002
 20
-12.899970000000049
 30
0.0
 40
3.0
  0
CIRCLE
  8
DETAIL
  6
CONTINUOUS
 62
     5
 10
-284.71746000000002
 20
-12.899970000000049
 30
0.0
 40
3.0
  0
CIRCLE
  8
DETAIL
  6
CONTINUOUS
 62
     5
 10
-254.71745999999999
 20
-12.899970000000049
 30
0.0
 40
3.0
  0
ARC
  8
DETAIL
  6
CONTINUOUS
 62
     5
 10
-210.40000000000001
 20
-10.0
 30
0.0
 40
10.0
 50
0.0
 51
90.0
  0
CIRCLE
  8
DETAIL
  6
CONTINUOUS
 62
     5
 10
-214.71745999999999
 20
-12.899970000000049
 30
0.0
 40
3.0
  0
LINE
  8
DETAIL
  6
CONTINUOUS
 62
     5
 10
-197.40000000000001
 20
-24.0
 30
0.0
 11
-195.40000000000001
 21
-24.0
 31
0.0
  0
LINE
  8
DETAIL
  6
CONTINUOUS
 62
     5
 10
197.40000000000001
 20
-30.0
 30
0.0
 11
197.40000000000001
 21
-24.0
 31
0.0
  0
LINE
  8
DETAIL
  6
CONTINUOUS
 62
     5
 10
195.40000000000001
 20
-30.0
 30
0.0
 11
195.40000000000001
 21
-24.0
 31
0.0
  0
LINE
  8
DETAIL
  6
CONTINUOUS
 62
     5
 10
345.40000000000009
 20
-24.0
 30
0.0
 11
345.40000000000009
 21
-30.0
 31
0.0
  0
LINE
  8
DETAIL
  6
CONTINUOUS
 62
     5
 10
343.40000000000009
 20
-30.0
 30
0.0
 11
343.40000000000009
 21
-24.0
 31
0.0
  0
LINE
  8
DETAIL
  6
CONTINUOUS
 62
     5
 10
340.40000000000009
 20
-32.0
 30
0.0
 11
340.40000000000009
 21
-10.0
 31
0.0
  0
LINE
  8
DETAIL
  6
CONTINUOUS
 62
     5
 10
200.40000000000001
 20
-32.0
 30
0.0
 11
200.40000000000001
 21
-10.0
 31
0.0
  0
LINE
  8
DETAIL
  6
CONTINUOUS
 62
     5
 10
434.90915000000001
 20
-163.06983
 30
0.0
 11
388.90670999999998
 21
-166.28999999999999
 31
0.0
  0
LINE
  8
DETAIL
  6
CONTINUOUS
 62
     5
 10
434.90915000000001
 20
-64.930169999999976
 30
0.0
 11
388.90670999999998
 21
-61.70999999999998
 31
0.0
  0
LINE
  8
DETAIL
  6
CONTINUOUS
 62
     5
 10
199.40000000000001
 20
-34.0
 30
0.0
 11
284.39999999999998
 21
-34.0
 31
0.0
  0
LINE
  8
DETAIL
  6
CONTINUOUS
 62
     5
 10
189.09352999999999
 20
-32.0
 30
0.0
 11
351.76364999999993
 21
-32.0
 31
0.0
  0
LINE
  8
DETAIL
  6
CONTINUOUS
 62
     5
 10
189.09352999999999
 20
-34.0
 30
0.0
 11
351.76364999999993
 21
-34.0
 31
0.0
  0
ARC
  8
DETAIL
  6
CONTINUOUS
 62
     5
 10
257.6123
 20
-217.80000000000001
 30
0.0
 40
5.0
 50
270.0
 51
334.35899399999681
  0
LINE
  8
DETAIL
  6
CONTINUOUS
 62
     5
 10
211.5
 20
-232.30000000000001
 30
0.0
 11
152.5
 21
-232.29930999999999
 31
0.0
  0
LINE
  8
DETAIL
  6
CONTINUOUS
 62
     5
 10
152.5
 20
-232.29930999999999
 30
0.0
 11
152.27234999999999
 21
-232.30000000000001
 31
0.0
  0
LINE
  8
DETAIL
  6
CONTINUOUS
 62
     5
 10
137.5
 20
-232.29930999999999
 30
0.0
 11
137.27234999999999
 21
-232.30000000000001
 31
0.0
  0
LINE
  8
DETAIL
  6
CONTINUOUS
 62
     5
 10
152.27234999999999
 20
-232.30000000000001
 30
0.0
 11
137.5
 21
-232.29930999999999
 31
0.0
  0
LINE
  8
DETAIL
  6
CONTINUOUS
 62
     5
 10
237.5
 20
-230.30000000000001
 30
0.0
 11
212.5
 21
-230.30000000000001
 31
0.0
  0
LINE
  8
DETAIL
  6
CONTINUOUS
 62
     5
 10
212.0
 20
-230.80000999999999
 30
0.0
 11
212.0
 21
-231.80000000000001
 31
0.0
  0
ARC
  8
DETAIL
  6
CONTINUOUS
 62
     5
 10
211.5
 20
-231.80000000000001
 30
0.0
 40
0.5
 50
270.0
 51
0.0
  0
ARC
  8
DETAIL
  6
CONTINUOUS
 62
     5
 10
212.5
 20
-230.80000000000001
 30
0.0
 40
0.5
 50
90.0
 51
180.00075800000201
  0
ARC
  8
DETAIL
  6
CONTINUOUS
 62
     5
 10
219.88502000000011
 20
-236.80000000000001
 30
0.0
 40
10.0
 50
270.0
 51
358.99999999999818
  0
LINE
  8
DETAIL
  6
CONTINUOUS
 62
     5
 10
238.0
 20
-228.80000000000001
 30
0.0
 11
257.02618000000012
 21
-228.80000000000001
 31
0.0
  0
LINE
  8
DETAIL
  6
CONTINUOUS
 62
     5
 10
238.0
 20
-228.80000000000001
 30
0.0
 11
238.0
 21
-229.80000000000001
 31
0.0
  0
LINE
  8
DETAIL
  6
CONTINUOUS
 62
     5
 10
229.99143000000001
 20
-230.79128
 30
0.0
 11
229.8835
 21
-236.97452999999999
 31
0.0
  0
ARC
  8
DETAIL
  6
CONTINUOUS
 62
     5
 10
230.49135000000001
 20
-230.80000000000001
 30
0.0
 40
0.5
 50
90.0
 51
178.99999600000231
  0
ARC
  8
DETAIL
  6
CONTINUOUS
 62
     5
 10
237.5
 20
-229.80000000000001
 30
0.0
 40
0.5
 50
270.0
 51
0.0
  0
LINE
  8
DETAIL
  6
CONTINUOUS
 62
     5
 10
257.11315000000002
 20
-223.81746000000001
 30
0.0
 11
257.02618000000012
 21
-228.80000000000001
 31
0.0
  0
ARC
  8
DETAIL
  6
CONTINUOUS
 62
     5
 10
256.11331000000001
 20
-223.80000000000001
 30
0.0
 40
1.0
 50
358.99999999999818
 51
90.0
  0
ARC
  8
DETAIL
  6
CONTINUOUS
 62
     5
 10
199.40000000000001
 20
-30.0
 30
0.0
 40
4.0
 50
180.0
 51
210.00000000000051
  0
LINE
  8
DETAIL
  6
CONTINUOUS
 62
     5
 10
189.09352999999999
 20
-32.0
 30
0.0
 11
189.09352999999999
 21
-34.0
 31
0.0
  0
ARC
  8
DETAIL
  6
CONTINUOUS
 62
     5
 10
199.40000000000001
 20
-30.0
 30
0.0
 40
2.0
 50
180.0
 51
270.0
  0
LINE
  8
DETAIL
  6
CONTINUOUS
 62
     5
 10
287.90670999999998
 20
-178.5
 30
0.0
 11
287.90670999999998
 21
-60.5
 31
0.0
  0
LINE
  8
DETAIL
  6
CONTINUOUS
 62
     5
 10
358.90670999999998
 20
-186.75
 30
0.0
 11
358.90670999999998
 21
-41.25
 31
0.0
  0
LINE
  8
DETAIL
  6
CONTINUOUS
 62
     5
 10
328.90670999999998
 20
-198.5
 30
0.0
 11
328.90670999999998
 21
-34.0
 31
0.0
  0
LINE
  8
DETAIL
  6
CONTINUOUS
 62
     5
 10
388.90670999999998
 20
-178.0
 30
0.0
 11
388.90670999999998
 21
-50.0
 31
0.0
  0
LINE
  8
DETAIL
  6
CONTINUOUS
 62
     5
 10
285.0
 20
-34.0
 30
0.0
 11
285.0
 21
-185.5
 31
0.0
  0
LINE
  8
DETAIL
  6
CONTINUOUS
 62
     5
 10
328.90670999999998
 20
-186.75
 30
0.0
 11
358.90670999999998
 21
-186.75
 31
0.0
  0
LINE
  8
DETAIL
  6
CONTINUOUS
 62
     5
 10
273.67374000000001
 20
-195.89318
 30
0.0
 11
262.11991
 21
-219.96366
 31
0.0
  0
ARC
  8
DETAIL
  6
CONTINUOUS
 62
     5
 10
257.6123
 20
-217.80000000000001
 30
0.0
 40
5.0
 50
331.3575399999965
 51
334.35899399999681
  0
LINE
  8
DETAIL
  6
CONTINUOUS
 62
     5
 10
287.90670999999998
 20
-198.5
 30
0.0
 11
328.90670999999998
 21
-198.5
 31
0.0
  0
LINE
  8
DETAIL
  6
CONTINUOUS
 62
     5
 10
287.90670999999998
 20
-198.5
 30
0.0
 11
287.90670999999998
 21
-193.5
 31
0.0
  0
LINE
  8
DETAIL
  6
CONTINUOUS
 62
     5
 10
274.97143999999997
 20
-193.5
 30
0.0
 11
289.46440000000013
 21
-193.5
 31
0.0
  0
ARC
  8
DETAIL
  6
CONTINUOUS
 62
     5
 10
270.96917000000008
 20
-194.59499
 30
0.0
 40
3.0
 50
334.35899399999681
 51
358.99999999999818
  0
LINE
  8
DETAIL
  6
CONTINUOUS
 62
     5
 10
273.96872000000008
 20
-194.64734999999999
 30
0.0
 11
273.97158999999999
 21
-194.48255
 31
0.0
  0
ARC
  8
DETAIL
  6
CONTINUOUS
 62
     5
 10
274.97143999999997
 20
-194.5
 30
0.0
 40
1.0
 50
90.0
 51
179.0000419999985
  0
LINE
  8
DETAIL
  6
CONTINUOUS
 62
     5
 10
292.53615000000002
 20
-186.41570999999999
 30
0.0
 11
292.46393999999998
 21
-190.55235999999999
 31
0.0
  0
ARC
  8
DETAIL
  6
CONTINUOUS
 62
     5
 10
291.63627999999989
 20
-186.40000000000001
 30
0.0
 40
0.9
 50
359.00000299999692
 51
90.0
  0
ARC
  8
DETAIL
  6
CONTINUOUS
 62
     5
 10
289.46440000000013
 20
-190.5
 30
0.0
 40
3.0
 50
270.0
 51
358.99999999999818
  0
LINE
  8
DETAIL
  6
CONTINUOUS
 62
     5
 10
358.90670999999998
 20
-178.0
 30
0.0
 11
388.90670999999998
 21
-178.0
 31
0.0
  0
LINE
  8
DETAIL
  6
CONTINUOUS
 62
     5
 10
328.90670999999998
 20
-41.25
 30
0.0
 11
358.90670999999998
 21
-41.25
 31
0.0
  0
ARC
  8
DETAIL
  6
CONTINUOUS
 62
     5
 10
341.40000000000009
 20
-30.0
 30
0.0
 40
2.0
 50
270.0
 51
0.0
  0
LINE
  8
DETAIL
  6
CONTINUOUS
 62
     5
 10
287.90670999999998
 20
-60.5
 30
0.0
 11
287.90670999999998
 21
-34.0
 31
0.0
  0
LINE
  8
DETAIL
  6
CONTINUOUS
 62
     5
 10
358.90670999999998
 20
-50.0
 30
0.0
 11
388.90670999999998
 21
-50.0
 31
0.0
  0
ARC
  8
DETAIL
  6
CONTINUOUS
 62
     5
 10
341.40000000000009
 20
-30.0
 30
0.0
 40
4.0
 50
329.99999999999949
 51
0.0
  0
LINE
  8
DETAIL
  6
CONTINUOUS
 62
     5
 10
351.76364999999993
 20
-32.0
 30
0.0
 11
351.76364999999993
 21
-34.0
 31
0.0
  0
LINE
  8
DETAIL
  6
CONTINUOUS
 62
     5
 10
435.90670999999998
 20
-162.0
 30
0.0
 11
435.90670999999998
 21
-66.0
 31
0.0
  0
LINE
  8
DETAIL
  6
CONTINUOUS
 62
     5
 10
434.90915000000001
 20
-163.06983
 30
0.0
 11
435.90670999999998
 21
-162.0
 31
0.0
  0
LINE
  8
DETAIL
  6
CONTINUOUS
 62
     5
 10
434.90915000000001
 20
-64.930169999999976
 30
0.0
 11
435.90670999999998
 21
-66.0
 31
0.0
  0
LINE
  8
DETAIL
  6
CONTINUOUS
 62
     5
 10
210.40000000000001
 20
0.0
 30
0.0
 11
330.40000000000009
 21
0.0
 31
0.0
  0
CIRCLE
  8
DETAIL
  6
CONTINUOUS
 62
     5
 10
216.2825399999999
 20
-12.899970000000049
 30
0.0
 40
3.0
  0
LINE
  8
DETAIL
  6
CONTINUOUS
 62
     5
 10
195.40000000000001
 20
-24.0
 30
0.0
 11
197.40000000000001
 21
-24.0
 31
0.0
  0
ARC
  8
DETAIL
  6
CONTINUOUS
 62
     5
 10
210.40000000000001
 20
-10.0
 30
0.0
 40
10.0
 50
90.0
 51
180.0
  0
CIRCLE
  8
DETAIL
  6
CONTINUOUS
 62
     5
 10
256.28253999999993
 20
-12.899970000000049
 30
0.0
 40
3.0
  0
LINE
  8
DETAIL
  6
CONTINUOUS
 62
     5
 10
343.40000000000009
 20
-24.0
 30
0.0
 11
345.40000000000009
 21
-24.0
 31
0.0
  0
CIRCLE
  8
DETAIL
  6
CONTINUOUS
 62
     5
 10
286.28253999999993
 20
-12.899970000000049
 30
0.0
 40
3.0
  0
CIRCLE
  8
DETAIL
  6
CONTINUOUS
 62
     5
 10
326.28253999999993
 20
-12.899970000000049
 30
0.0
 40
3.0
  0
ARC
  8
DETAIL
  6
CONTINUOUS
 62
     5
 10
330.40000000000009
 20
-10.0
 30
0.0
 40
10.0
 50
0.0
 51
90.0
  0
LINE
  8
OUTLINE
  6
CONTINUOUS
 62
     3
 10
219.88502000000011
 20
-246.80000000000001
 30
0.0
 11
-219.88502000000011
 21
-246.80000000000001
 31
0.0
  0
LINE
  8
OUTLINE
  6
CONTINUOUS
 62
     3
 10
-257.6123
 20
-222.80000000000001
 30
0.0
 11
-256.11329999999998
 21
-222.80000000000001
 31
0.0
  0
LINE
  8
OUTLINE
  6
CONTINUOUS
 62
     3
 10
285.0
 20
-185.5
 30
0.0
 11
291.63627999999989
 21
-185.5
 31
0.0
  0
LINE
  8
OUTLINE
  6
CONTINUOUS
 62
     3
 10
-210.40000000000001
 20
0.0
 30
0.0
 11
210.40000000000001
 21
0.0
 31
0.0
  0
LINE
  8
OUTLINE
  6
CONTINUOUS
 62
     3
 10
-238.0
 20
-228.80000000000001
 30
0.0
 11
-257.02618000000001
 21
-228.80000000000001
 31
0.0
  0
LINE
  8
OUTLINE
  6
CONTINUOUS
 62
     3
 10
-291.63628
 20
-185.5
 30
0.0
 11
-285.0
 21
-185.5
 31
0.0
  0
LINE
  8
OUTLINE
  6
CONTINUOUS
 62
     3
 10
-285.0
 20
0.0
 30
0.0
 11
-285.0
 21
-185.5
 31
0.0
  0
LINE
  8
OUTLINE
  6
CONTINUOUS
 62
     3
 10
-261.69429000000002
 20
-220.85035999999999
 30
0.0
 11
-273.67374000000001
 21
-195.89318
 31
0.0
  0
LINE
  8
OUTLINE
  6
CONTINUOUS
 62
     3
 10
-257.02618000000001
 20
-228.80000000000001
 30
0.0
 11
-257.11315000000002
 21
-223.81746000000001
 31
0.0
  0
ARC
  8
OUTLINE
  6
CONTINUOUS
 62
     3
 10
-256.11329999999998
 20
-223.80000000000001
 30
0.0
 40
1.0
 50
90.0
 51
180.99999800000049
  0
ARC
  8
OUTLINE
  6
CONTINUOUS
 62
     3
 10
-257.6123
 20
-217.80000000000001
 30
0.0
 40
5.0
 50
216.9857670000016
 51
270.0
  0
ARC
  8
OUTLINE
  6
CONTINUOUS
 62
     3
 10
-257.6123
 20
-217.80000000000001
 30
0.0
 40
5.0
 50
205.64100600000319
 51
208.64248400000329
  0
ARC
  8
OUTLINE
  6
CONTINUOUS
 62
     3
 10
-270.96917000000002
 20
-194.59499
 30
0.0
 40
3.0
 50
181.00000000000171
 51
205.64100600000319
  0
LINE
  8
OUTLINE
  6
CONTINUOUS
 62
     3
 10
-292.46393999999998
 20
-190.55235999999999
 30
0.0
 11
-292.53615000000002
 21
-186.41570999999999
 31
0.0
  0
LINE
  8
OUTLINE
  6
CONTINUOUS
 62
     3
 10
-273.96870999999999
 20
-194.64734999999999
 30
0.0
 11
-273.97158999999999
 21
-194.48255
 31
0.0
  0
LINE
  8
OUTLINE
  6
CONTINUOUS
 62
     3
 10
-286.017
 20
-193.5
 30
0.0
 11
-274.97143999999997
 21
-193.5
 31
0.0
  0
ARC
  8
OUTLINE
  6
CONTINUOUS
 62
     3
 10
-291.63628
 20
-186.40000000000001
 30
0.0
 40
0.9
 50
90.0
 51
180.99999700000311
  0
ARC
  8
OUTLINE
  6
CONTINUOUS
 62
     3
 10
-286.383083
 20
-185.776636
 30
0.0
 40
7.7320349999999998
 50
218.1450080000042
 51
272.71375800000158
  0
ARC
  8
OUTLINE
  6
CONTINUOUS
 62
     3
 10
-274.97143999999997
 20
-194.5
 30
0.0
 40
1.0
 50
0.9999569999975194
 51
90.0
  0
ARC
  8
OUTLINE
  6
CONTINUOUS
 62
     3
 10
-219.88502000000011
 20
-236.80000000000001
 30
0.0
 40
10.0
 50
181.00000000000171
 51
270.0
  0
LINE
  8
OUTLINE
  6
CONTINUOUS
 62
     3
 10
-229.99142000000001
 20
-230.79128
 30
0.0
 11
-229.88348999999999
 21
-236.97452999999999
 31
0.0
  0
LINE
  8
OUTLINE
  6
CONTINUOUS
 62
     3
 10
-238.0
 20
-228.80000000000001
 30
0.0
 11
-238.0
 21
-229.80000000000001
 31
0.0
  0
ARC
  8
OUTLINE
  6
CONTINUOUS
 62
     3
 10
-230.49135000000001
 20
-230.80000000000001
 30
0.0
 40
0.5
 50
1.0000000000017759
 51
90.0
  0
ARC
  8
OUTLINE
  6
CONTINUOUS
 62
     3
 10
-237.5
 20
-229.80000000000001
 30
0.0
 40
0.5
 50
180.0
 51
270.0
  0
LINE
  8
OUTLINE
  6
CONTINUOUS
 62
     3
 10
-285.0
 20
0.0
 30
0.0
 11
-210.40000000000001
 21
0.0
 31
0.0
  0
ARC
  8
OUTLINE
  6
CONTINUOUS
 62
     3
 10
257.6123
 20
-217.80000000000001
 30
0.0
 40
5.0
 50
270.0
 51
334.35899399999681
  0
LINE
  8
OUTLINE
  6
CONTINUOUS
 62
     3
 10
237.5
 20
-230.30000000000001
 30
0.0
 11
230.49135000000001
 21
-230.30000000000001
 31
0.0
  0
ARC
  8
OUTLINE
  6
CONTINUOUS
 62
     3
 10
219.88502000000011
 20
-236.80000000000001
 30
0.0
 40
10.0
 50
270.0
 51
358.99999999999818
  0
LINE
  8
OUTLINE
  6
CONTINUOUS
 62
     3
 10
238.0
 20
-228.80000000000001
 30
0.0
 11
257.02618000000012
 21
-228.80000000000001
 31
0.0
  0
LINE
  8
OUTLINE
  6
CONTINUOUS
 62
     3
 10
238.0
 20
-228.80000000000001
 30
0.0
 11
238.0
 21
-229.80000000000001
 31
0.0
  0
LINE
  8
OUTLINE
  6
CONTINUOUS
 62
     3
 10
229.99143000000001
 20
-230.79128
 30
0.0
 11
229.8835
 21
-236.97452999999999
 31
0.0
  0
ARC
  8
OUTLINE
  6
CONTINUOUS
 62
     3
 10
230.49135000000001
 20
-230.80000000000001
 30
0.0
 40
0.5
 50
90.0
 51
178.99999600000231
  0
ARC
  8
OUTLINE
  6
CONTINUOUS
 62
     3
 10
237.5
 20
-229.80000000000001
 30
0.0
 40
0.5
 50
270.0
 51
0.0
  0
LINE
  8
OUTLINE
  6
CONTINUOUS
 62
     3
 10
257.11315000000002
 20
-223.81746000000001
 30
0.0
 11
257.02618000000012
 21
-228.80000000000001
 31
0.0
  0
ARC
  8
OUTLINE
  6
CONTINUOUS
 62
     3
 10
256.11331000000001
 20
-223.80000000000001
 30
0.0
 40
1.0
 50
358.99999999999818
 51
90.0
  0
LINE
  8
OUTLINE
  6
CONTINUOUS
 62
     3
 10
285.0
 20
0.0
 30
0.0
 11
285.0
 21
-185.5
 31
0.0
  0
LINE
  8
OUTLINE
  6
CONTINUOUS
 62
     3
 10
273.67374000000001
 20
-195.89318
 30
0.0
 11
262.11991
 21
-219.96366
 31
0.0
  0
ARC
  8
OUTLINE
  6
CONTINUOUS
 62
     3
 10
257.6123
 20
-217.80000000000001
 30
0.0
 40
5.0
 50
331.3575399999965
 51
334.35899399999681
  0
LINE
  8
OUTLINE
  6
CONTINUOUS
 62
     3
 10
274.97143999999997
 20
-193.5
 30
0.0
 11
289.46440000000013
 21
-193.5
 31
0.0
  0
ARC
  8
OUTLINE
  6
CONTINUOUS
 62
     3
 10
270.96917000000008
 20
-194.59499
 30
0.0
 40
3.0
 50
334.35899399999681
 51
358.99999999999818
  0
LINE
  8
OUTLINE
  6
CONTINUOUS
 62
     3
 10
273.96872000000008
 20
-194.64734999999999
 30
0.0
 11
273.97158999999999
 21
-194.48255
 31
0.0
  0
ARC
  8
OUTLINE
  6
CONTINUOUS
 62
     3
 10
274.97143999999997
 20
-194.5
 30
0.0
 40
1.0
 50
90.0
 51
179.0000419999985
  0
LINE
  8
OUTLINE
  6
CONTINUOUS
 62
     3
 10
292.53615000000002
 20
-186.41570999999999
 30
0.0
 11
292.46393999999998
 21
-190.55235999999999
 31
0.0
  0
ARC
  8
OUTLINE
  6
CONTINUOUS
 62
     3
 10
291.63627999999989
 20
-186.40000000000001
 30
0.0
 40
0.9
 50
359.00000299999692
 51
90.0
  0
ARC
  8
OUTLINE
  6
CONTINUOUS
 62
     3
 10
289.46440000000013
 20
-190.5
 30
0.0
 40
3.0
 50
270.0
 51
358.99999999999818
  0
LINE
  8
OUTLINE
  6
CONTINUOUS
 62
     3
 10
210.40000000000001
 20
0.0
 30
0.0
 11
285.0
 21
0.0
 31
0.0
  0
LINE
  8
OUTLINE
  6
CONTINUOUS
 62
     3
 10
256.11331000000001
 20
-222.80000000000001
 30
0.0
 11
257.6123
 21
-222.80000000000001
 31
0.0
  0
LINE
  8
OUTLINE
  6
CONTINUOUS
 62
     3
 10
-230.49135000000001
 20
-230.30000000000001
 30
0.0
 11
-237.5
 21
-230.30000000000001
 31
0.0
  0
TEXT
  8
NOTE
  6
CONTINUOUS
 62
     4
 10
529.51319400000011
 20
-237.75330600000001
 30
0.0
 40
64.0
  1
EA OA1
 50
90.0
 41
0.9
  0
LINE
  8
SIZE
  6
CONTINUOUS
 62
    30
 10
454.90915000000001
 20
-64.930169999999976
 30
0.0
 11
739.17314600000009
 21
-64.930169999999976
 31
0.0
  0
LINE
  8
SIZE
  6
CONTINUOUS
 62
    30
 10
461.74542699999978
 20
-162.59129100000001
 30
0.0
 11
739.17314600000009
 21
-162.59129100000001
 31
0.0
  0
LINE
  8
SIZE
  6
CONTINUOUS
 62
    30
 10
719.17314600000009
 20
-76.930169999999976
 30
0.0
 11
719.17314600000009
 21
-150.59129100000001
 31
0.0
  0
LINE
  8
SIZE
  6
CONTINUOUS
 62
    30
 10
719.17314600000009
 20
-162.59129100000001
 30
0.0
 11
719.17314600000009
 21
-447.71617599999979
 31
0.0
  0
CIRCLE
  8
SIZE
  6
CONTINUOUS
 62
    30
 10
719.17314600000009
 20
-64.930169999999976
 30
0.0
 40
6.0
  0
LINE
  8
SIZE
  6
CONTINUOUS
 62
    30
 10
719.17314600000009
 20
-64.930169999999976
 30
0.0
 11
719.17314600000009
 21
-76.930169999999976
 31
0.0
  0
CIRCLE
  8
SIZE
  6
CONTINUOUS
 62
    30
 10
719.17314600000009
 20
-162.59129100000001
 30
0.0
 40
6.0
  0
LINE
  8
SIZE
  6
CONTINUOUS
 62
    30
 10
719.17314600000009
 20
-162.59129100000001
 30
0.0
 11
719.17314600000009
 21
-150.59129100000001
 31
0.0
  0
TEXT
  8
SIZE
  6
CONTINUOUS
 62
    30
 10
683.50648000000001
 20
-432.86474742857138
 30
0.0
 40
64.0
  1
φ98
 50
90.0
 41
0.9
 72
     1
 11
683.50648000000001
 21
-345.91617600000001
 31
0.0
  0
POINT
  8
DEFPOINTS
  6
CONTINUOUS
 62
    30
 10
434.90915000000001
 20
-64.930169999999976
 30
0.0
  0
POINT
  8
DEFPOINTS
  6
CONTINUOUS
 62
    30
 10
441.74542699999978
 20
-162.59129100000001
 30
0.0
  0
POINT
  8
DEFPOINTS
  6
CONTINUOUS
 62
    30
 10
719.17314600000009
 20
-162.59129100000001
 30
0.0
  0
LINE
  8
SIZE
  6
CONTINUOUS
 62
    30
 10
408.90670999999998
 20
-52.0
 30
0.0
 11
859.17314600000009
 21
-52.0
 31
0.0
  0
LINE
  8
SIZE
  6
CONTINUOUS
 62
    30
 10
408.90670999999998
 20
-176.0
 30
0.0
 11
859.17314600000009
 21
-176.0
 31
0.0
  0
LINE
  8
SIZE
  6
CONTINUOUS
 62
    30
 10
839.17314600000009
 20
-64.0
 30
0.0
 11
839.17314600000009
 21
-164.0
 31
0.0
  0
LINE
  8
SIZE
  6
CONTINUOUS
 62
    30
 10
839.17314600000009
 20
-176.0
 30
0.0
 11
839.17314600000009
 21
-484.83379699999989
 31
0.0
  0
CIRCLE
  8
SIZE
  6
CONTINUOUS
 62
    30
 10
839.17314600000009
 20
-52.0
 30
0.0
 40
6.0
  0
LINE
  8
SIZE
  6
CONTINUOUS
 62
    30
 10
839.17314600000009
 20
-52.0
 30
0.0
 11
839.17314600000009
 21
-64.0
 31
0.0
  0
CIRCLE
  8
SIZE
  6
CONTINUOUS
 62
    30
 10
839.17314600000009
 20
-176.0
 30
0.0
 40
6.0
  0
LINE
  8
SIZE
  6
CONTINUOUS
 62
    30
 10
839.17314600000009
 20
-176.0
 30
0.0
 11
839.17314600000009
 21
-164.0
 31
0.0
  0
TEXT
  8
SIZE
  6
CONTINUOUS
 62
    30
 10
803.50648000000001
 20
-469.98236914285712
 30
0.0
 40
64.0
  1
φ124
 50
90.0
 41
0.9
 72
     1
 11
803.50648000000001
 21
-359.71951200000001
 31
0.0
  0
POINT
  8
DEFPOINTS
  6
CONTINUOUS
 62
    30
 10
388.90670999999998
 20
-52.0
 30
0.0
  0
POINT
  8
DEFPOINTS
  6
CONTINUOUS
 62
    30
 10
388.90670999999998
 20
-176.0
 30
0.0
  0
POINT
  8
DEFPOINTS
  6
CONTINUOUS
 62
    30
 10
839.17314600000009
 20
-176.0
 30
0.0
  0
LINE
  8
SIZE
  6
CONTINUOUS
 62
    30
 10
378.90670999999998
 20
-41.25
 30
0.0
 11
979.17314600000009
 21
-41.25
 31
0.0
  0
LINE
  8
SIZE
  6
CONTINUOUS
 62
    30
 10
378.90670999999998
 20
-186.75
 30
0.0
 11
979.17314600000009
 21
-186.75
 31
0.0
  0
LINE
  8
SIZE
  6
CONTINUOUS
 62
    30
 10
959.17314600000009
 20
-53.25
 30
0.0
 11
959.17314600000009
 21
-174.75
 31
0.0
  0
LINE
  8
SIZE
  6
CONTINUOUS
 62
    30
 10
959.17314600000009
 20
-186.75
 30
0.0
 11
959.17314600000009
 21
-486.23194400000011
 31
0.0
  0
CIRCLE
  8
SIZE
  6
CONTINUOUS
 62
    30
 10
959.17314600000009
 20
-41.25
 30
0.0
 40
6.0
  0
LINE
  8
SIZE
  6
CONTINUOUS
 62
    30
 10
959.17314600000009
 20
-41.25
 30
0.0
 11
959.17314600000009
 21
-53.25
 31
0.0
  0
CIRCLE
  8
SIZE
  6
CONTINUOUS
 62
    30
 10
959.17314600000009
 20
-186.75
 30
0.0
 40
6.0
  0
LINE
  8
SIZE
  6
CONTINUOUS
 62
    30
 10
959.17314600000009
 20
-186.75
 30
0.0
 11
959.17314600000009
 21
-174.75
 31
0.0
  0
TEXT
  8
SIZE
  6
CONTINUOUS
 62
    30
 10
923.50648000000001
 20
-471.380516
 30
0.0
 40
64.0
  1
φ146
 50
90.0
 41
0.9
 72
     1
 11
923.50648000000001
 21
-363.86051600000002
 31
0.0
  0
POINT
  8
DEFPOINTS
  6
CONTINUOUS
 62
    30
 10
358.90670999999998
 20
-41.25
 30
0.0
  0
POINT
  8
DEFPOINTS
  6
CONTINUOUS
 62
    30
 10
358.90670999999998
 20
-186.75
 30
0.0
  0
POINT
  8
DEFPOINTS
  6
CONTINUOUS
 62
    30
 10
959.17314600000009
 20
-186.75
 30
0.0
  0
LINE
  8
SIZE
  6
CONTINUOUS
 62
    30
 10
344.60097999999971
 20
0.0
 30
0.0
 11
1099.1731460000001
 21
0.0
 31
0.0
  0
LINE
  8
SIZE
  6
CONTINUOUS
 62
    30
 10
268.31522500000011
 20
-222.80000000000001
 30
0.0
 11
1099.1731460000001
 21
-222.80000000000001
 31
0.0
  0
LINE
  8
SIZE
  6
CONTINUOUS
 62
    30
 10
1079.1731460000001
 20
-12.0
 30
0.0
 11
1079.1731460000001
 21
-210.80000000000001
 31
0.0
  0
CIRCLE
  8
SIZE
  6
CONTINUOUS
 62
    30
 10
1079.1731460000001
 20
0.0
 30
0.0
 40
6.0
  0
LINE
  8
SIZE
  6
CONTINUOUS
 62
    30
 10
1079.1731460000001
 20
0.0
 30
0.0
 11
1079.1731460000001
 21
-12.0
 31
0.0
  0
CIRCLE
  8
SIZE
  6
CONTINUOUS
 62
    30
 10
1079.1731460000001
 20
-222.80000000000001
 30
0.0
 40
6.0
  0
LINE
  8
SIZE
  6
CONTINUOUS
 62
    30
 10
1079.1731460000001
 20
-222.80000000000001
 30
0.0
 11
1079.1731460000001
 21
-210.80000000000001
 31
0.0
  0
TEXT
  8
SIZE
  6
CONTINUOUS
 62
    30
 10
1054.1731460000001
 20
-188.05714285714279
 30
0.0
 40
64.0
  1
223
 50
90.0
 41
0.9
 72
     1
 11
1054.1731460000001
 21
-114.0
 31
0.0
  0
POINT
  8
DEFPOINTS
  6
CONTINUOUS
 62
    30
 10
324.60097999999988
 20
0.0
 30
0.0
  0
POINT
  8
DEFPOINTS
  6
CONTINUOUS
 62
    30
 10
248.31522500000011
 20
-222.80000000000001
 30
0.0
  0
POINT
  8
DEFPOINTS
  6
CONTINUOUS
 62
    30
 10
1079.1731460000001
 20
-222.80000000000001
 30
0.0
  0
LINE
  8
SIZE
  6
CONTINUOUS
 62
    30
 10
268.31522500000011
 20
-222.80000000000001
 30
0.0
 11
619.17314600000009
 21
-222.80000000000001
 31
0.0
  0
LINE
  8
SIZE
  6
CONTINUOUS
 62
    30
 10
239.88502000000011
 20
-246.80000000000001
 30
0.0
 11
619.17314600000009
 21
-246.80000000000001
 31
0.0
  0
LINE
  8
SIZE
  6
CONTINUOUS
 62
    30
 10
599.17314600000009
 20
-210.80000000000001
 30
0.0
 11
599.17314600000009
 21
-198.80000000000001
 31
0.0
  0
LINE
  8
SIZE
  6
CONTINUOUS
 62
    30
 10
599.17314600000009
 20
-258.80000000000001
 30
0.0
 11
599.17314600000009
 21
-416.80000000000001
 31
0.0
  0
LINE
  8
SIZE
  6
CONTINUOUS
 62
    30
 10
599.17314600000009
 20
-222.80000000000001
 30
0.0
 11
599.17314600000009
 21
-246.80000000000001
 31
0.0
  0
CIRCLE
  8
SIZE
  6
CONTINUOUS
 62
    30
 10
599.17314600000009
 20
-222.80000000000001
 30
0.0
 40
6.0
  0
LINE
  8
SIZE
  6
CONTINUOUS
 62
    30
 10
599.17314600000009
 20
-222.80000000000001
 30
0.0
 11
599.17314600000009
 21
-210.80000000000001
 31
0.0
  0
CIRCLE
  8
SIZE
  6
CONTINUOUS
 62
    30
 10
599.17314600000009
 20
-246.80000000000001
 30
0.0
 40
6.0
  0
LINE
  8
SIZE
  6
CONTINUOUS
 62
    30
 10
599.17314600000009
 20
-246.80000000000001
 30
0.0
 11
599.17314600000009
 21
-258.80000000000001
 31
0.0
  0
TEXT
  8
SIZE
  6
CONTINUOUS
 62
    30
 10
574.17314600000009
 20
-391.80000000000001
 30
0.0
 40
64.0
  1
24
 50
90.0
 41
0.9
 72
     1
 11
574.17314600000009
 21
-343.80000000000001
 31
0.0
  0
POINT
  8
DEFPOINTS
  6
CONTINUOUS
 62
    30
 10
248.31522500000011
 20
-222.80000000000001
 30
0.0
  0
POINT
  8
DEFPOINTS
  6
CONTINUOUS
 62
    30
 10
219.88502000000011
 20
-246.80000000000001
 30
0.0
  0
POINT
  8
DEFPOINTS
  6
CONTINUOUS
 62
    30
 10
599.17314600000009
 20
-246.80000000000001
 30
0.0
  0
LINE
  8
SIZE
  6
CONTINUOUS
 62
    30
 10
436.39838500000002
 20
-182.96558400000001
 30
0.0
 11
436.39838500000002
 21
-423.04218600000002
 31
0.0
  0
LINE
  8
SIZE
  6
CONTINUOUS
 62
    30
 10
285.0
 20
-198.5
 30
0.0
 11
285.0
 21
-423.04218600000002
 31
0.0
  0
LINE
  8
SIZE
  6
CONTINUOUS
 62
    30
 10
424.39838500000002
 20
-403.04218600000002
 30
0.0
 11
297.0
 21
-403.04218600000002
 31
0.0
  0
CIRCLE
  8
SIZE
  6
CONTINUOUS
 62
    30
 10
436.39838500000002
 20
-403.04218600000002
 30
0.0
 40
6.0
  0
LINE
  8
SIZE
  6
CONTINUOUS
 62
    30
 10
436.39838500000002
 20
-403.04218600000002
 30
0.0
 11
424.39838500000002
 21
-403.04218600000002
 31
0.0
  0
CIRCLE
  8
SIZE
  6
CONTINUOUS
 62
    30
 10
285.0
 20
-403.04218600000002
 30
0.0
 40
6.0
  0
LINE
  8
SIZE
  6
CONTINUOUS
 62
    30
 10
285.0
 20
-403.04218600000002
 30
0.0
 11
297.0
 21
-403.04218600000002
 31
0.0
  0
TEXT
  8
SIZE
  6
CONTINUOUS
 62
    30
 10
304.47062157142852
 20
-378.04218600000002
 30
0.0
 40
64.0
  1
151
 41
0.9
 72
     1
 11
360.69919299999992
 21
-378.04218600000002
 31
0.0
  0
POINT
  8
DEFPOINTS
  6
CONTINUOUS
 62
    30
 10
436.39838500000002
 20
-162.96558400000001
 30
0.0
  0
POINT
  8
DEFPOINTS
  6
CONTINUOUS
 62
    30
 10
285.0
 20
-178.5
 30
0.0
  0
POINT
  8
DEFPOINTS
  6
CONTINUOUS
 62
    30
 10
285.0
 20
-403.04218600000002
 30
0.0
  0
LINE
  8
SIZE
  6
CONTINUOUS
 62
    30
 10
-436.0
 20
-182.0
 30
0.0
 11
-436.0
 21
-423.04218600000002
 31
0.0
  0
LINE
  8
SIZE
  6
CONTINUOUS
 62
    30
 10
-285.0
 20
-197.66289399999999
 30
0.0
 11
-285.0
 21
-423.04218600000002
 31
0.0
  0
LINE
  8
SIZE
  6
CONTINUOUS
 62
    30
 10
-424.0
 20
-403.04218600000002
 30
0.0
 11
-297.0
 21
-403.04218600000002
 31
0.0
  0
CIRCLE
  8
SIZE
  6
CONTINUOUS
 62
    30
 10
-436.0
 20
-403.04218600000002
 30
0.0
 40
6.0
  0
LINE
  8
SIZE
  6
CONTINUOUS
 62
    30
 10
-436.0
 20
-403.04218600000002
 30
0.0
 11
-424.0
 21
-403.04218600000002
 31
0.0
  0
CIRCLE
  8
SIZE
  6
CONTINUOUS
 62
    30
 10
-285.0
 20
-403.04218600000002
 30
0.0
 40
6.0
  0
LINE
  8
SIZE
  6
CONTINUOUS
 62
    30
 10
-285.0
 20
-403.04218600000002
 30
0.0
 11
-297.0
 21
-403.04218600000002
 31
0.0
  0
TEXT
  8
SIZE
  6
CONTINUOUS
 62
    30
 10
-416.7285714285714
 20
-378.04218600000002
 30
0.0
 40
64.0
  1
151
 41
0.9
 72
     1
 11
-360.5
 21
-378.04218600000002
 31
0.0
  0
POINT
  8
DEFPOINTS
  6
CONTINUOUS
 62
    30
 10
-436.0
 20
-162.0
 30
0.0
  0
POINT
  8
DEFPOINTS
  6
CONTINUOUS
 62
    30
 10
-285.0
 20
-177.66289399999999
 30
0.0
  0
POINT
  8
DEFPOINTS
  6
CONTINUOUS
 62
    30
 10
-285.0
 20
-403.04218600000002
 30
0.0
  0
LINE
  8
SIZE
  6
CONTINUOUS
 62
    30
 10
-285.0
 20
-198.5
 30
0.0
 11
-285.0
 21
-423.04218600000002
 31
0.0
  0
LINE
  8
SIZE
  6
CONTINUOUS
 62
    30
 10
285.0
 20
-204.80000000000001
 30
0.0
 11
285.0
 21
-423.04218600000002
 31
0.0
  0
LINE
  8
SIZE
  6
CONTINUOUS
 62
    30
 10
-273.0
 20
-403.04218600000002
 30
0.0
 11
273.0
 21
-403.04218600000002
 31
0.0
  0
CIRCLE
  8
SIZE
  6
CONTINUOUS
 62
    30
 10
-285.0
 20
-403.04218600000002
 30
0.0
 40
6.0
  0
LINE
  8
SIZE
  6
CONTINUOUS
 62
    30
 10
-285.0
 20
-403.04218600000002
 30
0.0
 11
-273.0
 21
-403.04218600000002
 31
0.0
  0
CIRCLE
  8
SIZE
  6
CONTINUOUS
 62
    30
 10
285.0
 20
-403.04218600000002
 30
0.0
 40
6.0
  0
LINE
  8
SIZE
  6
CONTINUOUS
 62
    30
 10
285.0
 20
-403.04218600000002
 30
0.0
 11
273.0
 21
-403.04218600000002
 31
0.0
  0
TEXT
  8
SIZE
  6
CONTINUOUS
 62
    30
 10
-74.103787857142862
 20
-378.04218600000002
 30
0.0
 40
64.0
  1
570
 41
0.9
 72
     1
 11
-0.0466450000000123
 21
-378.04218600000002
 31
0.0
  0
POINT
  8
DEFPOINTS
  6
CONTINUOUS
 62
    30
 10
-285.0
 20
-178.5
 30
0.0
  0
POINT
  8
DEFPOINTS
  6
CONTINUOUS
 62
    30
 10
285.0
 20
-184.80000000000001
 30
0.0
  0
POINT
  8
DEFPOINTS
  6
CONTINUOUS
 62
    30
 10
285.0
 20
-403.04218600000002
 30
0.0
  0
LINE
  8
NOTE
  6
CONTINUOUS
 62
     4
 10
309.0
 20
-50.968482999999992
 30
0.0
 11
309.0
 21
-15.856890000000019
 31
0.0
  0
CIRCLE
  8
FIX
  6
CONTINUOUS
 62
    11
 10
309.0
 20
-32.0
 30
0.0
 40
2.0
  0
LINE
  8
NOTE
  6
CONTINUOUS
 62
     4
 10
-309.0
 20
-50.968482999999992
 30
0.0
 11
-309.0
 21
-15.856890000000019
 31
0.0
  0
CIRCLE
  8
FIX
  6
CONTINUOUS
 62
    11
 10
-309.0
 20
-32.0
 30
0.0
 40
2.0
  0
LINE
  8
SIZE
  6
CONTINUOUS
 62
    30
 10
-309.0
 20
4.1431099999999788
 30
0.0
 11
-309.0
 21
102.10389499999999
 31
0.0
  0
LINE
  8
SIZE
  6
CONTINUOUS
 62
    30
 10
309.0
 20
4.1431099999999788
 30
0.0
 11
309.0
 21
102.10389499999999
 31
0.0
  0
LINE
  8
SIZE
  6
CONTINUOUS
 62
    30
 10
-297.0
 20
82.103894999999966
 30
0.0
 11
297.0
 21
82.103894999999966
 31
0.0
  0
CIRCLE
  8
SIZE
  6
CONTINUOUS
 62
    30
 10
-309.0
 20
82.103894999999966
 30
0.0
 40
6.0
  0
LINE
  8
SIZE
  6
CONTINUOUS
 62
    30
 10
-309.0
 20
82.103894999999966
 30
0.0
 11
-297.0
 21
82.103894999999966
 31
0.0
  0
CIRCLE
  8
SIZE
  6
CONTINUOUS
 62
    30
 10
309.0
 20
82.103894999999966
 30
0.0
 40
6.0
  0
LINE
  8
SIZE
  6
CONTINUOUS
 62
    30
 10
309.0
 20
82.103894999999966
 30
0.0
 11
297.0
 21
82.103894999999966
 31
0.0
  0
TEXT
  8
SIZE
  6
CONTINUOUS
 62
    30
 10
-261.11999999999989
 20
107.10389499999999
 30
0.0
 40
64.0
  1
618（天吊位置）
 41
0.9
 72
     1
 11
0.0
 21
107.10389499999999
 31
0.0
  0
POINT
  8
DEFPOINTS
  6
CONTINUOUS
 62
    30
 10
-309.0
 20
-15.856890000000019
 30
0.0
  0
POINT
  8
DEFPOINTS
  6
CONTINUOUS
 62
    30
 10
309.0
 20
-15.856890000000019
 30
0.0
  0
POINT
  8
DEFPOINTS
  6
CONTINUOUS
 62
    30
 10
309.0
 20
82.103894999999966
 30
0.0
  0
LINE
  8
SIZE
  6
CONTINUOUS
 62
    30
 10
-481.00003299999997
 20
-114.0
 30
0.0
 11
-637.12316399999997
 21
-114.0
 31
0.0
  0
LINE
  8
SIZE
  6
CONTINUOUS
 62
    30
 10
-375.42081899999999
 20
0.0
 30
0.0
 11
-637.12316399999997
 21
0.0
 31
0.0
  0
LINE
  8
SIZE
  6
CONTINUOUS
 62
    30
 10
-617.12316399999997
 20
-126.0
 30
0.0
 11
-617.12316399999997
 21
-138.0
 31
0.0
  0
LINE
  8
SIZE
  6
CONTINUOUS
 62
    30
 10
-617.12316399999997
 20
12.0
 30
0.0
 11
-617.12316399999997
 21
24.0
 31
0.0
  0
LINE
  8
SIZE
  6
CONTINUOUS
 62
    30
 10
-617.12316399999997
 20
-114.0
 30
0.0
 11
-617.12316399999997
 21
0.0
 31
0.0
  0
CIRCLE
  8
SIZE
  6
CONTINUOUS
 62
    30
 10
-617.12316399999997
 20
-114.0
 30
0.0
 40
6.0
  0
LINE
  8
SIZE
  6
CONTINUOUS
 62
    30
 10
-617.12316399999997
 20
-114.0
 30
0.0
 11
-617.12316399999997
 21
-126.0
 31
0.0
  0
CIRCLE
  8
SIZE
  6
CONTINUOUS
 62
    30
 10
-617.12316399999997
 20
0.0
 30
0.0
 40
6.0
  0
LINE
  8
SIZE
  6
CONTINUOUS
 62
    30
 10
-617.12316399999997
 20
0.0
 30
0.0
 11
-617.12316399999997
 21
12.0
 31
0.0
  0
TEXT
  8
SIZE
  6
CONTINUOUS
 62
    30
 10
-642.12316399999997
 20
-121.4571428571429
 30
0.0
 40
64.0
  1
114
 50
90.0
 41
0.9
 72
     1
 11
-642.12316399999997
 21
-57.0
 31
0.0
  0
POINT
  8
DEFPOINTS
  6
CONTINUOUS
 62
    30
 10
-461.00003299999997
 20
-114.0
 30
0.0
  0
POINT
  8
DEFPOINTS
  6
CONTINUOUS
 62
    30
 10
-617.12316399999997
 20
0.0
 30
0.0
  0
TEXT
  8
ETC
  6
CONTINUOUS
 62
    61
 10
498.50650399999989
 20
519.90144899999996
 30
0.0
 40
64.0
  1
VL-10CZ4-L_4
 41
0.9
  0
TEXT
  8
ETC
  6
CONTINUOUS
 62
    61
 10
494.32051000000001
 20
399.41712899999987
 30
0.0
 40
64.0
  1
換気扇
 41
0.9
  0
TEXT
  8
ETC
  6
CONTINUOUS
 62
    61
 10
544.92801299999996
 20
317.54701899999998
 30
0.0
 40
40.0
  1
VL-10CZ4-L
 41
0.9
  0
TEXT
  8
ETC
  6
CONTINUOUS
 62
    61
 10
544.92801299999996
 20
252.54701900000001
 30
0.0
 40
40.0
  1
VL-15CZ4-L
 41
0.9
  0
LINE
  8
DETAIL
  6
CONTINUOUS
 62
     5
 10
-288.0
 20
-185.5
 30
0.0
 11
-288.0
 21
-178.5
 31
0.0
  0
LINE
  8
DETAIL
  6
CONTINUOUS
 62
     5
 10
287.90670999999998
 20
-185.5
 30
0.0
 11
287.90670999999998
 21
-178.5
 31
0.0
  0
LINE
  8
SIZE
  6
CONTINUOUS
 62
    30
 10
-292.46394299999997
 20
-210.552357
 30
0.0
 11
-292.46394299999997
 21
-546.48190699999998
 31
0.0
  0
LINE
  8
SIZE
  6
CONTINUOUS
 62
    30
 10
292.46394299999997
 20
-210.552357
 30
0.0
 11
292.46394299999997
 21
-546.48190699999998
 31
0.0
  0
LINE
  8
SIZE
  6
CONTINUOUS
 62
    30
 10
-280.46394299999997
 20
-526.48190699999998
 30
0.0
 11
280.46394299999997
 21
-526.48190699999998
 31
0.0
  0
CIRCLE
  8
SIZE
  6
CONTINUOUS
 62
    30
 10
-292.46394299999997
 20
-526.48190699999998
 30
0.0
 40
6.0
  0
LINE
  8
SIZE
  6
CONTINUOUS
 62
    30
 10
-292.46394299999997
 20
-526.48190699999998
 30
0.0
 11
-280.46394299999997
 21
-526.48190699999998
 31
0.0
  0
CIRCLE
  8
SIZE
  6
CONTINUOUS
 62
    30
 10
292.46394299999997
 20
-526.48190699999998
 30
0.0
 40
6.0
  0
LINE
  8
SIZE
  6
CONTINUOUS
 62
    30
 10
292.46394299999997
 20
-526.48190699999998
 30
0.0
 11
280.46394299999997
 21
-526.48190699999998
 31
0.0
  0
TEXT
  8
SIZE
  6
CONTINUOUS
 62
    30
 10
-110.5371428571429
 20
-501.48190700000009
 30
0.0
 40
64.0
  1
□585
 41
0.9
 72
     1
 11
0.0
 21
-501.48190700000009
 31
0.0
  0
POINT
  8
DEFPOINTS
  6
CONTINUOUS
 62
    30
 10
-292.46394299999997
 20
-190.552357
 30
0.0
  0
POINT
  8
DEFPOINTS
  6
CONTINUOUS
 62
    30
 10
292.46394299999997
 20
-190.552357
 30
0.0
  0
POINT
  8
DEFPOINTS
  6
CONTINUOUS
 62
    30
 10
292.46394299999997
 20
-526.48190699999998
 30
0.0
  0
LINE
  8
OUTLINE
  6
CONTINUOUS
 62
     3
 10
-329.0
 20
-34.0
 30
0.0
 11
-285.0
 21
-34.0
 31
0.0
  0
LINE
  8
OUTLINE
  6
CONTINUOUS
 62
     3
 10
-435.00243999999998
 20
-163.06983
 30
0.0
 11
-389.0
 21
-166.28999999999999
 31
0.0
  0
LINE
  8
OUTLINE
  6
CONTINUOUS
 62
     3
 10
-435.00243999999998
 20
-64.930169999999976
 30
0.0
 11
-389.0
 21
-61.70999999999998
 31
0.0
  0
LINE
  8
OUTLINE
  6
CONTINUOUS
 62
     3
 10
-436.0
 20
-162.0
 30
0.0
 11
-436.0
 21
-66.0
 31
0.0
  0
LINE
  8
OUTLINE
  6
CONTINUOUS
 62
     3
 10
-435.00243999999998
 20
-163.06983
 30
0.0
 11
-436.0
 21
-162.0
 31
0.0
  0
LINE
  8
OUTLINE
  6
CONTINUOUS
 62
     3
 10
-435.00243999999998
 20
-64.930169999999976
 30
0.0
 11
-436.0
 21
-66.0
 31
0.0
  0
LINE
  8
OUTLINE
  6
CONTINUOUS
 62
     3
 10
-288.0
 20
-185.5
 30
0.0
 11
-288.0
 21
-34.0
 31
0.0
  0
LINE
  8
OUTLINE
  6
CONTINUOUS
 62
     3
 10
-359.0
 20
-186.75
 30
0.0
 11
-359.0
 21
-41.25
 31
0.0
  0
LINE
  8
OUTLINE
  6
CONTINUOUS
 62
     3
 10
-329.0
 20
-198.5
 30
0.0
 11
-329.0
 21
-34.0
 31
0.0
  0
LINE
  8
OUTLINE
  6
CONTINUOUS
 62
     3
 10
-389.0
 20
-178.0
 30
0.0
 11
-389.0
 21
-50.0
 31
0.0
  0
LINE
  8
OUTLINE
  6
CONTINUOUS
 62
     3
 10
-329.0
 20
-186.75
 30
0.0
 11
-359.0
 21
-186.75
 31
0.0
  0
LINE
  8
OUTLINE
  6
CONTINUOUS
 62
     3
 10
-359.0
 20
-178.0
 30
0.0
 11
-389.0
 21
-178.0
 31
0.0
  0
LINE
  8
OUTLINE
  6
CONTINUOUS
 62
     3
 10
-288.0
 20
-198.5
 30
0.0
 11
-329.0
 21
-198.5
 31
0.0
  0
LINE
  8
OUTLINE
  6
CONTINUOUS
 62
     3
 10
-288.0
 20
-198.5
 30
0.0
 11
-288.0
 21
-193.337717
 31
0.0
  0
LINE
  8
OUTLINE
  6
CONTINUOUS
 62
     3
 10
-329.0
 20
-41.25
 30
0.0
 11
-359.0
 21
-41.25
 31
0.0
  0
LINE
  8
OUTLINE
  6
CONTINUOUS
 62
     3
 10
-359.0
 20
-50.0
 30
0.0
 11
-389.0
 21
-50.0
 31
0.0
  0
LINE
  8
OUTLINE
  6
CONTINUOUS
 62
     3
 10
434.90915000000001
 20
-163.06983
 30
0.0
 11
388.90670999999998
 21
-166.28999999999999
 31
0.0
  0
LINE
  8
OUTLINE
  6
CONTINUOUS
 62
     3
 10
434.90915000000001
 20
-64.930169999999976
 30
0.0
 11
388.90670999999998
 21
-61.70999999999998
 31
0.0
  0
LINE
  8
OUTLINE
  6
CONTINUOUS
 62
     3
 10
285.0
 20
-34.0
 30
0.0
 11
328.90670999999998
 21
-34.0
 31
0.0
  0
LINE
  8
OUTLINE
  6
CONTINUOUS
 62
     3
 10
287.90670999999998
 20
-185.5
 30
0.0
 11
287.90670999999998
 21
-34.0
 31
0.0
  0
LINE
  8
OUTLINE
  6
CONTINUOUS
 62
     3
 10
358.90670999999998
 20
-186.75
 30
0.0
 11
358.90670999999998
 21
-41.25
 31
0.0
  0
LINE
  8
OUTLINE
  6
CONTINUOUS
 62
     3
 10
328.90670999999998
 20
-198.5
 30
0.0
 11
328.90670999999998
 21
-34.0
 31
0.0
  0
LINE
  8
OUTLINE
  6
CONTINUOUS
 62
     3
 10
388.90670999999998
 20
-178.0
 30
0.0
 11
388.90670999999998
 21
-50.0
 31
0.0
  0
LINE
  8
OUTLINE
  6
CONTINUOUS
 62
     3
 10
328.90670999999998
 20
-186.75
 30
0.0
 11
358.90670999999998
 21
-186.75
 31
0.0
  0
LINE
  8
OUTLINE
  6
CONTINUOUS
 62
     3
 10
287.90670999999998
 20
-198.5
 30
0.0
 11
328.90670999999998
 21
-198.5
 31
0.0
  0
LINE
  8
OUTLINE
  6
CONTINUOUS
 62
     3
 10
287.90670999999998
 20
-198.5
 30
0.0
 11
287.90670999999998
 21
-193.5
 31
0.0
  0
LINE
  8
OUTLINE
  6
CONTINUOUS
 62
     3
 10
358.90670999999998
 20
-178.0
 30
0.0
 11
388.90670999999998
 21
-178.0
 31
0.0
  0
LINE
  8
OUTLINE
  6
CONTINUOUS
 62
     3
 10
328.90670999999998
 20
-41.25
 30
0.0
 11
358.90670999999998
 21
-41.25
 31
0.0
  0
LINE
  8
OUTLINE
  6
CONTINUOUS
 62
     3
 10
358.90670999999998
 20
-50.0
 30
0.0
 11
388.90670999999998
 21
-50.0
 31
0.0
  0
LINE
  8
OUTLINE
  6
CONTINUOUS
 62
     3
 10
435.90670999999998
 20
-162.0
 30
0.0
 11
435.90670999999998
 21
-66.0
 31
0.0
  0
LINE
  8
OUTLINE
  6
CONTINUOUS
 62
     3
 10
434.90915000000001
 20
-163.06983
 30
0.0
 11
435.90670999999998
 21
-162.0
 31
0.0
  0
LINE
  8
OUTLINE
  6
CONTINUOUS
 62
     3
 10
434.90915000000001
 20
-64.930169999999976
 30
0.0
 11
435.90670999999998
 21
-66.0
 31
0.0
  0
ENDSEC
  0
EOF
