  0
SECTION
  2
HEADER
  9
$ACADVER
  1
AC1009
  9
$DWGCODEPAGE
  3
dos932
  9
$INSBASE
 10
0.0
 20
0.0
 30
0.0
  9
$EXTMIN
 10
-683.404525
 20
-817.749012
 30
-0.001526
  9
$EXTMAX
 10
1058.64259
 20
907.791146
 30
50.001526
  9
$LIMMIN
 10
-2970.0
 20
-2100.0
  9
$LIMMAX
 10
2970.0
 20
2100.0
  9
$ORTHOMODE
 70
     0
  9
$REGENMODE
 70
     1
  9
$FILLMODE
 70
     1
  9
$QTEXTMODE
 70
     0
  9
$MIRRTEXT
 70
     0
  9
$DRAGMODE
 70
     2
  9
$LTSCALE
 40
20.0
  9
$OSMODE
 70
    33
  9
$ATTMODE
 70
     1
  9
$TEXTSIZE
 40
64.0
  9
$TRACEWID
 40
0.05
  9
$TEXTSTYLE
  7
STANDARD
  9
$CLAYER
  8
NOTE
  9
$CELTYPE
  6
CONTINUOUS
  9
$CECOLOR
 62
     4
  9
$DIMSCALE
 40
1.0
  9
$DIMASZ
 40
12.0
  9
$DIMEXO
 40
20.0
  9
$DIMDLI
 40
200.0
  9
$DIMRND
 40
0.0
  9
$DIMDLE
 40
0.0
  9
$DIMEXE
 40
20.0
  9
$DIMTP
 40
0.0
  9
$DIMTM
 40
0.0
  9
$DIMTXT
 40
64.0
  9
$DIMCEN
 40
0.09
  9
$DIMTSZ
 40
0.0
  9
$DIMTOL
 70
     0
  9
$DIMLIM
 70
     0
  9
$DIMTIH
 70
     0
  9
$DIMTOH
 70
     0
  9
$DIMSE1
 70
     0
  9
$DIMSE2
 70
     0
  9
$DIMTAD
 70
     1
  9
$DIMZIN
 70
     8
  9
$DIMBLK
  1
DOT1
  9
$DIMASO
 70
     1
  9
$DIMSHO
 70
     0
  9
$DIMPOST
  1

  9
$DIMAPOST
  1

  9
$DIMALT
 70
     0
  9
$DIMALTD
 70
     2
  9
$DIMALTF
 40
25.4
  9
$DIMLFAC
 40
1.0
  9
$DIMTOFL
 70
     1
  9
$DIMTVP
 40
0.0
  9
$DIMTIX
 70
     1
  9
$DIMSOXD
 70
     0
  9
$DIMSAH
 70
     1
  9
$DIMBLK1
  1
_ORIGIN
  9
$DIMBLK2
  1
_ORIGIN
  9
$DIMSTYLE
  2
STANDARD
  9
$DIMCLRD
 70
     7
  9
$DIMCLRE
 70
     7
  9
$DIMCLRT
 70
     7
  9
$DIMTFAC
 40
1.0
  9
$DIMGAP
 40
25.0
  9
$LUNITS
 70
     2
  9
$LUPREC
 70
     4
  9
$SKETCHINC
 40
0.1
  9
$FILLETRAD
 40
9.0
  9
$AUNITS
 70
     1
  9
$AUPREC
 70
     3
  9
$MENU
  1
ACAD
  9
$ELEVATION
 40
0.0
  9
$PELEVATION
 40
0.0
  9
$THICKNESS
 40
50.0
  9
$LIMCHECK
 70
     0
  9
$BLIPMODE
 70
     0
  9
$CHAMFERA
 40
0.0
  9
$CHAMFERB
 40
0.0
  9
$SKPOLY
 70
     0
  9
$TDCREATE
 40
2453066.567907812
  9
$TDUPDATE
 40
2453468.601177962
  9
$TDINDWG
 40
0.4156309491
  9
$TDUSRTIMER
 40
0.4156309491
  9
$USRTIMER
 70
     1
  9
$ANGBASE
 50
0.0
  9
$ANGDIR
 70
     0
  9
$PDMODE
 70
     3
  9
$PDSIZE
 40
-2.0
  9
$PLINEWID
 40
0.0
  9
$COORDS
 70
     2
  9
$SPLFRAME
 70
     0
  9
$SPLINETYPE
 70
     6
  9
$SPLINESEGS
 70
     8
  9
$ATTDIA
 70
     0
  9
$ATTREQ
 70
     1
  9
$HANDLING
 70
     0
  9
$HANDSEED
  5
3C61
  9
$SURFTAB1
 70
     6
  9
$SURFTAB2
 70
     6
  9
$SURFTYPE
 70
     6
  9
$SURFU
 70
     6
  9
$SURFV
 70
     6
  9
$UCSNAME
  2

  9
$UCSORG
 10
0.0
 20
0.0
 30
0.0
  9
$UCSXDIR
 10
1.0
 20
0.0
 30
0.0
  9
$UCSYDIR
 10
0.0
 20
1.0
 30
0.0
  9
$PUCSNAME
  2

  9
$PUCSORG
 10
0.0
 20
0.0
 30
0.0
  9
$PUCSXDIR
 10
1.0
 20
0.0
 30
0.0
  9
$PUCSYDIR
 10
0.0
 20
1.0
 30
0.0
  9
$USERI1
 70
     0
  9
$USERI2
 70
     0
  9
$USERI3
 70
     0
  9
$USERI4
 70
     0
  9
$USERI5
 70
     0
  9
$USERR1
 40
20.0
  9
$USERR2
 40
0.0
  9
$USERR3
 40
0.0
  9
$USERR4
 40
0.0
  9
$USERR5
 40
0.0
  9
$WORLDVIEW
 70
     1
  9
$SHADEDGE
 70
     3
  9
$SHADEDIF
 70
    70
  9
$TILEMODE
 70
     1
  9
$MAXACTVP
 70
    48
  9
$PINSBASE
 10
0.0
 20
0.0
 30
0.0
  9
$PLIMCHECK
 70
     0
  9
$PEXTMIN
 10
-100000000000000000000.0
 20
-100000000000000000000.0
 30
-100000000000000000000.0
  9
$PEXTMAX
 10
100000000000000000000.0
 20
100000000000000000000.0
 30
100000000000000000000.0
  9
$PLIMMIN
 10
0.0
 20
0.0
  9
$PLIMMAX
 10
12.0
 20
9.0
  9
$UNITMODE
 70
     0
  9
$VISRETAIN
 70
     0
  9
$PLINEGEN
 70
     0
  9
$PSLTSCALE
 70
     0
  9
$TREEDEPTH
 70
  3020
  0
ENDSEC
  0
SECTION
  2
TABLES
  0
TABLE
  2
LTYPE
 70
     2
  0
LTYPE
  2
CONTINUOUS
 70
     0
  3
実線
 72
    65
 73
     0
 40
0.0
  0
LTYPE
  2
DASHDOT
 70
     0
  3
____ _ ____ _ ____ _ ____ _ ____ _ ____ _ ____
 72
    65
 73
     4
 40
5.5
 49
4.0
 49
-0.6
 49
0.3
 49
-0.6
  0
ENDTAB
  0
TABLE
  2
LAYER
 70
    12
  0
LAYER
  2
0
 70
     0
 62
     7
  6
CONTINUOUS
  0
LAYER
  2
BASIS
 70
     0
 62
     6
  6
DASHDOT
  0
LAYER
  2
OUTLINE
 70
     0
 62
     3
  6
CONTINUOUS
  0
LAYER
  2
DETAIL
 70
     0
 62
     5
  6
CONTINUOUS
  0
LAYER
  2
SIZE
 70
     0
 62
    30
  6
CONTINUOUS
  0
LAYER
  2
ARRANGE
 70
     0
 62
     1
  6
CONTINUOUS
  0
LAYER
  2
DEFPOINTS
 70
     0
 62
     7
  6
CONTINUOUS
  0
LAYER
  2
ETC
 70
     0
 62
    61
  6
CONTINUOUS
  0
LAYER
  2
FIX
 70
     0
 62
    11
  6
CONTINUOUS
  0
LAYER
  2
NOTE
 70
     0
 62
     4
  6
CONTINUOUS
  0
LAYER
  2
SERVICESPACE
 70
     0
 62
     2
  6
DASHDOT
  0
LAYER
  2
SYMBOLLINE
 70
    64
 62
    15
  6
CONTINUOUS
  0
ENDTAB
  0
TABLE
  2
STYLE
 70
     1
  0
STYLE
  2
STANDARD
 70
     0
 40
64.0
 41
0.9
 50
0.0
 71
     0
 42
64.0
  3
SIMPLEX.shx
  4
BIGFONT.shx
  0
ENDTAB
  0
TABLE
  2
APPID
 70
     2
  0
APPID
  2
ACAD
 70
     0
  0
APPID
  2
AUTOCAD_POSTSCRIPT_FIGURE
 70
     0
  0
ENDTAB
  0
TABLE
  2
DIMSTYLE
 70
     1
  0
DIMSTYLE
  2
STANDARD
 70
     0
  3

  4

  5

  6

  7

 40
1.0
 41
0.18
 42
0.0625
 43
0.38
 44
0.18
 45
0.0
 46
0.0
 47
0.0
 48
0.0
140
0.18
141
0.09
142
0.0
143
25.4
144
1.0
145
0.0
146
1.0
147
0.09
 71
     0
 72
     0
 73
     1
 74
     1
 75
     0
 76
     0
 77
     0
 78
     0
170
     0
171
     2
172
     0
173
     0
174
     0
175
     0
176
     7
177
     7
178
     7
  0
ENDTAB
  0
TABLE
  2
VIEW
 70
     1
  0
VIEW
  2
ALL
 70
     0
 40
4282.619808
 10
0.0
 20
41.309904
 41
5940.0
 11
0.0
 21
0.0
 31
1.0
 12
0.0
 22
0.0
 32
0.0
 42
50.0
 43
0.0
 44
0.0
 50
0.0
 71
     0
  0
ENDTAB
  0
TABLE
  2
UCS
 70
     0
  0
ENDTAB
  0
TABLE
  2
VPORT
 70
     1
  0
VPORT
  2
*ACTIVE
 70
     0
 10
0.0
 20
0.0
 11
1.0
 21
1.0
 12
187.619033
 22
45.021067
 13
0.0
 23
0.0
 14
5.0
 24
5.0
 15
0.0
 25
0.0
 16
0.0
 26
0.0
 36
1.0
 17
0.0
 27
0.0
 37
0.0
 40
1739.399919
 41
1.571046
 42
50.0
 43
0.0
 44
0.0
 50
0.0
 51
0.0
 71
     0
 72
  1000
 73
     1
 74
     0
 75
     0
 76
     0
 77
     0
 78
     0
  0
ENDTAB
  0
ENDSEC
  0
SECTION
  2
BLOCKS
  0
BLOCK
  8
0
  2
DOT1
 70
     0
 10
0.0
 20
0.0
 30
0.0
  3
DOT1
  1

  0
CIRCLE
  8
SIZE
  6
CONTINUOUS
 62
     7
 10
0.0
 20
0.0
 30
0.0
 40
3.0
  0
ENDBLK
  8
0
  0
BLOCK
  8
0
  2
_ORIGIN
 70
     0
 10
0.0
 20
0.0
 30
0.0
  3
_ORIGIN
  1

  0
CIRCLE
  8
0
  6
CONTINUOUS
 62
     7
 10
0.0
 20
0.0
 30
0.0
 40
0.5
  0
LINE
  8
0
  6
CONTINUOUS
 62
     7
 10
0.0
 20
0.0
 30
0.0
 11
-1.0
 21
0.0
 31
0.0
  0
ENDBLK
  8
0
  0
ENDSEC
  0
SECTION
  2
ENTITIES
  0
TEXT
  8
ETC
  6
CONTINUOUS
 62
    61
 10
605.64827
 20
819.431632
 30
0.0
 40
40.0
  1
VL-10PZM2-L_6
 41
0.9
  0
TEXT
  8
ETC
  6
CONTINUOUS
 62
    61
 10
597.732563
 20
743.726924
 30
0.0
 40
40.0
  1
換気扇
 41
0.9
  0
LINE
  8
BASIS
  6
DASHDOT
 62
     6
 10
0.0
 20
-437.381622
 30
0.0
 11
0.0
 21
387.83086
 31
0.0
  0
LINE
  8
BASIS
  6
DASHDOT
 62
     6
 10
-333.0
 20
0.0
 30
0.0
 11
333.0
 21
0.0
 31
0.0
  0
CIRCLE
  8
ARRANGE
  6
CONTINUOUS
 62
     1
 39
50.0
 10
0.0
 20
0.0
 30
0.0
 40
40.0
  0
POINT
  8
ARRANGE
  6
CONTINUOUS
 62
     1
 10
0.0
 20
0.0
 30
0.0
 39
50.0
  0
LINE
  8
BASIS
  6
DASHDOT
 62
     6
 10
-197.346826
 20
-0.000441
 30
0.0
 11
-290.667227
 21
0.000092
 31
0.0
  0
LINE
  8
DETAIL
  6
CONTINUOUS
 62
     5
 10
-285.0
 20
285.0
 30
0.0
 11
285.0
 21
285.0
 31
0.0
  0
LINE
  8
DETAIL
  6
CONTINUOUS
 62
     5
 10
-285.0
 20
-285.0
 30
0.0
 11
285.0
 21
-285.0
 31
0.0
  0
LINE
  8
DETAIL
  6
CONTINUOUS
 62
     5
 10
285.0
 20
-333.0
 30
0.0
 11
285.0
 21
333.0
 31
0.0
  0
LINE
  8
DETAIL
  6
CONTINUOUS
 62
     5
 10
-285.0
 20
-333.0
 30
0.0
 11
-285.0
 21
333.0
 31
0.0
  0
LINE
  8
BASIS
  6
DASHDOT
 62
     6
 10
202.5
 20
-450.0
 30
0.0
 11
202.5
 21
-250.0
 31
0.0
  0
LINE
  8
BASIS
  6
DASHDOT
 62
     6
 10
-202.5
 20
-450.0
 30
0.0
 11
-202.5
 21
-250.0
 31
0.0
  0
LINE
  8
DETAIL
  6
CONTINUOUS
 62
     5
 10
138.0
 20
-371.0
 30
0.0
 11
267.0
 21
-371.0
 31
0.0
  0
LINE
  8
DETAIL
  6
CONTINUOUS
 62
     5
 10
153.5
 20
-421.0
 30
0.0
 11
251.5
 21
-421.0
 31
0.0
  0
LINE
  8
DETAIL
  6
CONTINUOUS
 62
     5
 39
50.0
 10
255.0
 20
-371.0
 30
0.0
 11
251.5
 21
-421.0
 31
0.0
  0
LINE
  8
DETAIL
  6
CONTINUOUS
 62
     5
 39
50.0
 10
150.0
 20
-371.0
 30
0.0
 11
153.5
 21
-421.0
 31
0.0
  0
LINE
  8
DETAIL
  6
CONTINUOUS
 62
     5
 39
50.0
 10
270.5
 20
-285.0
 30
0.0
 11
267.0
 21
-371.0
 31
0.0
  0
LINE
  8
DETAIL
  6
CONTINUOUS
 62
     5
 39
50.0
 10
134.5
 20
-285.0
 30
0.0
 11
138.0
 21
-371.0
 31
0.0
  0
LINE
  8
DETAIL
  6
CONTINUOUS
 62
     5
 10
136.77907
 20
-341.0
 30
0.0
 11
268.22093
 21
-341.0
 31
0.0
  0
LINE
  8
DETAIL
  6
CONTINUOUS
 62
     5
 39
50.0
 10
-255.0
 20
-371.0
 30
0.0
 11
-251.5
 21
-421.0
 31
0.0
  0
LINE
  8
DETAIL
  6
CONTINUOUS
 62
     5
 39
50.0
 10
-150.0
 20
-371.0
 30
0.0
 11
-153.5
 21
-421.0
 31
0.0
  0
LINE
  8
DETAIL
  6
CONTINUOUS
 62
     5
 39
50.0
 10
-270.5
 20
-285.0
 30
0.0
 11
-267.0
 21
-371.0
 31
0.0
  0
LINE
  8
DETAIL
  6
CONTINUOUS
 62
     5
 39
50.0
 10
-134.5
 20
-285.0
 30
0.0
 11
-138.0
 21
-371.0
 31
0.0
  0
LINE
  8
DETAIL
  6
CONTINUOUS
 62
     5
 10
-136.77907
 20
-341.0
 30
0.0
 11
-268.22093
 21
-341.0
 31
0.0
  0
LINE
  8
DETAIL
  6
CONTINUOUS
 62
     5
 10
-153.5
 20
-421.0
 30
0.0
 11
-251.5
 21
-421.0
 31
0.0
  0
LINE
  8
DETAIL
  6
CONTINUOUS
 62
     5
 10
-138.0
 20
-371.0
 30
0.0
 11
-267.0
 21
-371.0
 31
0.0
  0
LINE
  8
DETAIL
  6
CONTINUOUS
 62
     5
 39
50.0
 10
-134.5
 20
285.0
 30
0.0
 11
-138.0
 21
371.0
 31
0.0
  0
LINE
  8
DETAIL
  6
CONTINUOUS
 62
     5
 39
50.0
 10
-270.5
 20
285.0
 30
0.0
 11
-267.0
 21
371.0
 31
0.0
  0
LINE
  8
DETAIL
  6
CONTINUOUS
 62
     5
 39
50.0
 10
-150.0
 20
371.0
 30
0.0
 11
-153.5
 21
421.0
 31
0.0
  0
LINE
  8
DETAIL
  6
CONTINUOUS
 62
     5
 39
50.0
 10
-255.0
 20
371.0
 30
0.0
 11
-251.5
 21
421.0
 31
0.0
  0
LINE
  8
DETAIL
  6
CONTINUOUS
 62
     5
 10
-138.0
 20
371.0
 30
0.0
 11
-267.0
 21
371.0
 31
0.0
  0
LINE
  8
DETAIL
  6
CONTINUOUS
 62
     5
 10
-153.5
 20
421.0
 30
0.0
 11
-251.5
 21
421.0
 31
0.0
  0
LINE
  8
DETAIL
  6
CONTINUOUS
 62
     5
 10
-136.77907
 20
341.0
 30
0.0
 11
-268.22093
 21
341.0
 31
0.0
  0
LINE
  8
DETAIL
  6
CONTINUOUS
 62
     5
 39
50.0
 10
255.0
 20
371.0
 30
0.0
 11
251.5
 21
421.0
 31
0.0
  0
LINE
  8
DETAIL
  6
CONTINUOUS
 62
     5
 39
50.0
 10
150.0
 20
371.0
 30
0.0
 11
153.5
 21
421.0
 31
0.0
  0
LINE
  8
DETAIL
  6
CONTINUOUS
 62
     5
 39
50.0
 10
270.5
 20
285.0
 30
0.0
 11
267.0
 21
371.0
 31
0.0
  0
LINE
  8
DETAIL
  6
CONTINUOUS
 62
     5
 39
50.0
 10
134.5
 20
285.0
 30
0.0
 11
138.0
 21
371.0
 31
0.0
  0
LINE
  8
DETAIL
  6
CONTINUOUS
 62
     5
 10
136.77907
 20
341.0
 30
0.0
 11
268.22093
 21
341.0
 31
0.0
  0
LINE
  8
DETAIL
  6
CONTINUOUS
 62
     5
 10
153.5
 20
421.0
 30
0.0
 11
251.5
 21
421.0
 31
0.0
  0
LINE
  8
DETAIL
  6
CONTINUOUS
 62
     5
 10
138.0
 20
371.0
 30
0.0
 11
267.0
 21
371.0
 31
0.0
  0
LINE
  8
SIZE
  6
CONTINUOUS
 62
    30
 10
271.5
 20
-421.0
 30
0.0
 11
476.302187
 21
-421.0
 31
0.0
  0
LINE
  8
SIZE
  6
CONTINUOUS
 62
    30
 10
275.0
 20
-371.0
 30
0.0
 11
476.302187
 21
-371.0
 31
0.0
  0
LINE
  8
SIZE
  6
CONTINUOUS
 62
    30
 10
456.302187
 20
-433.0
 30
0.0
 11
456.302187
 21
-445.0
 31
0.0
  0
LINE
  8
SIZE
  6
CONTINUOUS
 62
    30
 10
456.302187
 20
-359.0
 30
0.0
 11
456.302187
 21
-347.0
 31
0.0
  0
LINE
  8
SIZE
  6
CONTINUOUS
 62
    30
 10
456.302187
 20
-590.620679
 30
0.0
 11
456.302187
 21
-421.0
 31
0.0
  0
TEXT
  8
SIZE
  6
CONTINUOUS
 62
    30
 10
431.302187
 20
-573.136108
 30
0.0
 40
64.0
  1
50
 50
90.0
 41
0.9
 51
0.0
  7
STANDARD
 71
     0
 72
     1
 11
431.302187
 21
-518.992108
 31
0.0
210
0.0
220
0.0
230
1.0
  0
LINE
  8
SIZE
  6
CONTINUOUS
 62
    30
 10
456.302187
 20
-421.0
 30
0.0
 11
456.302187
 21
-371.0
 31
0.0
  0
LINE
  8
SIZE
  6
CONTINUOUS
 62
    30
 10
456.302187
 20
-421.0
 30
0.0
 11
456.302187
 21
-371.0
 31
0.0
  0
CIRCLE
  8
SIZE
  6
CONTINUOUS
 62
    30
 10
456.302187
 20
-421.0
 30
0.0
 40
6.0
  0
LINE
  8
SIZE
  6
CONTINUOUS
 62
    30
 10
456.302187
 20
-421.0
 30
0.0
 11
456.302187
 21
-433.0
 31
0.0
  0
CIRCLE
  8
SIZE
  6
CONTINUOUS
 62
    30
 10
456.302187
 20
-371.0
 30
0.0
 40
6.0
  0
LINE
  8
SIZE
  6
CONTINUOUS
 62
    30
 10
456.302187
 20
-371.0
 30
0.0
 11
456.302187
 21
-359.0
 31
0.0
  0
POINT
  8
DEFPOINTS
  6
CONTINUOUS
 62
    30
 10
251.5
 20
-421.0
 30
0.0
  0
POINT
  8
DEFPOINTS
  6
CONTINUOUS
 62
    30
 10
255.0
 20
-371.0
 30
0.0
  0
POINT
  8
DEFPOINTS
  6
CONTINUOUS
 62
    30
 10
456.302187
 20
-371.0
 30
0.0
  0
LINE
  8
SIZE
  6
CONTINUOUS
 62
    30
 10
295.0
 20
-371.0
 30
0.0
 11
599.124602
 21
-371.0
 31
0.0
  0
LINE
  8
SIZE
  6
CONTINUOUS
 62
    30
 10
290.5
 20
-285.0
 30
0.0
 11
599.124602
 21
-285.0
 31
0.0
  0
LINE
  8
SIZE
  6
CONTINUOUS
 62
    30
 10
579.124602
 20
-359.0
 30
0.0
 11
579.124602
 21
-297.0
 31
0.0
  0
LINE
  8
SIZE
  6
CONTINUOUS
 62
    30
 10
579.124602
 20
-550.910551
 30
0.0
 11
579.124602
 21
-371.0
 31
0.0
  0
TEXT
  8
SIZE
  6
CONTINUOUS
 62
    30
 10
554.124602
 20
-534.221408
 30
0.0
 40
64.0
  1
86
 50
90.0
 41
0.9
 51
0.0
  7
STANDARD
 71
     0
 72
     1
 11
554.124602
 21
-480.653408
 31
0.0
210
0.0
220
0.0
230
1.0
  0
CIRCLE
  8
SIZE
  6
CONTINUOUS
 62
    30
 10
579.124602
 20
-371.0
 30
0.0
 40
6.0
  0
LINE
  8
SIZE
  6
CONTINUOUS
 62
    30
 10
579.124602
 20
-371.0
 30
0.0
 11
579.124602
 21
-359.0
 31
0.0
  0
CIRCLE
  8
SIZE
  6
CONTINUOUS
 62
    30
 10
579.124602
 20
-285.0
 30
0.0
 40
6.0
  0
LINE
  8
SIZE
  6
CONTINUOUS
 62
    30
 10
579.124602
 20
-285.0
 30
0.0
 11
579.124602
 21
-297.0
 31
0.0
  0
POINT
  8
DEFPOINTS
  6
CONTINUOUS
 62
    30
 10
275.0
 20
-371.0
 30
0.0
  0
POINT
  8
DEFPOINTS
  6
CONTINUOUS
 62
    30
 10
270.5
 20
-285.0
 30
0.0
  0
POINT
  8
DEFPOINTS
  6
CONTINUOUS
 62
    30
 10
579.124602
 20
-285.0
 30
0.0
  0
TEXT
  8
NOTE
  6
CONTINUOUS
 62
     4
 10
161.206284
 20
-533.731597
 30
0.0
 40
64.0
  1
SA
 50
0.0
 41
0.9
 51
0.0
  7
STANDARD
 71
     0
 11
0.0
 21
0.0
 31
0.0
210
0.0
220
0.0
230
1.0
  0
TEXT
  8
NOTE
  6
CONTINUOUS
 62
     4
 10
-244.102358
 20
-530.048469
 30
0.0
 40
64.0
  1
RA
 50
0.0
 41
0.9
 51
0.0
  7
STANDARD
 71
     0
 11
0.0
 21
0.0
 31
0.0
210
0.0
220
0.0
230
1.0
  0
TEXT
  8
NOTE
  6
CONTINUOUS
 62
     4
 10
-251.471609
 20
445.981236
 30
0.0
 40
64.0
  1
OA
 50
0.0
 41
0.9
 51
0.0
  7
STANDARD
 71
     0
 11
0.0
 21
0.0
 31
0.0
210
0.0
220
0.0
230
1.0
  0
TEXT
  8
NOTE
  6
CONTINUOUS
 62
     4
 10
161.206284
 20
445.981236
 30
0.0
 40
64.0
  1
EA
 50
0.0
 41
0.9
 51
0.0
  7
STANDARD
 71
     0
 11
0.0
 21
0.0
 31
0.0
210
0.0
220
0.0
230
1.0
  0
LINE
  8
SIZE
  6
CONTINUOUS
 62
    30
 10
-285.0
 20
353.0
 30
0.0
 11
-285.0
 21
714.137787
 31
0.0
  0
LINE
  8
SIZE
  6
CONTINUOUS
 62
    30
 10
285.0
 20
353.0
 30
0.0
 11
285.0
 21
714.137787
 31
0.0
  0
LINE
  8
SIZE
  6
CONTINUOUS
 62
    30
 10
-273.0
 20
694.137787
 30
0.0
 11
273.0
 21
694.137787
 31
0.0
  0
CIRCLE
  8
SIZE
  6
CONTINUOUS
 62
    30
 10
-285.0
 20
694.137787
 30
0.0
 40
6.0
  0
LINE
  8
SIZE
  6
CONTINUOUS
 62
    30
 10
-285.0
 20
694.137787
 30
0.0
 11
-273.0
 21
694.137787
 31
0.0
  0
CIRCLE
  8
SIZE
  6
CONTINUOUS
 62
    30
 10
285.0
 20
694.137787
 30
0.0
 40
6.0
  0
LINE
  8
SIZE
  6
CONTINUOUS
 62
    30
 10
285.0
 20
694.137787
 30
0.0
 11
273.0
 21
694.137787
 31
0.0
  0
TEXT
  8
SIZE
  6
CONTINUOUS
 62
    30
 10
-80.928
 20
719.137787
 30
0.0
 40
64.0
  1
570
 50
0.0
 41
0.9
 51
0.0
  7
STANDARD
 71
     0
 72
     1
 11
0.0
 21
719.137787
 31
0.0
210
0.0
220
0.0
230
1.0
  0
POINT
  8
DEFPOINTS
  6
CONTINUOUS
 62
    30
 10
-285.0
 20
333.0
 30
0.0
  0
POINT
  8
DEFPOINTS
  6
CONTINUOUS
 62
    30
 10
285.0
 20
333.0
 30
0.0
  0
POINT
  8
DEFPOINTS
  6
CONTINUOUS
 62
    30
 10
285.0
 20
694.137787
 30
0.0
  0
LINE
  8
SIZE
  6
CONTINUOUS
 62
    30
 10
-251.5
 20
-441.0
 30
0.0
 11
-251.5
 21
-673.888148
 31
0.0
  0
LINE
  8
SIZE
  6
CONTINUOUS
 62
    30
 10
-153.5
 20
-441.0
 30
0.0
 11
-153.5
 21
-673.888148
 31
0.0
  0
LINE
  8
SIZE
  6
CONTINUOUS
 62
    30
 10
-239.5
 20
-653.888148
 30
0.0
 11
-165.5
 21
-653.888148
 31
0.0
  0
LINE
  8
SIZE
  6
CONTINUOUS
 62
    30
 10
61.989781
 20
-653.888148
 30
0.0
 11
-153.5
 21
-653.888148
 31
0.0
  0
TEXT
  8
SIZE
  6
CONTINUOUS
 62
    30
 10
-123.823933
 20
-628.888148
 30
0.0
 40
64.0
  1
φ98
 50
0.0
 41
0.9
 51
0.0
  7
STANDARD
 71
     0
 72
     1
 11
-35.695933
 21
-628.888148
 31
0.0
210
0.0
220
0.0
230
1.0
  0
CIRCLE
  8
SIZE
  6
CONTINUOUS
 62
    30
 10
-251.5
 20
-653.888148
 30
0.0
 40
6.0
  0
LINE
  8
SIZE
  6
CONTINUOUS
 62
    30
 10
-251.5
 20
-653.888148
 30
0.0
 11
-239.5
 21
-653.888148
 31
0.0
  0
CIRCLE
  8
SIZE
  6
CONTINUOUS
 62
    30
 10
-153.5
 20
-653.888148
 30
0.0
 40
6.0
  0
LINE
  8
SIZE
  6
CONTINUOUS
 62
    30
 10
-153.5
 20
-653.888148
 30
0.0
 11
-165.5
 21
-653.888148
 31
0.0
  0
POINT
  8
DEFPOINTS
  6
CONTINUOUS
 62
    30
 10
-251.5
 20
-421.0
 30
0.0
  0
POINT
  8
DEFPOINTS
  6
CONTINUOUS
 62
    30
 10
-153.5
 20
-421.0
 30
0.0
  0
POINT
  8
DEFPOINTS
  6
CONTINUOUS
 62
    30
 10
-153.5
 20
-653.888148
 30
0.0
  0
LINE
  8
SIZE
  6
CONTINUOUS
 62
    30
 10
-267.0
 20
-391.0
 30
0.0
 11
-267.0
 21
-817.530256
 31
0.0
  0
LINE
  8
SIZE
  6
CONTINUOUS
 62
    30
 10
-138.0
 20
-391.0
 30
0.0
 11
-138.0
 21
-817.530256
 31
0.0
  0
LINE
  8
SIZE
  6
CONTINUOUS
 62
    30
 10
-255.0
 20
-797.530256
 30
0.0
 11
-150.0
 21
-797.530256
 31
0.0
  0
LINE
  8
SIZE
  6
CONTINUOUS
 62
    30
 10
118.037735
 20
-797.530256
 30
0.0
 11
-138.0
 21
-797.530256
 31
0.0
  0
TEXT
  8
SIZE
  6
CONTINUOUS
 62
    30
 10
-109.371408
 20
-772.530256
 30
0.0
 40
64.0
  1
φ129
 50
0.0
 41
0.9
 51
0.0
  7
STANDARD
 71
     0
 72
     1
 11
-0.219408
 21
-772.530256
 31
0.0
210
0.0
220
0.0
230
1.0
  0
CIRCLE
  8
SIZE
  6
CONTINUOUS
 62
    30
 10
-267.0
 20
-797.530256
 30
0.0
 40
6.0
  0
LINE
  8
SIZE
  6
CONTINUOUS
 62
    30
 10
-267.0
 20
-797.530256
 30
0.0
 11
-255.0
 21
-797.530256
 31
0.0
  0
CIRCLE
  8
SIZE
  6
CONTINUOUS
 62
    30
 10
-138.0
 20
-797.530256
 30
0.0
 40
6.0
  0
LINE
  8
SIZE
  6
CONTINUOUS
 62
    30
 10
-138.0
 20
-797.530256
 30
0.0
 11
-150.0
 21
-797.530256
 31
0.0
  0
POINT
  8
DEFPOINTS
  6
CONTINUOUS
 62
    30
 10
-267.0
 20
-371.0
 30
0.0
  0
POINT
  8
DEFPOINTS
  6
CONTINUOUS
 62
    30
 10
-138.0
 20
-371.0
 30
0.0
  0
POINT
  8
DEFPOINTS
  6
CONTINUOUS
 62
    30
 10
-138.0
 20
-797.530256
 30
0.0
  0
ARC
  8
DETAIL
  6
CONTINUOUS
 62
     5
 39
50.0
 10
309.0
 20
309.0
 30
0.0
 40
8.0
 50
180.0
 51
0.0
  0
ARC
  8
DETAIL
  6
CONTINUOUS
 62
     5
 39
50.0
 10
309.0
 20
231.0
 30
0.0
 40
8.0
 50
0.0
 51
180.0
  0
LINE
  8
DETAIL
  6
DASHDOT
 62
     5
 10
301.0
 20
341.0
 30
0.0
 11
301.0
 21
309.0
 31
0.0
  0
LINE
  8
DETAIL
  6
DASHDOT
 62
     5
 10
317.0
 20
341.0
 30
0.0
 11
317.0
 21
309.0
 31
0.0
  0
LINE
  8
DETAIL
  6
CONTINUOUS
 62
     5
 10
333.0
 20
341.0
 30
0.0
 11
333.0
 21
199.0
 31
0.0
  0
LINE
  8
DETAIL
  6
DASHDOT
 62
     5
 10
293.0
 20
341.0
 30
0.0
 11
301.0
 21
341.0
 31
0.0
  0
LINE
  8
DETAIL
  6
DASHDOT
 62
     5
 10
317.0
 20
341.0
 30
0.0
 11
333.0
 21
341.0
 31
0.0
  0
LINE
  8
DETAIL
  6
CONTINUOUS
 62
     5
 10
293.0
 20
199.0
 30
0.0
 11
301.0
 21
199.0
 31
0.0
  0
LINE
  8
DETAIL
  6
DASHDOT
 62
     5
 10
301.0
 20
231.0
 30
0.0
 11
301.0
 21
199.0
 31
0.0
  0
LINE
  8
DETAIL
  6
DASHDOT
 62
     5
 10
317.0
 20
231.0
 30
0.0
 11
317.0
 21
199.0
 31
0.0
  0
LINE
  8
DETAIL
  6
CONTINUOUS
 62
     5
 10
317.0
 20
199.0
 30
0.0
 11
333.0
 21
199.0
 31
0.0
  0
LINE
  8
DETAIL
  6
DASHDOT
 62
     5
 10
285.0
 20
333.0
 30
0.0
 11
293.0
 21
333.0
 31
0.0
  0
LINE
  8
DETAIL
  6
CONTINUOUS
 62
     5
 10
285.0
 20
207.0
 30
0.0
 11
293.0
 21
207.0
 31
0.0
  0
LINE
  8
DETAIL
  6
DASHDOT
 62
     5
 10
293.0
 20
341.0
 30
0.0
 11
293.0
 21
333.0
 31
0.0
  0
LINE
  8
DETAIL
  6
DASHDOT
 62
     5
 10
293.0
 20
207.0
 30
0.0
 11
293.0
 21
199.0
 31
0.0
  0
ARC
  8
DETAIL
  6
CONTINUOUS
 62
     5
 39
50.0
 10
309.0
 20
-231.0
 30
0.0
 40
8.0
 50
180.0
 51
0.0
  0
ARC
  8
DETAIL
  6
CONTINUOUS
 62
     5
 39
50.0
 10
309.0
 20
-309.0
 30
0.0
 40
8.0
 50
0.0
 51
180.0
  0
LINE
  8
DETAIL
  6
CONTINUOUS
 62
     5
 10
333.0
 20
-341.0
 30
0.0
 11
333.0
 21
-199.0
 31
0.0
  0
LINE
  8
DETAIL
  6
DASHDOT
 62
     5
 10
317.0
 20
-341.0
 30
0.0
 11
317.0
 21
-309.0
 31
0.0
  0
LINE
  8
DETAIL
  6
DASHDOT
 62
     5
 10
301.0
 20
-341.0
 30
0.0
 11
301.0
 21
-309.0
 31
0.0
  0
LINE
  8
DETAIL
  6
DASHDOT
 62
     5
 10
293.0
 20
-207.0
 30
0.0
 11
293.0
 21
-199.0
 31
0.0
  0
LINE
  8
DETAIL
  6
CONTINUOUS
 62
     5
 10
285.0
 20
-207.0
 30
0.0
 11
293.0
 21
-207.0
 31
0.0
  0
LINE
  8
DETAIL
  6
CONTINUOUS
 62
     5
 10
293.0
 20
-199.0
 30
0.0
 11
301.0
 21
-199.0
 31
0.0
  0
LINE
  8
DETAIL
  6
DASHDOT
 62
     5
 10
301.0
 20
-231.0
 30
0.0
 11
301.0
 21
-199.0
 31
0.0
  0
LINE
  8
DETAIL
  6
CONTINUOUS
 62
     5
 10
317.0
 20
-199.0
 30
0.0
 11
333.0
 21
-199.0
 31
0.0
  0
LINE
  8
DETAIL
  6
DASHDOT
 62
     5
 10
317.0
 20
-231.0
 30
0.0
 11
317.0
 21
-199.0
 31
0.0
  0
LINE
  8
DETAIL
  6
DASHDOT
 62
     5
 10
293.0
 20
-341.0
 30
0.0
 11
293.0
 21
-333.0
 31
0.0
  0
LINE
  8
DETAIL
  6
DASHDOT
 62
     5
 10
285.0
 20
-333.0
 30
0.0
 11
293.0
 21
-333.0
 31
0.0
  0
LINE
  8
DETAIL
  6
DASHDOT
 62
     5
 10
293.0
 20
-341.0
 30
0.0
 11
301.0
 21
-341.0
 31
0.0
  0
LINE
  8
DETAIL
  6
DASHDOT
 62
     5
 10
317.0
 20
-341.0
 30
0.0
 11
333.0
 21
-341.0
 31
0.0
  0
ARC
  8
DETAIL
  6
CONTINUOUS
 62
     5
 39
50.0
 10
-309.0
 20
-309.0
 30
0.0
 40
8.0
 50
0.0
 51
180.0
  0
ARC
  8
DETAIL
  6
CONTINUOUS
 62
     5
 39
50.0
 10
-309.0
 20
-231.0
 30
0.0
 40
8.0
 50
180.0
 51
0.0
  0
LINE
  8
DETAIL
  6
DASHDOT
 62
     5
 10
-301.0
 20
-341.0
 30
0.0
 11
-301.0
 21
-309.0
 31
0.0
  0
LINE
  8
DETAIL
  6
DASHDOT
 62
     5
 10
-317.0
 20
-341.0
 30
0.0
 11
-317.0
 21
-309.0
 31
0.0
  0
LINE
  8
DETAIL
  6
CONTINUOUS
 62
     5
 10
-333.0
 20
-341.0
 30
0.0
 11
-333.0
 21
-199.0
 31
0.0
  0
LINE
  8
DETAIL
  6
DASHDOT
 62
     5
 10
-293.0
 20
-341.0
 30
0.0
 11
-301.0
 21
-341.0
 31
0.0
  0
LINE
  8
DETAIL
  6
DASHDOT
 62
     5
 10
-285.0
 20
-333.0
 30
0.0
 11
-293.0
 21
-333.0
 31
0.0
  0
LINE
  8
DETAIL
  6
DASHDOT
 62
     5
 10
-293.0
 20
-341.0
 30
0.0
 11
-293.0
 21
-333.0
 31
0.0
  0
LINE
  8
DETAIL
  6
DASHDOT
 62
     5
 10
-317.0
 20
-341.0
 30
0.0
 11
-333.0
 21
-341.0
 31
0.0
  0
LINE
  8
DETAIL
  6
DASHDOT
 62
     5
 10
-301.0
 20
-231.0
 30
0.0
 11
-301.0
 21
-199.0
 31
0.0
  0
LINE
  8
DETAIL
  6
CONTINUOUS
 62
     5
 10
-293.0
 20
-199.0
 30
0.0
 11
-301.0
 21
-199.0
 31
0.0
  0
LINE
  8
DETAIL
  6
CONTINUOUS
 62
     5
 10
-285.0
 20
-207.0
 30
0.0
 11
-293.0
 21
-207.0
 31
0.0
  0
LINE
  8
DETAIL
  6
DASHDOT
 62
     5
 10
-293.0
 20
-207.0
 30
0.0
 11
-293.0
 21
-199.0
 31
0.0
  0
LINE
  8
DETAIL
  6
DASHDOT
 62
     5
 10
-317.0
 20
-231.0
 30
0.0
 11
-317.0
 21
-199.0
 31
0.0
  0
LINE
  8
DETAIL
  6
CONTINUOUS
 62
     5
 10
-317.0
 20
-199.0
 30
0.0
 11
-333.0
 21
-199.0
 31
0.0
  0
ARC
  8
DETAIL
  6
CONTINUOUS
 62
     5
 39
50.0
 10
-309.0
 20
231.0
 30
0.0
 40
8.0
 50
0.0
 51
180.0
  0
ARC
  8
DETAIL
  6
CONTINUOUS
 62
     5
 39
50.0
 10
-309.0
 20
309.0
 30
0.0
 40
8.0
 50
180.0
 51
0.0
  0
LINE
  8
DETAIL
  6
CONTINUOUS
 62
     5
 10
-333.0
 20
341.0
 30
0.0
 11
-333.0
 21
199.0
 31
0.0
  0
LINE
  8
DETAIL
  6
DASHDOT
 62
     5
 10
-317.0
 20
341.0
 30
0.0
 11
-317.0
 21
309.0
 31
0.0
  0
LINE
  8
DETAIL
  6
DASHDOT
 62
     5
 10
-301.0
 20
341.0
 30
0.0
 11
-301.0
 21
309.0
 31
0.0
  0
LINE
  8
DETAIL
  6
DASHDOT
 62
     5
 10
-317.0
 20
341.0
 30
0.0
 11
-333.0
 21
341.0
 31
0.0
  0
LINE
  8
DETAIL
  6
DASHDOT
 62
     5
 10
-293.0
 20
341.0
 30
0.0
 11
-293.0
 21
333.0
 31
0.0
  0
LINE
  8
DETAIL
  6
DASHDOT
 62
     5
 10
-285.0
 20
333.0
 30
0.0
 11
-293.0
 21
333.0
 31
0.0
  0
LINE
  8
DETAIL
  6
DASHDOT
 62
     5
 10
-293.0
 20
341.0
 30
0.0
 11
-301.0
 21
341.0
 31
0.0
  0
LINE
  8
DETAIL
  6
CONTINUOUS
 62
     5
 10
-317.0
 20
199.0
 30
0.0
 11
-333.0
 21
199.0
 31
0.0
  0
LINE
  8
DETAIL
  6
DASHDOT
 62
     5
 10
-317.0
 20
231.0
 30
0.0
 11
-317.0
 21
199.0
 31
0.0
  0
LINE
  8
DETAIL
  6
DASHDOT
 62
     5
 10
-293.0
 20
207.0
 30
0.0
 11
-293.0
 21
199.0
 31
0.0
  0
LINE
  8
DETAIL
  6
CONTINUOUS
 62
     5
 10
-285.0
 20
207.0
 30
0.0
 11
-293.0
 21
207.0
 31
0.0
  0
LINE
  8
DETAIL
  6
CONTINUOUS
 62
     5
 10
-293.0
 20
199.0
 30
0.0
 11
-301.0
 21
199.0
 31
0.0
  0
LINE
  8
DETAIL
  6
DASHDOT
 62
     5
 10
-301.0
 20
231.0
 30
0.0
 11
-301.0
 21
199.0
 31
0.0
  0
LINE
  8
SIZE
  6
CONTINUOUS
 62
    30
 10
-309.0
 20
349.0
 30
0.0
 11
-309.0
 21
838.578072
 31
0.0
  0
LINE
  8
SIZE
  6
CONTINUOUS
 62
    30
 10
309.0
 20
349.0
 30
0.0
 11
309.0
 21
838.578072
 31
0.0
  0
LINE
  8
SIZE
  6
CONTINUOUS
 62
    30
 10
-297.0
 20
818.578072
 30
0.0
 11
297.0
 21
818.578072
 31
0.0
  0
CIRCLE
  8
SIZE
  6
CONTINUOUS
 62
    30
 10
-309.0
 20
818.578072
 30
0.0
 40
6.0
  0
LINE
  8
SIZE
  6
CONTINUOUS
 62
    30
 10
-309.0
 20
818.578072
 30
0.0
 11
-297.0
 21
818.578072
 31
0.0
  0
CIRCLE
  8
SIZE
  6
CONTINUOUS
 62
    30
 10
309.0
 20
818.578072
 30
0.0
 40
6.0
  0
LINE
  8
SIZE
  6
CONTINUOUS
 62
    30
 10
309.0
 20
818.578072
 30
0.0
 11
297.0
 21
818.578072
 31
0.0
  0
TEXT
  8
SIZE
  6
CONTINUOUS
 62
    30
 10
-74.592
 20
843.578072
 30
0.0
 40
64.0
  1
618
 50
0.0
 41
0.9
 51
0.0
  7
STANDARD
 71
     0
 72
     1
 11
0.0
 21
843.578072
 31
0.0
210
0.0
220
0.0
230
1.0
  0
POINT
  8
DEFPOINTS
  6
CONTINUOUS
 62
    30
 10
-309.0
 20
329.0
 30
0.0
  0
POINT
  8
DEFPOINTS
  6
CONTINUOUS
 62
    30
 10
309.0
 20
329.0
 30
0.0
  0
POINT
  8
DEFPOINTS
  6
CONTINUOUS
 62
    30
 10
309.0
 20
818.578072
 30
0.0
  0
LINE
  8
SERVICESPACE
  6
DASHDOT
 62
     2
 10
-300.0
 20
300.0
 30
0.0
 11
300.0
 21
300.0
 31
0.0
  0
LINE
  8
SERVICESPACE
  6
DASHDOT
 62
     2
 10
-300.0
 20
-300.0
 30
0.0
 11
300.0
 21
-300.0
 31
0.0
  0
LINE
  8
SERVICESPACE
  6
DASHDOT
 62
     2
 10
300.0
 20
-300.0
 30
0.0
 11
300.0
 21
300.0
 31
0.0
  0
LINE
  8
SERVICESPACE
  6
DASHDOT
 62
     2
 10
-300.0
 20
-300.0
 30
0.0
 11
-300.0
 21
300.0
 31
0.0
  0
LINE
  8
SERVICESPACE
  6
DASHDOT
 62
     2
 39
50.0
 10
-300.0
 20
300.0
 30
0.0
 11
300.0
 21
-300.0
 31
0.0
  0
LINE
  8
SERVICESPACE
  6
DASHDOT
 62
     2
 39
50.0
 10
300.0
 20
300.0
 30
0.0
 11
-300.0
 21
-300.0
 31
0.0
  0
LINE
  8
OUTLINE
  6
CONTINUOUS
 62
     3
 39
50.0
 10
-285.0
 20
285.0
 30
0.0
 11
285.0
 21
285.0
 31
0.0
  0
LINE
  8
OUTLINE
  6
CONTINUOUS
 62
     3
 39
50.0
 10
285.0
 20
285.0
 30
0.0
 11
285.0
 21
-285.0
 31
0.0
  0
LINE
  8
OUTLINE
  6
CONTINUOUS
 62
     3
 39
50.0
 10
285.0
 20
-285.0
 30
0.0
 11
-285.0
 21
-285.0
 31
0.0
  0
LINE
  8
OUTLINE
  6
CONTINUOUS
 62
     3
 39
50.0
 10
-285.0
 20
-285.0
 30
0.0
 11
-285.0
 21
285.0
 31
0.0
  0
LINE
  8
SIZE
  6
CONTINUOUS
 62
    30
 10
-320.0
 20
300.0
 30
0.0
 11
-472.559832
 21
300.0
 31
0.0
  0
LINE
  8
SIZE
  6
CONTINUOUS
 62
    30
 10
-320.0
 20
-300.0
 30
0.0
 11
-472.559832
 21
-300.0
 31
0.0
  0
LINE
  8
SIZE
  6
CONTINUOUS
 62
    30
 10
-452.559832
 20
288.0
 30
0.0
 11
-452.559832
 21
-288.0
 31
0.0
  0
CIRCLE
  8
SIZE
  6
CONTINUOUS
 62
    30
 10
-452.559832
 20
300.0
 30
0.0
 40
6.0
  0
LINE
  8
SIZE
  6
CONTINUOUS
 62
    30
 10
-452.559832
 20
300.0
 30
0.0
 11
-452.559832
 21
288.0
 31
0.0
  0
CIRCLE
  8
SIZE
  6
CONTINUOUS
 62
    30
 10
-452.559832
 20
-300.0
 30
0.0
 40
6.0
  0
LINE
  8
SIZE
  6
CONTINUOUS
 62
    30
 10
-452.559832
 20
-300.0
 30
0.0
 11
-452.559832
 21
-288.0
 31
0.0
  0
TEXT
  8
SIZE
  6
CONTINUOUS
 62
    30
 10
-477.559832
 20
-116.064
 30
0.0
 40
64.0
  1
□600
 50
90.0
 41
0.9
 51
0.0
  7
STANDARD
 71
     0
 72
     1
 11
-477.559832
 21
0.0
 31
0.0
210
0.0
220
0.0
230
1.0
  0
POINT
  8
DEFPOINTS
  6
CONTINUOUS
 62
    30
 10
-300.0
 20
300.0
 30
0.0
  0
POINT
  8
DEFPOINTS
  6
CONTINUOUS
 62
    30
 10
-300.0
 20
-300.0
 30
0.0
  0
POINT
  8
DEFPOINTS
  6
CONTINUOUS
 62
    30
 10
-452.559832
 20
-300.0
 30
0.0
  0
LINE
  8
NOTE
  6
CONTINUOUS
 62
     4
 10
-309.0
 20
211.0
 30
0.0
 11
-309.0
 21
251.0
 31
0.0
  0
LINE
  8
NOTE
  6
CONTINUOUS
 62
     4
 10
-329.0
 20
231.0
 30
0.0
 11
-289.0
 21
231.0
 31
0.0
  0
LINE
  8
NOTE
  6
CONTINUOUS
 62
     4
 10
-309.0
 20
289.0
 30
0.0
 11
-309.0
 21
329.0
 31
0.0
  0
LINE
  8
NOTE
  6
CONTINUOUS
 62
     4
 10
-329.0
 20
309.0
 30
0.0
 11
-289.0
 21
309.0
 31
0.0
  0
CIRCLE
  8
FIX
  6
CONTINUOUS
 62
    11
 39
50.0
 10
-309.0
 20
309.0
 30
0.0
 40
8.0
  0
CIRCLE
  8
FIX
  6
CONTINUOUS
 62
    11
 39
50.0
 10
-309.0
 20
231.0
 30
0.0
 40
8.0
  0
LINE
  8
NOTE
  6
CONTINUOUS
 62
     4
 10
-309.0
 20
329.0
 30
0.0
 11
-309.0
 21
289.0
 31
0.0
  0
LINE
  8
NOTE
  6
CONTINUOUS
 62
     4
 10
-329.0
 20
309.0
 30
0.0
 11
-289.0
 21
309.0
 31
0.0
  0
CIRCLE
  8
FIX
  6
CONTINUOUS
 62
    11
 39
50.0
 10
-309.0
 20
309.0
 30
0.0
 40
8.0
  0
LINE
  8
NOTE
  6
CONTINUOUS
 62
     4
 10
-309.0
 20
251.0
 30
0.0
 11
-309.0
 21
211.0
 31
0.0
  0
LINE
  8
NOTE
  6
CONTINUOUS
 62
     4
 10
-329.0
 20
231.0
 30
0.0
 11
-289.0
 21
231.0
 31
0.0
  0
CIRCLE
  8
FIX
  6
CONTINUOUS
 62
    11
 39
50.0
 10
-309.0
 20
231.0
 30
0.0
 40
8.0
  0
CIRCLE
  8
FIX
  6
CONTINUOUS
 62
    11
 39
50.0
 10
309.0
 20
309.0
 30
0.0
 40
8.0
  0
LINE
  8
NOTE
  6
CONTINUOUS
 62
     4
 10
309.0
 20
329.0
 30
0.0
 11
309.0
 21
289.0
 31
0.0
  0
LINE
  8
NOTE
  6
CONTINUOUS
 62
     4
 10
329.0
 20
309.0
 30
0.0
 11
289.0
 21
309.0
 31
0.0
  0
LINE
  8
NOTE
  6
CONTINUOUS
 62
     4
 10
309.0
 20
251.0
 30
0.0
 11
309.0
 21
211.0
 31
0.0
  0
LINE
  8
NOTE
  6
CONTINUOUS
 62
     4
 10
329.0
 20
231.0
 30
0.0
 11
289.0
 21
231.0
 31
0.0
  0
CIRCLE
  8
FIX
  6
CONTINUOUS
 62
    11
 39
50.0
 10
309.0
 20
231.0
 30
0.0
 40
8.0
  0
CIRCLE
  8
FIX
  6
CONTINUOUS
 62
    11
 39
50.0
 10
-309.0
 20
-309.0
 30
0.0
 40
8.0
  0
LINE
  8
NOTE
  6
CONTINUOUS
 62
     4
 10
-309.0
 20
-329.0
 30
0.0
 11
-309.0
 21
-289.0
 31
0.0
  0
LINE
  8
NOTE
  6
CONTINUOUS
 62
     4
 10
-329.0
 20
-309.0
 30
0.0
 11
-289.0
 21
-309.0
 31
0.0
  0
LINE
  8
NOTE
  6
CONTINUOUS
 62
     4
 10
-309.0
 20
-251.0
 30
0.0
 11
-309.0
 21
-211.0
 31
0.0
  0
LINE
  8
NOTE
  6
CONTINUOUS
 62
     4
 10
-329.0
 20
-231.0
 30
0.0
 11
-289.0
 21
-231.0
 31
0.0
  0
CIRCLE
  8
FIX
  6
CONTINUOUS
 62
    11
 39
50.0
 10
-309.0
 20
-231.0
 30
0.0
 40
8.0
  0
LINE
  8
NOTE
  6
CONTINUOUS
 62
     4
 10
309.0
 20
-329.0
 30
0.0
 11
309.0
 21
-289.0
 31
0.0
  0
LINE
  8
NOTE
  6
CONTINUOUS
 62
     4
 10
329.0
 20
-309.0
 30
0.0
 11
289.0
 21
-309.0
 31
0.0
  0
CIRCLE
  8
FIX
  6
CONTINUOUS
 62
    11
 39
50.0
 10
309.0
 20
-309.0
 30
0.0
 40
8.0
  0
CIRCLE
  8
FIX
  6
CONTINUOUS
 62
    11
 39
50.0
 10
309.0
 20
-231.0
 30
0.0
 40
8.0
  0
LINE
  8
NOTE
  6
CONTINUOUS
 62
     4
 10
309.0
 20
-251.0
 30
0.0
 11
309.0
 21
-211.0
 31
0.0
  0
LINE
  8
NOTE
  6
CONTINUOUS
 62
     4
 10
329.0
 20
-231.0
 30
0.0
 11
289.0
 21
-231.0
 31
0.0
  0
LINE
  8
BASIS
  6
DASHDOT
 62
     6
 10
-202.5
 20
250.0
 30
0.0
 11
-202.5
 21
450.0
 31
0.0
  0
LINE
  8
BASIS
  6
DASHDOT
 62
     6
 10
202.5
 20
250.0
 30
0.0
 11
202.5
 21
450.0
 31
0.0
  0
LINE
  8
SIZE
  6
CONTINUOUS
 62
    30
 10
-202.5
 20
470.0
 30
0.0
 11
-202.5
 21
588.363375
 31
0.0
  0
LINE
  8
SIZE
  6
CONTINUOUS
 62
    30
 10
202.5
 20
465.981236
 30
0.0
 11
202.5
 21
588.363375
 31
0.0
  0
LINE
  8
SIZE
  6
CONTINUOUS
 62
    30
 10
-190.5
 20
568.363375
 30
0.0
 11
190.5
 21
568.363375
 31
0.0
  0
CIRCLE
  8
SIZE
  6
CONTINUOUS
 62
    30
 10
-202.5
 20
568.363375
 30
0.0
 40
6.0
  0
LINE
  8
SIZE
  6
CONTINUOUS
 62
    30
 10
-202.5
 20
568.363375
 30
0.0
 11
-190.5
 21
568.363375
 31
0.0
  0
CIRCLE
  8
SIZE
  6
CONTINUOUS
 62
    30
 10
202.5
 20
568.363375
 30
0.0
 40
6.0
  0
LINE
  8
SIZE
  6
CONTINUOUS
 62
    30
 10
202.5
 20
568.363375
 30
0.0
 11
190.5
 21
568.363375
 31
0.0
  0
TEXT
  8
SIZE
  6
CONTINUOUS
 62
    30
 10
-81.504
 20
593.363375
 30
0.0
 40
64.0
  1
405
 50
0.0
 41
0.9
 51
0.0
  7
STANDARD
 71
     0
 72
     1
 11
0.0
 21
593.363375
 31
0.0
210
0.0
220
0.0
230
1.0
  0
POINT
  8
DEFPOINTS
  6
CONTINUOUS
 62
    30
 10
-202.5
 20
450.0
 30
0.0
  0
POINT
  8
DEFPOINTS
  6
CONTINUOUS
 62
    30
 10
202.5
 20
445.981236
 30
0.0
  0
POINT
  8
DEFPOINTS
  6
CONTINUOUS
 62
    30
 10
202.5
 20
568.363375
 30
0.0
  0
TEXT
  8
NOTE
  6
CONTINUOUS
 62
     4
 10
-372.990715
 20
-93.332765
 30
0.0
 40
64.0
  1
点検口
 50
90.0
 41
0.9
 51
0.0
  7
STANDARD
 71
     0
 11
0.0
 21
0.0
 31
0.0
210
0.0
220
0.0
230
1.0
  0
LINE
  8
SIZE
  6
CONTINUOUS
 62
    30
 10
305.0
 20
285.0
 30
0.0
 11
599.704398
 21
285.0
 31
0.0
  0
LINE
  8
SIZE
  6
CONTINUOUS
 62
    30
 10
305.0
 20
-285.0
 30
0.0
 11
599.704398
 21
-285.0
 31
0.0
  0
LINE
  8
SIZE
  6
CONTINUOUS
 62
    30
 10
579.704398
 20
273.0
 30
0.0
 11
579.704398
 21
-273.0
 31
0.0
  0
CIRCLE
  8
SIZE
  6
CONTINUOUS
 62
    30
 10
579.704398
 20
285.0
 30
0.0
 40
6.0
  0
LINE
  8
SIZE
  6
CONTINUOUS
 62
    30
 10
579.704398
 20
285.0
 30
0.0
 11
579.704398
 21
273.0
 31
0.0
  0
CIRCLE
  8
SIZE
  6
CONTINUOUS
 62
    30
 10
579.704398
 20
-285.0
 30
0.0
 40
6.0
  0
LINE
  8
SIZE
  6
CONTINUOUS
 62
    30
 10
579.704398
 20
-285.0
 30
0.0
 11
579.704398
 21
-273.0
 31
0.0
  0
TEXT
  8
SIZE
  6
CONTINUOUS
 62
    30
 10
554.704398
 20
-80.928
 30
0.0
 40
64.0
  1
570
 50
90.0
 41
0.9
 51
0.0
  7
STANDARD
 71
     0
 72
     1
 11
554.704398
 21
0.0
 31
0.0
210
0.0
220
0.0
230
1.0
  0
POINT
  8
DEFPOINTS
  6
CONTINUOUS
 62
    30
 10
285.0
 20
285.0
 30
0.0
  0
POINT
  8
DEFPOINTS
  6
CONTINUOUS
 62
    30
 10
285.0
 20
-285.0
 30
0.0
  0
POINT
  8
DEFPOINTS
  6
CONTINUOUS
 62
    30
 10
579.704398
 20
-285.0
 30
0.0
  0
LINE
  8
SIZE
  6
CONTINUOUS
 62
    30
 10
349.0
 20
309.0
 30
0.0
 11
734.10278
 21
309.0
 31
0.0
  0
LINE
  8
SIZE
  6
CONTINUOUS
 62
    30
 10
349.0
 20
-309.0
 30
0.0
 11
734.10278
 21
-309.0
 31
0.0
  0
LINE
  8
SIZE
  6
CONTINUOUS
 62
    30
 10
714.10278
 20
297.0
 30
0.0
 11
714.10278
 21
-297.0
 31
0.0
  0
CIRCLE
  8
SIZE
  6
CONTINUOUS
 62
    30
 10
714.10278
 20
309.0
 30
0.0
 40
6.0
  0
LINE
  8
SIZE
  6
CONTINUOUS
 62
    30
 10
714.10278
 20
309.0
 30
0.0
 11
714.10278
 21
297.0
 31
0.0
  0
CIRCLE
  8
SIZE
  6
CONTINUOUS
 62
    30
 10
714.10278
 20
-309.0
 30
0.0
 40
6.0
  0
LINE
  8
SIZE
  6
CONTINUOUS
 62
    30
 10
714.10278
 20
-309.0
 30
0.0
 11
714.10278
 21
-297.0
 31
0.0
  0
TEXT
  8
SIZE
  6
CONTINUOUS
 62
    30
 10
689.10278
 20
-74.592
 30
0.0
 40
64.0
  1
618
 50
90.0
 41
0.9
 51
0.0
  7
STANDARD
 71
     0
 72
     1
 11
689.10278
 21
0.0
 31
0.0
210
0.0
220
0.0
230
1.0
  0
POINT
  8
DEFPOINTS
  6
CONTINUOUS
 62
    30
 10
329.0
 20
309.0
 30
0.0
  0
POINT
  8
DEFPOINTS
  6
CONTINUOUS
 62
    30
 10
329.0
 20
-309.0
 30
0.0
  0
POINT
  8
DEFPOINTS
  6
CONTINUOUS
 62
    30
 10
714.10278
 20
-309.0
 30
0.0
  0
LINE
  8
NOTE
  6
CONTINUOUS
 62
     4
 10
328.794139
 20
343.759057
 30
0.0
 11
309.0
 21
309.0
 31
0.0
  0
LINE
  8
NOTE
  6
CONTINUOUS
 62
     4
 10
309.0
 20
309.0
 30
0.0
 11
343.521756
 21
329.205157
 31
0.0
  0
LINE
  8
NOTE
  6
CONTINUOUS
 62
     4
 39
50.0
 10
309.0
 20
309.0
 30
0.0
 11
527.663212
 21
560.036212
 31
0.0
  0
LINE
  8
SIZE
  6
CONTINUOUS
 62
     4
 39
50.0
 10
528.522719
 20
560.036212
 30
0.0
 11
813.394184
 21
560.036212
 31
0.0
  0
TEXT
  8
SIZE
  6
CONTINUOUS
 62
     4
 10
546.654147
 20
572.926828
 30
0.0
 40
64.0
  1
AH-8
 50
0.0
 41
0.9
 51
0.0
  7
STANDARD
 71
     0
 11
0.0
 21
0.0
 31
0.0
210
0.0
220
0.0
230
1.0
  0
LINE
  8
SIZE
  6
CONTINUOUS
 62
    30
 10
305.0
 20
285.0
 30
0.0
 11
599.944919
 21
285.0
 31
0.0
  0
LINE
  8
SIZE
  6
CONTINUOUS
 62
    30
 10
287.0
 20
371.0
 30
0.0
 11
599.944919
 21
371.0
 31
0.0
  0
LINE
  8
SIZE
  6
CONTINUOUS
 62
    30
 10
579.944919
 20
297.0
 30
0.0
 11
579.944919
 21
359.0
 31
0.0
  0
LINE
  8
SIZE
  6
CONTINUOUS
 62
    30
 10
579.944919
 20
535.589266
 30
0.0
 11
579.944919
 21
371.0
 31
0.0
  0
TEXT
  8
SIZE
  6
CONTINUOUS
 62
    30
 10
554.944919
 20
411.764123
 30
0.0
 40
64.0
  1
86
 50
90.0
 41
0.9
 51
0.0
  7
STANDARD
 71
     0
 72
     1
 11
554.944919
 21
465.332123
 31
0.0
210
0.0
220
0.0
230
1.0
  0
CIRCLE
  8
SIZE
  6
CONTINUOUS
 62
    30
 10
579.944919
 20
285.0
 30
0.0
 40
6.0
  0
LINE
  8
SIZE
  6
CONTINUOUS
 62
    30
 10
579.944919
 20
285.0
 30
0.0
 11
579.944919
 21
297.0
 31
0.0
  0
CIRCLE
  8
SIZE
  6
CONTINUOUS
 62
    30
 10
579.944919
 20
371.0
 30
0.0
 40
6.0
  0
LINE
  8
SIZE
  6
CONTINUOUS
 62
    30
 10
579.944919
 20
371.0
 30
0.0
 11
579.944919
 21
359.0
 31
0.0
  0
POINT
  8
DEFPOINTS
  6
CONTINUOUS
 62
    30
 10
285.0
 20
285.0
 30
0.0
  0
POINT
  8
DEFPOINTS
  6
CONTINUOUS
 62
    30
 10
267.0
 20
371.0
 30
0.0
  0
POINT
  8
DEFPOINTS
  6
CONTINUOUS
 62
    30
 10
579.944919
 20
371.0
 30
0.0
  0
LINE
  8
SIZE
  6
CONTINUOUS
 62
    30
 10
271.5
 20
421.0
 30
0.0
 11
476.747452
 21
421.0
 31
0.0
  0
LINE
  8
SIZE
  6
CONTINUOUS
 62
    30
 10
287.0
 20
371.0
 30
0.0
 11
476.747452
 21
371.0
 31
0.0
  0
LINE
  8
SIZE
  6
CONTINUOUS
 62
    30
 10
456.747452
 20
433.0
 30
0.0
 11
456.747452
 21
445.0
 31
0.0
  0
LINE
  8
SIZE
  6
CONTINUOUS
 62
    30
 10
456.747452
 20
359.0
 30
0.0
 11
456.747452
 21
347.0
 31
0.0
  0
LINE
  8
SIZE
  6
CONTINUOUS
 62
    30
 10
456.747452
 20
595.348573
 30
0.0
 11
456.747452
 21
421.0
 31
0.0
  0
TEXT
  8
SIZE
  6
CONTINUOUS
 62
    30
 10
431.747452
 20
469.576002
 30
0.0
 40
64.0
  1
50
 50
90.0
 41
0.9
 51
0.0
  7
STANDARD
 71
     0
 72
     1
 11
431.747452
 21
523.720002
 31
0.0
210
0.0
220
0.0
230
1.0
  0
LINE
  8
SIZE
  6
CONTINUOUS
 62
    30
 10
456.747452
 20
421.0
 30
0.0
 11
456.747452
 21
371.0
 31
0.0
  0
LINE
  8
SIZE
  6
CONTINUOUS
 62
    30
 10
456.747452
 20
421.0
 30
0.0
 11
456.747452
 21
371.0
 31
0.0
  0
CIRCLE
  8
SIZE
  6
CONTINUOUS
 62
    30
 10
456.747452
 20
421.0
 30
0.0
 40
6.0
  0
LINE
  8
SIZE
  6
CONTINUOUS
 62
    30
 10
456.747452
 20
421.0
 30
0.0
 11
456.747452
 21
433.0
 31
0.0
  0
CIRCLE
  8
SIZE
  6
CONTINUOUS
 62
    30
 10
456.747452
 20
371.0
 30
0.0
 40
6.0
  0
LINE
  8
SIZE
  6
CONTINUOUS
 62
    30
 10
456.747452
 20
371.0
 30
0.0
 11
456.747452
 21
359.0
 31
0.0
  0
POINT
  8
DEFPOINTS
  6
CONTINUOUS
 62
    30
 10
251.5
 20
421.0
 30
0.0
  0
POINT
  8
DEFPOINTS
  6
CONTINUOUS
 62
    30
 10
267.0
 20
371.0
 30
0.0
  0
POINT
  8
DEFPOINTS
  6
CONTINUOUS
 62
    30
 10
456.747452
 20
371.0
 30
0.0
  0
LINE
  8
DETAIL
  6
CONTINUOUS
 62
     5
 10
-20.0
 20
184.0
 30
0.0
 11
-20.0
 21
285.0
 31
0.0
  0
LINE
  8
DETAIL
  6
CONTINUOUS
 62
     5
 10
-80.0
 20
184.0
 30
0.0
 11
-80.0
 21
285.0
 31
0.0
  0
LINE
  8
DETAIL
  6
CONTINUOUS
 62
     5
 10
-71.0
 20
175.0
 30
0.0
 11
-29.0
 21
175.0
 31
0.0
  0
LINE
  8
DETAIL
  6
CONTINUOUS
 62
     5
 10
-71.0
 20
231.0
 30
0.0
 11
-59.0
 21
231.0
 31
0.0
  0
LINE
  8
DETAIL
  6
CONTINUOUS
 62
     5
 10
-41.0
 20
226.0
 30
0.0
 11
-41.0
 21
251.0
 31
0.0
  0
LINE
  8
DETAIL
  6
CONTINUOUS
 62
     5
 10
-59.0
 20
226.0
 30
0.0
 11
-59.0
 21
251.0
 31
0.0
  0
ARC
  8
DETAIL
  6
CONTINUOUS
 62
     5
 10
-71.0
 20
184.0
 30
0.0
 40
9.0
 50
180.0
 51
270.0
  0
ARC
  8
DETAIL
  6
CONTINUOUS
 62
     5
 10
-29.0
 20
184.0
 30
0.0
 40
9.0
 50
270.0
 51
0.0
  0
LINE
  8
DETAIL
  6
CONTINUOUS
 62
     5
 10
-59.0
 20
226.0
 30
0.0
 11
-41.0
 21
226.0
 31
0.0
  0
LINE
  8
DETAIL
  6
CONTINUOUS
 62
     5
 10
-59.0
 20
251.0
 30
0.0
 11
-41.0
 21
251.0
 31
0.0
  0
ARC
  8
DETAIL
  6
CONTINUOUS
 62
     5
 10
-29.0
 20
222.0
 30
0.0
 40
9.0
 50
0.0
 51
90.0
  0
ARC
  8
DETAIL
  6
CONTINUOUS
 62
     5
 10
-71.0
 20
222.0
 30
0.0
 40
9.0
 50
90.0
 51
180.0
  0
LINE
  8
DETAIL
  6
CONTINUOUS
 62
     5
 10
-41.0
 20
231.0
 30
0.0
 11
-29.0
 21
231.0
 31
0.0
  0
LINE
  8
SIZE
  6
CONTINUOUS
 62
    30
 10
-50.0
 20
291.0
 30
0.0
 11
-50.0
 21
483.060265
 31
0.0
  0
LINE
  8
SIZE
  6
CONTINUOUS
 62
    30
 10
0.0
 20
407.83086
 30
0.0
 11
0.0
 21
483.060265
 31
0.0
  0
LINE
  8
SIZE
  6
CONTINUOUS
 62
    30
 10
-62.0
 20
463.060265
 30
0.0
 11
-74.0
 21
463.060265
 31
0.0
  0
LINE
  8
SIZE
  6
CONTINUOUS
 62
    30
 10
12.0
 20
463.060265
 30
0.0
 11
24.0
 21
463.060265
 31
0.0
  0
LINE
  8
SIZE
  6
CONTINUOUS
 62
    30
 10
172.564098
 20
463.060265
 30
0.0
 11
0.0
 21
463.060265
 31
0.0
  0
TEXT
  8
SIZE
  6
CONTINUOUS
 62
    30
 10
46.791527
 20
488.060265
 30
0.0
 40
64.0
  1
50
 50
0.0
 41
0.9
 51
0.0
  7
STANDARD
 71
     0
 72
     1
 11
100.935527
 21
488.060265
 31
0.0
210
0.0
220
0.0
230
1.0
  0
LINE
  8
SIZE
  6
CONTINUOUS
 62
    30
 10
-50.0
 20
463.060265
 30
0.0
 11
0.0
 21
463.060265
 31
0.0
  0
LINE
  8
SIZE
  6
CONTINUOUS
 62
    30
 10
-50.0
 20
463.060265
 30
0.0
 11
0.0
 21
463.060265
 31
0.0
  0
CIRCLE
  8
SIZE
  6
CONTINUOUS
 62
    30
 10
-50.0
 20
463.060265
 30
0.0
 40
6.0
  0
LINE
  8
SIZE
  6
CONTINUOUS
 62
    30
 10
-50.0
 20
463.060265
 30
0.0
 11
-62.0
 21
463.060265
 31
0.0
  0
CIRCLE
  8
SIZE
  6
CONTINUOUS
 62
    30
 10
0.0
 20
463.060265
 30
0.0
 40
6.0
  0
LINE
  8
SIZE
  6
CONTINUOUS
 62
    30
 10
0.0
 20
463.060265
 30
0.0
 11
12.0
 21
463.060265
 31
0.0
  0
POINT
  8
DEFPOINTS
  6
CONTINUOUS
 62
    30
 10
-50.0
 20
271.0
 30
0.0
  0
POINT
  8
DEFPOINTS
  6
CONTINUOUS
 62
    30
 10
0.0
 20
387.83086
 30
0.0
  0
POINT
  8
DEFPOINTS
  6
CONTINUOUS
 62
    30
 10
0.0
 20
463.060265
 30
0.0
  0
LINE
  8
NOTE
  6
CONTINUOUS
 62
     4
 10
-50.0
 20
231.0
 30
0.0
 11
-50.0
 21
271.0
 31
0.0
  0
LINE
  8
NOTE
  6
CONTINUOUS
 62
     4
 10
-70.0
 20
251.0
 30
0.0
 11
-30.0
 21
251.0
 31
0.0
  0
LINE
  8
NOTE
  6
CONTINUOUS
 62
     4
 10
-94.249977
 20
267.613493
 30
0.0
 11
-50.0
 21
251.0
 31
0.0
  0
LINE
  8
NOTE
  6
CONTINUOUS
 62
     4
 10
-50.0
 20
251.0
 30
0.0
 11
-86.442242
 21
281.100359
 31
0.0
  0
LINE
  8
NOTE
  6
CONTINUOUS
 62
     4
 39
50.0
 10
-50.0
 20
251.0
 30
0.0
 11
-357.108192
 21
435.39434
 31
0.0
  0
LINE
  8
NOTE
  6
CONTINUOUS
 62
     4
 39
50.0
 10
-357.108192
 20
435.39434
 30
0.0
 11
-683.040963
 21
435.39434
 31
0.0
  0
TEXT
  8
NOTE
  6
CONTINUOUS
 62
     4
 10
-659.130834
 20
449.379171
 30
0.0
 40
64.0
  1
D φ18
 50
0.0
 41
0.9
 51
0.0
  7
STANDARD
 71
     0
 11
0.0
 21
0.0
 31
0.0
210
0.0
220
0.0
230
1.0
  0
ENDSEC
  0
EOF
