  0
SECTION
  2
HEADER
  9
$ACADVER
  1
AC1009
  9
$INSBASE
 10
0.0
 20
0.0
 30
0.0
  9
$EXTMIN
 10
-1018.533643789494
 20
-545.6791454673812
 30
0.0
  9
$EXTMAX
 10
1346.7182898407691
 20
981.74009613138185
 30
50.0
  9
$LIMMIN
 10
-2970.0
 20
-2100.0
  9
$LIMMAX
 10
2970.0
 20
2100.0
  9
$ORTHOMODE
 70
     1
  9
$REGENMODE
 70
     1
  9
$FILLMODE
 70
     1
  9
$QTEXTMODE
 70
     0
  9
$MIRRTEXT
 70
     0
  9
$DRAGMODE
 70
     2
  9
$LTSCALE
 40
20.0
  9
$OSMODE
 70
   943
  9
$ATTMODE
 70
     1
  9
$TEXTSIZE
 40
64.0
  9
$TRACEWID
 40
0.05
  9
$TEXTSTYLE
  7
STANDARD
  9
$CLAYER
  8
DETAIL
  9
$CELTYPE
  6
CONTINUOUS
  9
$CECOLOR
 62
     7
  9
$DIMSCALE
 40
1.0
  9
$DIMASZ
 40
12.0
  9
$DIMEXO
 40
20.0
  9
$DIMDLI
 40
200.0
  9
$DIMRND
 40
0.0
  9
$DIMDLE
 40
0.0
  9
$DIMEXE
 40
20.0
  9
$DIMTP
 40
0.0
  9
$DIMTM
 40
0.0
  9
$DIMTXT
 40
64.0
  9
$DIMCEN
 40
0.09
  9
$DIMTSZ
 40
0.0
  9
$DIMTOL
 70
     0
  9
$DIMLIM
 70
     0
  9
$DIMTIH
 70
     0
  9
$DIMTOH
 70
     0
  9
$DIMSE1
 70
     0
  9
$DIMSE2
 70
     0
  9
$DIMTAD
 70
     1
  9
$DIMZIN
 70
     8
  9
$DIMBLK
  1

  9
$DIMASO
 70
     1
  9
$DIMSHO
 70
     0
  9
$DIMPOST
  1

  9
$DIMAPOST
  1

  9
$DIMALT
 70
     0
  9
$DIMALTD
 70
     2
  9
$DIMALTF
 40
25.399999999999999
  9
$DIMLFAC
 40
1.0
  9
$DIMTOFL
 70
     1
  9
$DIMTVP
 40
0.0
  9
$DIMTIX
 70
     1
  9
$DIMSOXD
 70
     0
  9
$DIMSAH
 70
     0
  9
$DIMBLK1
  1

  9
$DIMBLK2
  1

  9
$DIMSTYLE
  2
STANDARD
  9
$DIMCLRD
 70
     7
  9
$DIMCLRE
 70
     7
  9
$DIMCLRT
 70
     7
  9
$DIMTFAC
 40
1.0
  9
$DIMGAP
 40
25.0
  9
$LUNITS
 70
     2
  9
$LUPREC
 70
     4
  9
$SKETCHINC
 40
0.1
  9
$FILLETRAD
 40
3.0
  9
$AUNITS
 70
     1
  9
$AUPREC
 70
     3
  9
$MENU
  1
ACAD
  9
$ELEVATION
 40
0.0
  9
$PELEVATION
 40
0.0
  9
$THICKNESS
 40
50.0
  9
$LIMCHECK
 70
     0
  9
$BLIPMODE
 70
     0
  9
$CHAMFERA
 40
0.0
  9
$CHAMFERB
 40
0.0
  9
$SKPOLY
 70
     0
  9
$TDCREATE
 40
2453019.6230103709
  9
$TDUPDATE
 40
2456955.703370139
  9
$TDINDWG
 40
1.7934981134000001
  9
$TDUSRTIMER
 40
1.7934975231000001
  9
$USRTIMER
 70
     1
  9
$ANGBASE
 50
0.0
  9
$ANGDIR
 70
     0
  9
$PDMODE
 70
     3
  9
$PDSIZE
 40
-2.0
  9
$PLINEWID
 40
0.0
  9
$COORDS
 70
     1
  9
$SPLFRAME
 70
     0
  9
$SPLINETYPE
 70
     6
  9
$SPLINESEGS
 70
     8
  9
$ATTDIA
 70
     1
  9
$ATTREQ
 70
     1
  9
$HANDLING
 70
     1
  9
$HANDSEED
  5
574
  9
$SURFTAB1
 70
     6
  9
$SURFTAB2
 70
     6
  9
$SURFTYPE
 70
     6
  9
$SURFU
 70
     6
  9
$SURFV
 70
     6
  9
$UCSNAME
  2

  9
$UCSORG
 10
0.0
 20
0.0
 30
0.0
  9
$UCSXDIR
 10
1.0
 20
0.0
 30
0.0
  9
$UCSYDIR
 10
0.0
 20
1.0
 30
0.0
  9
$PUCSNAME
  2

  9
$PUCSORG
 10
0.0
 20
0.0
 30
0.0
  9
$PUCSXDIR
 10
1.0
 20
0.0
 30
0.0
  9
$PUCSYDIR
 10
0.0
 20
1.0
 30
0.0
  9
$USERI1
 70
     0
  9
$USERI2
 70
     0
  9
$USERI3
 70
     0
  9
$USERI4
 70
     0
  9
$USERI5
 70
     0
  9
$USERR1
 40
20.0
  9
$USERR2
 40
0.0
  9
$USERR3
 40
0.0
  9
$USERR4
 40
0.0
  9
$USERR5
 40
0.0
  9
$WORLDVIEW
 70
     1
  9
$SHADEDGE
 70
     3
  9
$SHADEDIF
 70
    70
  9
$TILEMODE
 70
     1
  9
$MAXACTVP
 70
    48
  9
$PLIMCHECK
 70
     0
  9
$PEXTMIN
 10
-1.0000000000000000E+020
 20
-1.0000000000000000E+020
 30
-1.0000000000000000E+020
  9
$PEXTMAX
 10
1.0000000000000000E+020
 20
1.0000000000000000E+020
 30
1.0000000000000000E+020
  9
$PLIMMIN
 10
0.0
 20
0.0
  9
$PLIMMAX
 10
12.0
 20
9.0
  9
$UNITMODE
 70
     0
  9
$VISRETAIN
 70
     0
  9
$PLINEGEN
 70
     0
  9
$PSLTSCALE
 70
     0
  0
ENDSEC
  0
SECTION
  2
TABLES
  0
TABLE
  2
VPORT
 70
     1
  0
VPORT
  2
*ACTIVE
 70
     0
 10
0.0
 20
0.0
 11
1.0
 21
1.0
 12
296.90232407011058
 22
216.88794231538441
 13
0.0
 23
0.0
 14
1.0
 24
1.0
 15
0.0
 25
0.0
 16
0.0
 26
0.0
 36
1.0
 17
0.0
 27
0.0
 37
0.0
 40
2149.1143292277652
 41
1.3299620733249049
 42
50.0
 43
0.0
 44
0.0
 50
0.0
 51
0.0
 71
     0
 72
  1000
 73
     1
 74
     0
 75
     0
 76
     0
 77
     0
 78
     0
  0
ENDTAB
  0
TABLE
  2
LTYPE
 70
     3
  0
LTYPE
  2
CONTINUOUS
 70
     0
  3
実線
 72
    65
 73
     0
 40
0.0
  0
LTYPE
  2
DASHDOT
 70
     0
  3
____ _ ____ _ ____ _ ____ _ ____ _ ____ _ ____
 72
    65
 73
     4
 40
5.5
 49
4.0
 49
-0.6
 49
0.3
 49
-0.6
  0
ENDTAB
  0
TABLE
  2
LAYER
 70
    12
  0
LAYER
  2
0
 70
     0
 62
     7
  6
CONTINUOUS
  0
LAYER
  2
SIZE
 70
     0
 62
    30
  6
CONTINUOUS
  0
LAYER
  2
BASIS
 70
     0
 62
     6
  6
DASHDOT
  0
LAYER
  2
OUTLINE
 70
     0
 62
     3
  6
CONTINUOUS
  0
LAYER
  2
DETAIL
 70
     0
 62
     5
  6
CONTINUOUS
  0
LAYER
  2
ARRANGE
 70
     0
 62
     1
  6
CONTINUOUS
  0
LAYER
  2
DEFPOINTS
 70
     0
 62
     7
  6
CONTINUOUS
  0
LAYER
  2
ETC
 70
     0
 62
    61
  6
CONTINUOUS
  0
LAYER
  2
FIX
 70
     0
 62
    11
  6
CONTINUOUS
  0
LAYER
  2
NOTE
 70
     0
 62
     4
  6
CONTINUOUS
  0
LAYER
  2
SERVICESPACE
 70
     0
 62
     2
  6
DASHDOT
  0
LAYER
  2
SYMBOLLINE
 70
     0
 62
    15
  6
CONTINUOUS
  0
ENDTAB
  0
TABLE
  2
STYLE
 70
     2
  0
STYLE
  2
STANDARD
 70
     0
 40
64.0
 41
0.9
 50
0.0
 71
     0
 42
64.0
  3
SIMPLEX.shx
  4
BIGFONT.shx
  0
STYLE
  2
ANNOTATIVE
 70
     0
 40
0.0
 41
1.0
 50
0.0
 71
     0
 42
0.2
  3
txt
  4

  0
ENDTAB
  0
TABLE
  2
VIEW
 70
     1
  0
VIEW
  2
ALL
 70
     0
 40
4282.6198079999967
 10
0.0
 20
41.309904000000003
 41
5940.0
 11
0.0
 21
0.0
 31
1.0
 12
0.0
 22
0.0
 32
0.0
 42
50.0
 43
0.0
 44
0.0
 50
0.0
 71
     0
  0
ENDTAB
  0
TABLE
  2
UCS
 70
     0
  0
ENDTAB
  0
TABLE
  2
APPID
 70
    18
  0
APPID
  2
ACAD
 70
     0
  0
APPID
  2
ACADANNOTATIVE
 70
     0
  0
APPID
  2
AUTOCAD_POSTSCRIPT_FIGURE
 70
     0
  0
APPID
  2
ACAD_EXEMPT_FROM_CAD_STANDARDS
 70
     0
  0
APPID
  2
ACAD_PSEXT
 70
     0
  0
APPID
  2
ACAUTHENVIRON
 70
     0
  0
APPID
  2
GENIUS_GENOENT_13
 70
     0
  0
APPID
  2
GENIUS_GENCFG_13
 70
     0
  0
APPID
  2
GENIUS_GENCFG0_13
 70
     0
  0
APPID
  2
GENIUS_GENCFG1_13
 70
     0
  0
APPID
  2
GENIUS_GENCFG2_13
 70
     0
  0
APPID
  2
GENIUS_GENCFG3_13
 70
     0
  0
APPID
  2
GENIUS_GENCFG4_13
 70
     0
  0
APPID
  2
GENIUS_GEVCFG0_13
 70
     0
  0
APPID
  2
CONTENTBLOCKICON
 70
     0
  0
APPID
  2
CONTENTBLOCKDESCRIPTION
 70
     0
  0
APPID
  2
ACAD_NAV_VCDISPLAY
 70
     0
  0
APPID
  2
ACAD_MLEADERVER
 70
     0
  0
ENDTAB
  0
TABLE
  2
DIMSTYLE
 70
     2
  0
DIMSTYLE
  2
STANDARD
 70
     0
  3

  4

  5

  6

  7

 40
1.0
 41
0.18
 42
0.0625
 43
0.38
 44
0.18
 45
0.0
 46
0.0
 47
0.0
 48
0.0
140
0.18
141
0.09
142
0.0
143
25.399999999999999
144
1.0
145
0.0
146
1.0
147
0.09
 71
     0
 72
     0
 73
     1
 74
     1
 75
     0
 76
     0
 77
     0
 78
     0
170
     0
171
     2
172
     0
173
     0
174
     0
175
     0
176
     7
177
     7
178
     7
  0
DIMSTYLE
  2
ANNOTATIVE
 70
     0
  3

  4

  5

  6

  7

 40
1.0
 41
0.18
 42
0.0625
 43
0.38
 44
0.18
 45
0.0
 46
0.0
 47
0.0
 48
0.0
140
0.18
141
0.09
142
0.0
143
25.399999999999999
144
1.0
145
0.0
146
1.0
147
0.09
 71
     0
 72
     0
 73
     1
 74
     1
 75
     0
 76
     0
 77
     0
 78
     0
170
     0
171
     2
172
     0
173
     0
174
     0
175
     0
176
     0
177
     0
178
     0
  0
ENDTAB
  0
ENDSEC
  0
SECTION
  2
BLOCKS
  0
BLOCK
  8
0
  2
$MODEL_SPACE
 70
     0
 10
0.0
 20
0.0
 30
0.0
  3
$MODEL_SPACE
  1

  0
ENDBLK
  5
4C7
  8
0
  0
BLOCK
 67
     1
  8
0
  2
$PAPER_SPACE
 70
     0
 10
0.0
 20
0.0
 30
0.0
  3
$PAPER_SPACE
  1

  0
ENDBLK
  5
4C3
 67
     1
  8
0
  0
BLOCK
  8
0
  2
_ORIGIN
 70
     0
 10
0.0
 20
0.0
 30
0.0
  3
_ORIGIN
  1

  0
CIRCLE
  5
90
  8
0
  6
CONTINUOUS
 62
     7
 10
0.0
 20
0.0
 30
0.0
 40
0.5
  0
LINE
  5
91
  8
0
  6
CONTINUOUS
 62
     7
 10
0.0
 20
0.0
 30
0.0
 11
-1.0
 21
0.0
 31
0.0
  0
ENDBLK
  5
92
  8
0
  0
ENDSEC
  0
SECTION
  2
ENTITIES
  0
TEXT
  5
93
  8
ETC
  6
CONTINUOUS
 62
    61
 10
565.00400412648276
 20
776.70673757840473
 30
0.0
 40
64.0
  1
VL-11ZFHV-HM_2
 41
0.9
  0
TEXT
  5
94
  8
ETC
  6
CONTINUOUS
 62
    61
 10
758.43052979446099
 20
665.97726506138463
 30
0.0
 40
64.0
  1
換気扇
 41
0.9
  0
TEXT
  5
95
  8
ETC
  6
CONTINUOUS
 62
    61
 10
929.6273653076795
 20
577.09739657610669
 30
0.0
 40
40.0
  1
VL-11ZFHV-HM
 41
0.9
  0
LINE
  5
96
  8
DETAIL
  6
CONTINUOUS
 62
     5
 10
80.191822463999415
 20
120.1028785864182
 30
0.0
 11
80.214923922054794
 21
120.0753560251906
 31
0.0
  0
ARC
  5
97
  8
DETAIL
  6
CONTINUOUS
 62
     5
 10
115.11959999999949
 20
93.196823999998756
 30
0.0
 40
44.08951595341383
 50
93.027917362014179
 51
102.3691370918943
  0
ARC
  5
98
  8
DETAIL
  6
CONTINUOUS
 62
     5
 10
115.11959999999949
 20
93.196823999998756
 30
0.0
 40
44.089515953413439
 50
137.2308629081019
 51
92.850432984902199
  0
ARC
  5
99
  8
DETAIL
  6
CONTINUOUS
 62
     5
 10
115.11959999999949
 20
93.196823999998756
 30
0.0
 40
38.548699709241333
 50
339.84060045711487
 51
0.000000000000007
  0
ARC
  5
9A
  8
DETAIL
  6
CONTINUOUS
 62
     5
 10
115.11959999999949
 20
93.196823999998756
 30
0.0
 40
38.548699709242563
 50
0.000000000000007
 51
180.0
  0
ARC
  5
9B
  8
DETAIL
  6
CONTINUOUS
 62
     5
 10
115.11959999999949
 20
93.196823999998756
 30
0.0
 40
38.54869970923891
 50
180.0
 51
339.8066333594918
  0
CIRCLE
  5
9C
  8
DETAIL
  6
CONTINUOUS
 62
     5
 10
115.11959999999949
 20
93.196823999998756
 30
0.0
 40
38.548699709240992
  0
LINE
  5
9D
  8
DETAIL
  6
CONTINUOUS
 62
     5
 10
-51.667656428507129
 20
286.64780399999648
 30
0.0
 11
13.628136429007551
 21
286.64780399999648
 31
0.0
  0
LINE
  5
9E
  8
DETAIL
  6
CONTINUOUS
 62
     5
 10
-52.881437517878567
 20
285.94707610660771
 30
0.0
 11
14.841917518378979
 21
285.94707610660771
 31
0.0
  0
LINE
  5
9F
  8
DETAIL
  6
CONTINUOUS
 62
     5
 10
-52.910335082622623
 20
285.89702399999811
 30
0.0
 11
14.870815083123031
 21
285.89702399999811
 31
0.0
  0
LINE
  5
A0
  8
DETAIL
  6
CONTINUOUS
 62
     5
 10
16.01653158086128
 20
285.64676399999718
 30
0.0
 11
-54.056051580360872
 21
285.64676399999718
 31
0.0
  0
LINE
  5
A1
  8
DETAIL
  6
CONTINUOUS
 62
     5
 10
-229.93888800000011
 20
175.08189599999599
 30
0.0
 11
-229.93888800000011
 21
168.8754479999989
 31
0.0
  0
LINE
  5
A2
  8
DETAIL
  6
CONTINUOUS
 62
     5
 10
-228.33722400000011
 20
175.08189599999599
 30
0.0
 11
-228.33722400000011
 21
168.8754479999989
 31
0.0
  0
LINE
  5
A3
  8
DETAIL
  6
CONTINUOUS
 62
     5
 10
-226.73556000000011
 20
178.28522399999929
 30
0.0
 11
-226.73556000000011
 21
176.68356000000131
 31
0.0
  0
LINE
  5
A4
  8
DETAIL
  6
CONTINUOUS
 62
     5
 10
-174.20230251665751
 20
235.1229534833401
 30
0.0
 11
-166.95212948334299
 21
242.3731265171555
 31
0.0
  0
LINE
  5
A5
  8
DETAIL
  6
CONTINUOUS
 62
     5
 10
21.522359999999932
 20
280.1410439999965
 30
0.0
 11
-59.561880000000201
 21
280.1410439999965
 31
0.0
  0
LINE
  5
A6
  8
DETAIL
  6
CONTINUOUS
 62
     5
 10
-217.52599200000009
 20
9.6099839999988035
 30
0.0
 11
-217.52599200000009
 21
8.8091520000016281
 31
0.0
  0
LINE
  5
A7
  8
DETAIL
  6
CONTINUOUS
 62
     5
 10
-212.7210000000002
 20
-9.0093600000000151
 30
0.0
 11
-212.7210000000002
 21
0.0
 31
0.0
  0
LINE
  5
A8
  8
DETAIL
  6
CONTINUOUS
 62
     5
 10
-207.515592
 20
9.6099839999988035
 30
0.0
 11
-207.515592
 21
8.8091520000016281
 31
0.0
  0
LINE
  5
A9
  8
DETAIL
  6
CONTINUOUS
 62
     5
 10
-113.1175200000002
 20
242.95861292642081
 30
0.0
 11
-112.82341292641919
 21
243.2527199999968
 31
0.0
  0
LINE
  5
AA
  8
DETAIL
  6
CONTINUOUS
 62
     5
 10
21.522359999499699
 20
259.0030579300801
 30
0.0
 11
16.123125000846361
 21
259.0030579300801
 31
0.0
  0
LINE
  5
AB
  8
DETAIL
  6
CONTINUOUS
 62
     5
 10
-59.561880000000201
 20
259.0030579300801
 30
0.0
 11
16.123125000846361
 21
259.0030579300801
 31
0.0
  0
LINE
  5
AC
  8
DETAIL
  6
CONTINUOUS
 62
     5
 10
22.02287999999999
 20
258.13613185966102
 30
0.0
 11
10.50149248206753
 21
258.13613185966102
 31
0.0
  0
LINE
  5
AD
  8
DETAIL
  6
CONTINUOUS
 62
     5
 10
10.50149248206753
 20
258.13613185966102
 30
0.0
 11
-60.062400000000238
 21
258.13613185966102
 31
0.0
  0
LINE
  5
AE
  8
DETAIL
  6
CONTINUOUS
 62
     5
 10
-60.062400000000238
 20
252.86270399999921
 30
0.0
 11
-34.591358891103482
 21
252.86270399999921
 31
0.0
  0
LINE
  5
AF
  8
DETAIL
  6
CONTINUOUS
 62
     5
 10
-34.591358891103482
 20
252.86270399999921
 30
0.0
 11
5.4968293648457802
 21
252.86270399999921
 31
0.0
  0
LINE
  5
B0
  8
DETAIL
  6
CONTINUOUS
 62
     5
 10
5.4968293648457802
 20
252.86270399999921
 30
0.0
 11
16.525901589807749
 21
252.86270399999921
 31
0.0
  0
LINE
  5
B1
  8
DETAIL
  6
CONTINUOUS
 62
     5
 10
16.525901589807749
 20
252.86270399999921
 30
0.0
 11
22.02287999999999
 21
252.86270399999921
 31
0.0
  0
LINE
  5
B2
  8
DETAIL
  6
CONTINUOUS
 62
     5
 10
-191.19864000000001
 20
252.26207999999681
 30
0.0
 11
191.19864000000001
 21
252.26207999999681
 31
0.0
  0
LINE
  5
B3
  8
DETAIL
  6
CONTINUOUS
 62
     5
 10
-191.09853600000011
 20
247.25687999999721
 30
0.0
 11
191.098536
 21
247.25687999999721
 31
0.0
  0
LINE
  5
B4
  8
DETAIL
  6
CONTINUOUS
 62
     5
 10
192.49999199999999
 20
245.85542399999761
 30
0.0
 11
191.69916000000001
 21
245.85542399999761
 31
0.0
  0
LINE
  5
B5
  8
DETAIL
  6
CONTINUOUS
 62
     5
 10
191.69916000000001
 20
245.85542399999761
 30
0.0
 11
191.0461109100504
 21
245.85542399999761
 31
0.0
  0
LINE
  5
B6
  8
DETAIL
  6
CONTINUOUS
 62
     5
 10
-192.49999199999999
 20
245.85542399999761
 30
0.0
 11
-191.69916000000001
 21
245.85542399999761
 31
0.0
  0
LINE
  5
B7
  8
DETAIL
  6
CONTINUOUS
 62
     5
 10
-191.69916000000001
 20
245.85542399999761
 30
0.0
 11
-191.04611090955021
 21
245.85542399999761
 31
0.0
  0
LINE
  5
B8
  8
DETAIL
  6
CONTINUOUS
 62
     5
 10
-189.49687199999991
 20
245.6552159999992
 30
0.0
 11
189.4968720000002
 21
245.6552159999992
 31
0.0
  0
LINE
  5
B9
  8
DETAIL
  6
CONTINUOUS
 62
     5
 10
-164.82860296618509
 20
243.2527199999968
 30
0.0
 11
-97.243669033314745
 21
243.2527199999968
 31
0.0
  0
LINE
  5
BA
  8
DETAIL
  6
CONTINUOUS
 62
     5
 10
-95.949885494836963
 20
242.95861292642081
 30
0.0
 11
-113.1175200000002
 21
242.95861292642081
 31
0.0
  0
LINE
  5
BB
  8
DETAIL
  6
CONTINUOUS
 62
     5
 10
-149.1549600000001
 20
242.95861292642081
 30
0.0
 11
-166.12238650466259
 21
242.95861292642081
 31
0.0
  0
LINE
  5
BC
  8
DETAIL
  6
CONTINUOUS
 62
     5
 10
-191.53040139739301
 20
23.824752000000441
 30
0.0
 11
-191.32248593646131
 21
0.0
 31
0.0
  0
LINE
  5
BD
  8
DETAIL
  6
CONTINUOUS
 62
     5
 10
-195.7033200000003
 20
176.68356000000131
 30
0.0
 11
-195.7033200000003
 21
178.28522399999929
 31
0.0
  0
LINE
  5
BE
  8
DETAIL
  6
CONTINUOUS
 62
     5
 10
-194.1016560000003
 20
196.7043599999997
 30
0.0
 11
-194.1016560000003
 21
179.8868879999973
 31
0.0
  0
LINE
  5
BF
  8
DETAIL
  6
CONTINUOUS
 62
     5
 10
-193.30082399999989
 20
8.8091520000016281
 30
0.0
 11
-193.30082399999989
 21
9.6099839999988035
 31
0.0
  0
LINE
  5
C0
  8
DETAIL
  6
CONTINUOUS
 62
     5
 10
-193.30082399999989
 20
25.126103999999032
 30
0.0
 11
-193.30082399999989
 21
20.321111999997811
 31
0.0
  0
LINE
  5
C1
  8
DETAIL
  6
CONTINUOUS
 62
     5
 10
-192.49999199999999
 20
245.85542399999761
 30
0.0
 11
-192.49999199999999
 21
10.41081599999961
 31
0.0
  0
LINE
  5
C2
  8
DETAIL
  6
CONTINUOUS
 62
     5
 10
-191.69916000000001
 20
23.824752000000441
 30
0.0
 11
-191.69916000000001
 21
10.41081599999961
 31
0.0
  0
LINE
  5
C3
  8
DETAIL
  6
CONTINUOUS
 62
     5
 10
-191.19864000000001
 20
247.25687999999721
 30
0.0
 11
-191.19864000000001
 21
252.26207999999681
 31
0.0
  0
LINE
  5
C4
  8
DETAIL
  6
CONTINUOUS
 62
     5
 10
-191.19864000000001
 20
23.824752000000441
 30
0.0
 11
-191.19864000000001
 21
20.221008000000442
 31
0.0
  0
LINE
  5
C5
  8
DETAIL
  6
CONTINUOUS
 62
     5
 10
-191.09853600000011
 20
247.25687999999721
 30
0.0
 11
-191.09853600000011
 21
246.45604800000001
 31
0.0
  0
LINE
  5
C6
  8
DETAIL
  6
CONTINUOUS
 62
     5
 10
-191.09853600000011
 20
246.45604800000001
 30
0.0
 11
-191.09853600000011
 21
245.80299891004691
 31
0.0
  0
LINE
  5
C7
  8
DETAIL
  6
CONTINUOUS
 62
     5
 10
-190.9483800000003
 20
245.72219520149881
 30
0.0
 11
-190.9483800000003
 21
245.33785364354841
 31
0.0
  0
LINE
  5
C8
  8
DETAIL
  6
CONTINUOUS
 62
     5
 10
-190.89832799999971
 20
23.824752000000441
 30
0.0
 11
-190.89832799999971
 21
244.25375999999599
 31
0.0
  0
LINE
  5
C9
  8
DETAIL
  6
CONTINUOUS
 62
     5
 10
-179.48647199999979
 20
231.5979709666826
 30
0.0
 11
-179.48647199999979
 21
26.82787199999802
 31
0.0
  0
LINE
  5
CA
  8
DETAIL
  6
CONTINUOUS
 62
     5
 10
176.84108296668549
 20
234.24335999999681
 30
0.0
 11
-85.746442966184986
 21
234.24335999999681
 31
0.0
  0
LINE
  5
CB
  8
DETAIL
  6
CONTINUOUS
 62
     5
 10
-176.3258290333147
 20
234.24335999999681
 30
0.0
 11
-176.84108296618501
 21
234.24335999999681
 31
0.0
  0
LINE
  5
CC
  8
DETAIL
  6
CONTINUOUS
 62
     5
 10
-171.17784000000009
 20
238.14741599999979
 30
0.0
 11
-171.17784000000009
 21
146.75246399999739
 31
0.0
  0
LINE
  5
CD
  8
DETAIL
  6
CONTINUOUS
 62
     5
 10
-169.62819419221569
 20
159.76598400000151
 30
0.0
 11
-169.62819419221569
 21
147.75350399999661
 31
0.0
  0
LINE
  5
CE
  8
DETAIL
  6
CONTINUOUS
 62
     5
 10
-52.881437527888473
 20
285.94707609709798
 30
0.0
 11
-52.910335060098973
 21
285.89702410660908
 31
0.0
  0
LINE
  5
CF
  8
DETAIL
  6
CONTINUOUS
 62
     5
 10
194.1016560000003
 20
196.7043599999997
 30
0.0
 11
192.49999199999999
 21
196.7043599999997
 31
0.0
  0
LINE
  5
D0
  8
DETAIL
  6
CONTINUOUS
 62
     5
 10
-194.1016560000003
 20
196.7043599999997
 30
0.0
 11
-192.49999199999999
 21
196.7043599999997
 31
0.0
  0
LINE
  5
D1
  8
DETAIL
  6
CONTINUOUS
 62
     5
 10
194.1016560000003
 20
193.70123999999851
 30
0.0
 11
192.49999199999999
 21
193.70123999999851
 31
0.0
  0
LINE
  5
D2
  8
DETAIL
  6
CONTINUOUS
 62
     5
 10
-194.1016560000003
 20
193.70123999999851
 30
0.0
 11
-192.49999199999999
 21
193.70123999999851
 31
0.0
  0
LINE
  5
D3
  8
DETAIL
  6
CONTINUOUS
 62
     5
 10
-149.1549600000001
 20
243.2527199999968
 30
0.0
 11
-149.1549600000001
 21
242.95861292642081
 31
0.0
  0
LINE
  5
D4
  8
DETAIL
  6
CONTINUOUS
 62
     5
 10
-60.062400000000238
 20
258.13613185966102
 30
0.0
 11
-59.561880000000201
 21
259.0030579300801
 31
0.0
  0
LINE
  5
D5
  8
DETAIL
  6
CONTINUOUS
 62
     5
 10
-192.49999199999999
 20
179.8868879999973
 30
0.0
 11
-194.1016560000003
 21
179.8868879999973
 31
0.0
  0
LINE
  5
D6
  8
DETAIL
  6
CONTINUOUS
 62
     5
 10
192.49999199999999
 20
179.8868879999973
 30
0.0
 11
194.1016560000003
 21
179.8868879999973
 31
0.0
  0
LINE
  5
D7
  8
DETAIL
  6
CONTINUOUS
 62
     5
 10
-226.73556000000011
 20
178.28522399999929
 30
0.0
 11
-195.7033200000003
 21
178.28522399999929
 31
0.0
  0
LINE
  5
D8
  8
DETAIL
  6
CONTINUOUS
 62
     5
 10
195.70331999999959
 20
178.28522399999929
 30
0.0
 11
226.73556000000011
 21
178.28522399999929
 31
0.0
  0
LINE
  5
D9
  8
DETAIL
  6
CONTINUOUS
 62
     5
 10
-226.73556000000011
 20
176.68356000000131
 30
0.0
 11
-195.7033200000003
 21
176.68356000000131
 31
0.0
  0
LINE
  5
DA
  8
DETAIL
  6
CONTINUOUS
 62
     5
 10
194.90248799999969
 20
176.68356000000131
 30
0.0
 11
226.73556000000011
 21
176.68356000000131
 31
0.0
  0
LINE
  5
DB
  8
DETAIL
  6
CONTINUOUS
 62
     5
 10
229.93888799999971
 20
175.08189599999599
 30
0.0
 11
227.53639200000001
 21
175.08189599999599
 31
0.0
  0
LINE
  5
DC
  8
DETAIL
  6
CONTINUOUS
 62
     5
 10
-229.93888800000011
 20
175.08189599999599
 30
0.0
 11
-228.33722400000011
 21
175.08189599999599
 31
0.0
  0
LINE
  5
DD
  8
DETAIL
  6
CONTINUOUS
 62
     5
 10
-228.33722400000011
 20
171.87856800000009
 30
0.0
 11
-229.93888800000011
 21
171.87856800000009
 31
0.0
  0
LINE
  5
DE
  8
DETAIL
  6
CONTINUOUS
 62
     5
 10
227.53639200000001
 20
171.87856800000009
 30
0.0
 11
229.93888799999971
 21
171.87856800000009
 31
0.0
  0
LINE
  5
DF
  8
DETAIL
  6
CONTINUOUS
 62
     5
 10
14.841917527889111
 20
285.94707609709798
 30
0.0
 11
14.8708150605994
 21
285.89702410660908
 31
0.0
  0
LINE
  5
E0
  8
DETAIL
  6
CONTINUOUS
 62
     5
 10
22.02287999999999
 20
258.13613185966102
 30
0.0
 11
21.522359999999932
 21
259.0030579300801
 31
0.0
  0
LINE
  5
E1
  8
DETAIL
  6
CONTINUOUS
 62
     5
 10
-121.6744458077842
 20
147.75350399999661
 30
0.0
 11
-121.6744458077842
 21
159.76598400000151
 31
0.0
  0
LINE
  5
E2
  8
DETAIL
  6
CONTINUOUS
 62
     5
 10
-119.6242800000005
 20
162.58743801815939
 30
0.0
 11
-119.6242800000005
 21
146.75246399999739
 31
0.0
  0
LINE
  5
E3
  8
DETAIL
  6
CONTINUOUS
 62
     5
 10
-113.1175200000002
 20
243.2527199999968
 30
0.0
 11
-113.1175200000002
 21
242.95861292642081
 31
0.0
  0
LINE
  5
E4
  8
DETAIL
  6
CONTINUOUS
 62
     5
 10
-228.33722400000011
 20
168.8754479999989
 30
0.0
 11
-229.93888800000011
 21
168.8754479999989
 31
0.0
  0
LINE
  5
E5
  8
DETAIL
  6
CONTINUOUS
 62
     5
 10
227.53639200000001
 20
168.8754479999989
 30
0.0
 11
229.93888799999971
 21
168.8754479999989
 31
0.0
  0
LINE
  5
E6
  8
DETAIL
  6
CONTINUOUS
 62
     5
 10
-123.62844
 20
161.7199781922136
 30
0.0
 11
-167.67420000000021
 21
161.7199781922136
 31
0.0
  0
LINE
  5
E7
  8
DETAIL
  6
CONTINUOUS
 62
     5
 10
-83.935698336737005
 20
167.63195364092829
 30
0.0
 11
-83.900032293588524
 21
167.6275830492377
 31
0.0
  0
LINE
  5
E8
  8
DETAIL
  6
CONTINUOUS
 62
     5
 10
-91.094640000000226
 20
238.34762399999821
 30
0.0
 11
-91.094640000000226
 21
203.1110159999989
 31
0.0
  0
LINE
  5
E9
  8
DETAIL
  6
CONTINUOUS
 62
     5
 10
-167.67420000000021
 20
145.7995098077844
 30
0.0
 11
-123.62844
 21
145.7995098077844
 31
0.0
  0
LINE
  5
EA
  8
DETAIL
  6
CONTINUOUS
 62
     5
 10
-122.62740000000031
 20
143.7493439999962
 30
0.0
 11
-168.17472000000009
 21
143.7493439999962
 31
0.0
  0
LINE
  5
EB
  8
DETAIL
  6
CONTINUOUS
 62
     5
 10
-95.120142516657282
 20
242.3731265171555
 30
0.0
 11
-87.86996948334307
 21
235.1229534833401
 31
0.0
  0
LINE
  5
EC
  8
DETAIL
  6
CONTINUOUS
 62
     5
 10
-60.062400000000238
 20
258.13613185966102
 30
0.0
 11
-60.062400000000238
 21
252.86270399999921
 31
0.0
  0
LINE
  5
ED
  8
DETAIL
  6
CONTINUOUS
 62
     5
 10
-59.561880000000201
 20
280.1410439999965
 30
0.0
 11
-59.561880000000201
 21
259.0030579300801
 31
0.0
  0
LINE
  5
EE
  8
DETAIL
  6
CONTINUOUS
 62
     5
 10
192.49999199999999
 20
82.585800000000731
 30
0.0
 11
193.7012399999999
 21
82.585800000000731
 31
0.0
  0
LINE
  5
EF
  8
DETAIL
  6
CONTINUOUS
 62
     5
 10
-149.1549600000001
 20
242.95861292642081
 30
0.0
 11
-149.44906707358081
 21
243.2527199999968
 31
0.0
  0
LINE
  5
F0
  8
DETAIL
  6
CONTINUOUS
 62
     5
 10
192.49999199999999
 20
57.559799999999093
 30
0.0
 11
193.7012399999999
 21
57.559799999999093
 31
0.0
  0
LINE
  5
F1
  8
DETAIL
  6
CONTINUOUS
 62
     5
 10
-178.96460948334291
 20
235.1229534833401
 30
0.0
 11
-189.49687199999991
 21
245.6552159999992
 31
0.0
  0
LINE
  5
F2
  8
DETAIL
  6
CONTINUOUS
 62
     5
 10
-189.97812292748469
 20
245.26826592851279
 30
0.0
 11
-190.4071051204603
 21
245.6972481214907
 31
0.0
  0
LINE
  5
F3
  8
DETAIL
  6
CONTINUOUS
 62
     5
 10
-29.92257753600143
 20
120.1028785864146
 30
0.0
 11
-29.899476077945561
 21
120.07535602518691
 31
0.0
  0
LINE
  5
F4
  8
DETAIL
  6
CONTINUOUS
 62
     5
 10
189.4968720000002
 20
245.6552159999992
 30
0.0
 11
178.96460948334291
 21
235.1229534833401
 31
0.0
  0
LINE
  5
F5
  8
DETAIL
  6
CONTINUOUS
 62
     5
 10
-190.89832799999971
 20
244.25375999999599
 30
0.0
 11
-180.36606548334251
 21
233.72149748334411
 31
0.0
  0
LINE
  5
F6
  8
DETAIL
  6
CONTINUOUS
 62
     5
 10
2.8126759209280841
 20
137.231790278689
 30
0.0
 11
2.8221172427015522
 21
137.19711997203191
 31
0.0
  0
LINE
  5
F7
  8
DETAIL
  6
CONTINUOUS
 62
     5
 10
21.522359999999932
 20
280.1410439999965
 30
0.0
 11
21.522359999999932
 21
259.0030579300801
 31
0.0
  0
LINE
  5
F8
  8
DETAIL
  6
CONTINUOUS
 62
     5
 10
22.02287999999999
 20
258.13613185966102
 30
0.0
 11
22.02287999999999
 21
252.86270399999921
 31
0.0
  0
LINE
  5
F9
  8
DETAIL
  6
CONTINUOUS
 62
     5
 10
180.36606548334279
 20
233.72149748334411
 30
0.0
 11
190.89832799999971
 21
244.25375999999599
 31
0.0
  0
LINE
  5
FA
  8
DETAIL
  6
CONTINUOUS
 62
     5
 10
192.49999199999999
 20
23.824752000000441
 30
0.0
 11
191.69916000000001
 21
23.824752000000441
 31
0.0
  0
LINE
  5
FB
  8
DETAIL
  6
CONTINUOUS
 62
     5
 10
-192.49999199999999
 20
23.824752000000441
 30
0.0
 11
-191.69916000000001
 21
23.824752000000441
 31
0.0
  0
LINE
  5
FC
  8
DETAIL
  6
CONTINUOUS
 62
     5
 10
-191.65984895949239
 20
23.824752000000441
 30
0.0
 11
-182.4895919999999
 21
23.824752000000441
 31
0.0
  0
LINE
  5
FD
  8
DETAIL
  6
CONTINUOUS
 62
     5
 10
182.4895919999999
 20
23.824752000000441
 30
0.0
 11
191.69916000000001
 21
23.824752000000441
 31
0.0
  0
LINE
  5
FE
  8
DETAIL
  6
CONTINUOUS
 62
     5
 10
191.5260334259219
 20
23.324231999999029
 30
0.0
 11
191.69916000000001
 21
23.324231999999029
 31
0.0
  0
LINE
  5
FF
  8
DETAIL
  6
CONTINUOUS
 62
     5
 10
-191.19864000000001
 20
21.422255999998011
 30
0.0
 11
191.19864000000001
 21
21.422255999998011
 31
0.0
  0
LINE
  5
100
  8
DETAIL
  6
CONTINUOUS
 62
     5
 10
-191.49895199999969
 20
20.221008000000442
 30
0.0
 11
191.4989520000004
 21
20.221008000000442
 31
0.0
  0
LINE
  5
101
  8
DETAIL
  6
CONTINUOUS
 62
     5
 10
191.69916000000001
 20
18.81955200000084
 30
0.0
 11
191.48672167918079
 21
18.81955200000084
 31
0.0
  0
LINE
  5
102
  8
DETAIL
  6
CONTINUOUS
 62
     5
 10
-191.69916000000001
 20
18.81955200000084
 30
0.0
 11
-191.4867216786804
 21
18.81955200000084
 31
0.0
  0
LINE
  5
103
  8
DETAIL
  6
CONTINUOUS
 62
     5
 10
-191.69916000000001
 20
10.41081599999961
 30
0.0
 11
-192.49999199999999
 21
10.41081599999961
 31
0.0
  0
LINE
  5
104
  8
DETAIL
  6
CONTINUOUS
 62
     5
 10
191.69916000000001
 20
10.41081599999961
 30
0.0
 11
192.49999199999999
 21
10.41081599999961
 31
0.0
  0
LINE
  5
105
  8
DETAIL
  6
CONTINUOUS
 62
     5
 10
-217.52599200000009
 20
9.6099839999988035
 30
0.0
 11
-193.30082399999989
 21
9.6099839999988035
 31
0.0
  0
LINE
  5
106
  8
DETAIL
  6
CONTINUOUS
 62
     5
 10
193.30082399999941
 20
9.6099839999988035
 30
0.0
 11
217.5259920000002
 21
9.6099839999988035
 31
0.0
  0
LINE
  5
107
  8
DETAIL
  6
CONTINUOUS
 62
     5
 10
-217.52599200000009
 20
8.8091520000016281
 30
0.0
 11
-193.30082399999989
 21
8.8091520000016281
 31
0.0
  0
LINE
  5
108
  8
DETAIL
  6
CONTINUOUS
 62
     5
 10
193.30082399999941
 20
8.8091520000016281
 30
0.0
 11
217.5259920000002
 21
8.8091520000016281
 31
0.0
  0
LINE
  5
109
  8
DETAIL
  6
CONTINUOUS
 62
     5
 10
-212.7210000000002
 20
0.0
 30
0.0
 11
212.721
 21
0.0
 31
0.0
  0
LINE
  5
10A
  8
DETAIL
  6
CONTINUOUS
 62
     5
 10
-212.7210000000002
 20
-9.0093600000000151
 30
0.0
 11
212.721
 21
-9.0093600000000151
 31
0.0
  0
LINE
  5
10B
  8
DETAIL
  6
CONTINUOUS
 62
     5
 10
179.48647199999999
 20
26.82787199999802
 30
0.0
 11
179.48647199999999
 21
231.5979709666826
 31
0.0
  0
LINE
  5
10C
  8
DETAIL
  6
CONTINUOUS
 62
     5
 10
191.4488999999999
 20
20.221008000000442
 30
0.0
 11
191.417450602607
 21
23.824752000000441
 31
0.0
  0
LINE
  5
10D
  8
DETAIL
  6
CONTINUOUS
 62
     5
 10
190.60680460014831
 20
245.7064588802277
 30
0.0
 11
190.60680460014831
 21
244.64164160326979
 31
0.0
  0
LINE
  5
10E
  8
DETAIL
  6
CONTINUOUS
 62
     5
 10
190.89832799999971
 20
244.25375999999599
 30
0.0
 11
190.89832799999971
 21
23.824752000000441
 31
0.0
  0
LINE
  5
10F
  8
DETAIL
  6
CONTINUOUS
 62
     5
 10
190.9483799999997
 20
245.33785364354841
 30
0.0
 11
190.9483799999997
 21
245.72219520149881
 31
0.0
  0
LINE
  5
110
  8
DETAIL
  6
CONTINUOUS
 62
     5
 10
191.098536
 20
247.25687999999721
 30
0.0
 11
191.098536
 21
246.45604800000001
 31
0.0
  0
LINE
  5
111
  8
DETAIL
  6
CONTINUOUS
 62
     5
 10
191.098536
 20
246.45604800000001
 30
0.0
 11
191.098536
 21
245.80299891004691
 31
0.0
  0
LINE
  5
112
  8
DETAIL
  6
CONTINUOUS
 62
     5
 10
191.19864000000001
 20
20.221008000000442
 30
0.0
 11
191.19864000000001
 21
23.824752000000441
 31
0.0
  0
LINE
  5
113
  8
DETAIL
  6
CONTINUOUS
 62
     5
 10
191.19864000000001
 20
247.25687999999721
 30
0.0
 11
191.19864000000001
 21
252.26207999999681
 31
0.0
  0
LINE
  5
114
  8
DETAIL
  6
CONTINUOUS
 62
     5
 10
191.69916000000001
 20
23.824752000000441
 30
0.0
 11
191.69916000000001
 21
10.41081599999961
 31
0.0
  0
LINE
  5
115
  8
DETAIL
  6
CONTINUOUS
 62
     5
 10
192.49999199999999
 20
245.85542399999761
 30
0.0
 11
192.49999199999999
 21
10.41081599999961
 31
0.0
  0
LINE
  5
116
  8
DETAIL
  6
CONTINUOUS
 62
     5
 10
193.30082399999941
 20
8.8091520000016281
 30
0.0
 11
193.30082399999941
 21
9.6099839999988035
 31
0.0
  0
LINE
  5
117
  8
DETAIL
  6
CONTINUOUS
 62
     5
 10
193.7012399999999
 20
85.088400000000533
 30
0.0
 11
193.7012399999999
 21
55.057199999999291
 31
0.0
  0
LINE
  5
118
  8
DETAIL
  6
CONTINUOUS
 62
     5
 10
194.1016560000003
 20
196.7043599999997
 30
0.0
 11
194.1016560000003
 21
179.8868879999973
 31
0.0
  0
LINE
  5
119
  8
DETAIL
  6
CONTINUOUS
 62
     5
 10
194.20175999999989
 20
85.088400000000533
 30
0.0
 11
194.20175999999989
 21
55.057199999999291
 31
0.0
  0
LINE
  5
11A
  8
DETAIL
  6
CONTINUOUS
 62
     5
 10
194.90248799999969
 20
176.68356000000131
 30
0.0
 11
194.90248799999969
 21
176.78709969090781
 31
0.0
  0
LINE
  5
11B
  8
DETAIL
  6
CONTINUOUS
 62
     5
 10
195.70331999999959
 20
176.68356000000131
 30
0.0
 11
195.70331999999959
 21
178.28522399999929
 31
0.0
  0
LINE
  5
11C
  8
DETAIL
  6
CONTINUOUS
 62
     5
 10
197.2048799999998
 20
82.085279999999344
 30
0.0
 11
197.2048799999998
 21
58.060319999996857
 31
0.0
  0
LINE
  5
11D
  8
DETAIL
  6
CONTINUOUS
 62
     5
 10
207.5155920000002
 20
9.6099839999988035
 30
0.0
 11
207.5155920000002
 21
8.8091520000016281
 31
0.0
  0
LINE
  5
11E
  8
DETAIL
  6
CONTINUOUS
 62
     5
 10
191.53040139739281
 20
23.824752000000441
 30
0.0
 11
191.32248593696161
 21
0.0
 31
0.0
  0
LINE
  5
11F
  8
DETAIL
  6
CONTINUOUS
 62
     5
 10
212.721
 20
0.0
 30
0.0
 11
212.721
 21
-9.0093600000000151
 31
0.0
  0
LINE
  5
120
  8
DETAIL
  6
CONTINUOUS
 62
     5
 10
217.5259920000002
 20
9.6099839999988035
 30
0.0
 11
217.5259920000002
 21
8.8091520000016281
 31
0.0
  0
LINE
  5
121
  8
DETAIL
  6
CONTINUOUS
 62
     5
 10
226.73556000000011
 20
178.28522399999929
 30
0.0
 11
226.73556000000011
 21
176.68356000000131
 31
0.0
  0
LINE
  5
122
  8
DETAIL
  6
CONTINUOUS
 62
     5
 10
227.53639200000001
 20
168.8754479999989
 30
0.0
 11
227.53639200000001
 21
175.08189599999599
 31
0.0
  0
ARC
  5
123
  8
DETAIL
  6
CONTINUOUS
 62
     5
 10
-54.056160000000091
 20
280.1410439999965
 30
0.0
 40
5.5057200000000401
 50
90.0
 51
180.0
  0
ARC
  5
124
  8
DETAIL
  6
CONTINUOUS
 62
     5
 10
-51.667741085459063
 20
285.24634799999689
 30
0.0
 40
1.401455999999579
 50
90.0
 51
149.99999541590989
  0
ARC
  5
125
  8
DETAIL
  6
CONTINUOUS
 62
     5
 10
-53.343798156873618
 20
286.14728399999882
 30
0.0
 40
0.5005200000000502
 50
270.0
 51
330.00001408728701
  0
ARC
  5
126
  8
DETAIL
  6
CONTINUOUS
 62
     5
 10
-188.1955200000001
 20
242.85230399999639
 30
0.0
 40
3.003119999999869
 50
114.54545454549771
 51
152.8566076252975
  0
ARC
  5
127
  8
DETAIL
  6
CONTINUOUS
 62
     5
 10
-182.4895919999999
 20
231.5979709666826
 30
0.0
 40
3.0031200000000391
 50
0.000000000000007
 51
45.000000000010338
  0
ARC
  5
128
  8
DETAIL
  6
CONTINUOUS
 62
     5
 10
-176.3258290333147
 20
237.246479999998
 30
0.0
 40
3.0031200000000111
 50
270.0
 51
315.00000000000807
  0
ARC
  5
129
  8
DETAIL
  6
CONTINUOUS
 62
     5
 10
-176.84108296618501
 20
237.246479999998
 30
0.0
 40
3.00311999999952
 50
224.99999999999201
 51
270.0
  0
ARC
  5
12A
  8
DETAIL
  6
CONTINUOUS
 62
     5
 10
-164.82860296618509
 20
240.24959999999919
 30
0.0
 40
3.0031200000000111
 50
90.0
 51
134.99999999998971
  0
ARC
  5
12B
  8
DETAIL
  6
CONTINUOUS
 62
     5
 10
-191.09853600000011
 20
245.85542399999761
 30
0.0
 40
1.4014559999996501
 50
90.0
 51
180.0
  0
ARC
  5
12C
  8
DETAIL
  6
CONTINUOUS
 62
     5
 10
-191.09853600000011
 20
245.85542399999761
 30
0.0
 40
0.6006240000003804
 50
90.0
 51
180.0
  0
ARC
  5
12D
  8
DETAIL
  6
CONTINUOUS
 62
     5
 10
-85.746442966184986
 20
237.246479999998
 30
0.0
 40
3.00311999999952
 50
224.99999999999201
 51
270.0
  0
ARC
  5
12E
  8
DETAIL
  6
CONTINUOUS
 62
     5
 10
-97.243669033314745
 20
240.24959999999919
 30
0.0
 40
3.0031200000001701
 50
45.000000000010338
 51
90.0
  0
ARC
  5
12F
  8
DETAIL
  6
CONTINUOUS
 62
     5
 10
-61.463856000000312
 20
252.86270399999921
 30
0.0
 40
1.4014560000001091
 50
334.61533808968352
 51
0.000000000000007
  0
ARC
  5
130
  8
DETAIL
  6
CONTINUOUS
 62
     5
 10
16.016639999999821
 20
280.1410439999965
 30
0.0
 40
5.5057199999999904
 50
0.000000000000007
 51
90.0
  0
ARC
  5
131
  8
DETAIL
  6
CONTINUOUS
 62
     5
 10
13.628221085959471
 20
285.24634799999689
 30
0.0
 40
1.40145599999981
 50
30.000004584090082
 51
90.0
  0
ARC
  5
132
  8
DETAIL
  6
CONTINUOUS
 62
     5
 10
15.30427815687335
 20
286.14728399999882
 30
0.0
 40
0.5005200000002104
 50
209.99998591271299
 51
270.0
  0
ARC
  5
133
  8
DETAIL
  6
CONTINUOUS
 62
     5
 10
23.424336000000039
 20
252.86270399999921
 30
0.0
 40
1.40145600000009
 50
180.0
 51
205.3846619103164
  0
ARC
  5
134
  8
DETAIL
  6
CONTINUOUS
 62
     5
 10
188.1955199999997
 20
242.85230399999639
 30
0.0
 40
3.0031199999999791
 50
27.143392374702501
 51
65.454545454502295
  0
ARC
  5
135
  8
DETAIL
  6
CONTINUOUS
 62
     5
 10
176.84108296668549
 20
237.246479999998
 30
0.0
 40
3.0031200000000111
 50
270.0
 51
315.00000000000807
  0
ARC
  5
136
  8
DETAIL
  6
CONTINUOUS
 62
     5
 10
182.4895919999999
 20
231.5979709666826
 30
0.0
 40
3.003120000000528
 50
134.99999999998971
 51
180.0
  0
ARC
  5
137
  8
DETAIL
  6
CONTINUOUS
 62
     5
 10
191.098536
 20
245.85542399999761
 30
0.0
 40
1.40145600000009
 50
0.000000000000007
 51
90.0
  0
ARC
  5
138
  8
DETAIL
  6
CONTINUOUS
 62
     5
 10
191.098536
 20
245.85542399999761
 30
0.0
 40
0.6006239999999102
 50
0.000000000000007
 51
90.0
  0
ARC
  5
139
  8
DETAIL
  6
CONTINUOUS
 62
     5
 10
-226.73556000000011
 20
175.08189599999599
 30
0.0
 40
3.2033279999998312
 50
90.0
 51
180.0
  0
ARC
  5
13A
  8
DETAIL
  6
CONTINUOUS
 62
     5
 10
-195.7033200000003
 20
179.8868879999973
 30
0.0
 40
3.20332800000075
 50
270.0
 51
0.000000000000007
  0
ARC
  5
13B
  8
DETAIL
  6
CONTINUOUS
 62
     5
 10
-168.17472000000009
 20
146.75246399999739
 30
0.0
 40
3.0031200000000391
 50
180.0
 51
270.0
  0
ARC
  5
13C
  8
DETAIL
  6
CONTINUOUS
 62
     5
 10
-167.67420000000021
 20
147.75350399999661
 30
0.0
 40
1.9539941922153801
 50
180.0
 51
270.0
  0
ARC
  5
13D
  8
DETAIL
  6
CONTINUOUS
 62
     5
 10
-167.67420000000021
 20
159.76598400000151
 30
0.0
 40
1.9539941922153501
 50
90.0
 51
180.0
  0
ARC
  5
13E
  8
DETAIL
  6
CONTINUOUS
 62
     5
 10
-195.7033200000003
 20
179.8868879999973
 30
0.0
 40
1.601664000000359
 50
270.0
 51
0.000000000000007
  0
ARC
  5
13F
  8
DETAIL
  6
CONTINUOUS
 62
     5
 10
-226.73556000000011
 20
175.08189599999599
 30
0.0
 40
1.60166399999943
 50
90.0
 51
180.0
  0
ARC
  5
140
  8
DETAIL
  6
CONTINUOUS
 62
     5
 10
-131.1362400000003
 20
203.1110159999989
 30
0.0
 40
40.041600000000173
 50
289.70694060590489
 51
0.000000000000007
  0
ARC
  5
141
  8
DETAIL
  6
CONTINUOUS
 62
     5
 10
-131.1362400000003
 20
203.81174399999509
 30
0.0
 40
38.548699709241227
 50
198.84086796817911
 51
198.63144734831221
  0
ARC
  5
142
  8
DETAIL
  6
CONTINUOUS
 62
     5
 10
-116.6211600000001
 20
162.58743801815939
 30
0.0
 40
3.0031199999997682
 50
109.7069406059003
 51
180.0
  0
ARC
  5
143
  8
DETAIL
  6
CONTINUOUS
 62
     5
 10
-122.62740000000031
 20
146.75246399999739
 30
0.0
 40
3.0031200000000111
 50
270.0
 51
0.000000000000007
  0
ARC
  5
144
  8
DETAIL
  6
CONTINUOUS
 62
     5
 10
-123.62844
 20
159.76598400000151
 30
0.0
 40
1.9539941922158111
 50
0.000000000000007
 51
90.0
  0
ARC
  5
145
  8
DETAIL
  6
CONTINUOUS
 62
     5
 10
-123.62844
 20
147.75350399999661
 30
0.0
 40
1.9539941922153501
 50
270.0
 51
0.000000000000007
  0
CIRCLE
  5
146
  8
DETAIL
  6
CONTINUOUS
 62
     5
 10
-105.1092000000003
 20
93.196823999998756
 30
0.0
 40
44.089515953414271
  0
ARC
  5
147
  8
DETAIL
  6
CONTINUOUS
 62
     5
 10
-105.1092000000003
 20
93.196823999998756
 30
0.0
 40
38.548699709240481
 50
221.36855265170459
 51
221.25336620283139
  0
CIRCLE
  5
148
  8
DETAIL
  6
CONTINUOUS
 62
     5
 10
-105.1092000000003
 20
93.196823999998756
 30
0.0
 40
30.531720000000011
  0
CIRCLE
  5
149
  8
DETAIL
  6
CONTINUOUS
 62
     5
 10
-105.1092000000003
 20
93.196823999998756
 30
0.0
 40
25.27625999999999
  0
CIRCLE
  5
14A
  8
DETAIL
  6
CONTINUOUS
 62
     5
 10
-105.1092000000003
 20
93.196823999998756
 30
0.0
 40
24.02495503734421
  0
ARC
  5
14B
  8
DETAIL
  6
CONTINUOUS
 62
     5
 10
-40.04160000000001
 20
171.77846399999899
 30
0.0
 40
44.089515953414619
 50
322.39171698128661
 51
135.85521823321079
  0
ARC
  5
14C
  8
DETAIL
  6
CONTINUOUS
 62
     5
 10
-40.04160000000001
 20
171.77846399999899
 30
0.0
 40
44.089515953413851
 50
135.16300846397161
 51
282.27737448835097
  0
ARC
  5
14D
  8
DETAIL
  6
CONTINUOUS
 62
     5
 10
-40.04160000000001
 20
171.77846399999899
 30
0.0
 40
38.548699709240907
 50
18.03787718273524
 51
18.003548976496919
  0
CIRCLE
  5
14E
  8
DETAIL
  6
CONTINUOUS
 62
     5
 10
-40.04160000000001
 20
171.77846399999899
 30
0.0
 40
30.531720000000011
  0
CIRCLE
  5
14F
  8
DETAIL
  6
CONTINUOUS
 62
     5
 10
-40.04160000000001
 20
171.77846399999899
 30
0.0
 40
25.27625999999999
  0
CIRCLE
  5
150
  8
DETAIL
  6
CONTINUOUS
 62
     5
 10
-40.04160000000001
 20
171.77846399999899
 30
0.0
 40
24.02495503734421
  0
ARC
  5
151
  8
DETAIL
  6
CONTINUOUS
 62
     5
 10
226.73556000000011
 20
175.08189599999599
 30
0.0
 40
3.2033279999998312
 50
0.000000000000007
 51
90.0
  0
ARC
  5
152
  8
DETAIL
  6
CONTINUOUS
 62
     5
 10
194.90248799999969
 20
179.8868879999973
 30
0.0
 40
3.2033280000002602
 50
221.28240165460011
 51
270.0
  0
ARC
  5
153
  8
DETAIL
  6
CONTINUOUS
 62
     5
 10
195.70331999999959
 20
179.8868879999973
 30
0.0
 40
3.2033279999998201
 50
180.0
 51
270.0
  0
ARC
  5
154
  8
DETAIL
  6
CONTINUOUS
 62
     5
 10
195.70331999999959
 20
179.8868879999973
 30
0.0
 40
1.60166399999991
 50
180.0
 51
270.0
  0
ARC
  5
155
  8
DETAIL
  6
CONTINUOUS
 62
     5
 10
225.93472799999969
 20
175.08189599999599
 30
0.0
 40
1.601664000000369
 50
0.000000000000007
 51
90.0
  0
ARC
  5
156
  8
DETAIL
  6
CONTINUOUS
 62
     5
 10
226.73556000000011
 20
175.08189599999599
 30
0.0
 40
1.60166399999991
 50
0.000000000000007
 51
90.0
  0
ARC
  5
157
  8
DETAIL
  6
CONTINUOUS
 62
     5
 10
5.005200000000058
 20
93.196823999998756
 30
0.0
 40
44.089515953414242
 50
93.027917362014179
 51
102.3691370918974
  0
ARC
  5
158
  8
DETAIL
  6
CONTINUOUS
 62
     5
 10
5.005200000000058
 20
93.196823999998756
 30
0.0
 40
38.548699709241014
 50
339.84060045711487
 51
339.8066333594918
  0
CIRCLE
  5
159
  8
DETAIL
  6
CONTINUOUS
 62
     5
 10
5.005200000000058
 20
93.196823999998756
 30
0.0
 40
30.531720000000011
  0
CIRCLE
  5
15A
  8
DETAIL
  6
CONTINUOUS
 62
     5
 10
5.005200000000058
 20
93.196823999998756
 30
0.0
 40
25.276260000000001
  0
CIRCLE
  5
15B
  8
DETAIL
  6
CONTINUOUS
 62
     5
 10
5.005200000000058
 20
93.196823999998756
 30
0.0
 40
24.024955037344231
  0
ARC
  5
15C
  8
DETAIL
  6
CONTINUOUS
 62
     5
 10
194.20175999999989
 20
82.085279999999344
 30
0.0
 40
3.00312
 50
0.000000000000007
 51
90.0
  0
ARC
  5
15D
  8
DETAIL
  6
CONTINUOUS
 62
     5
 10
194.20175999999989
 20
58.060319999996857
 30
0.0
 40
3.003119999999988
 50
270.0
 51
0.000000000000007
  0
ARC
  5
15E
  8
DETAIL
  6
CONTINUOUS
 62
     5
 10
-182.4895919999999
 20
26.82787199999802
 30
0.0
 40
3.0031200000000111
 50
270.0
 51
0.000000000000007
  0
ARC
  5
15F
  8
DETAIL
  6
CONTINUOUS
 62
     5
 10
-193.30082399999989
 20
10.41081599999961
 30
0.0
 40
1.601664000000369
 50
270.0
 51
0.000000000000007
  0
ARC
  5
160
  8
DETAIL
  6
CONTINUOUS
 62
     5
 10
-193.30082399999989
 20
19.520279999997001
 30
0.0
 40
0.8008319999996997
 50
0.000000000000007
 51
90.0
  0
ARC
  5
161
  8
DETAIL
  6
CONTINUOUS
 62
     5
 10
-193.30082399999989
 20
25.926935999999841
 30
0.0
 40
0.8008320000001802
 50
270.0
 51
0.000000000000007
  0
ARC
  5
162
  8
DETAIL
  6
CONTINUOUS
 62
     5
 10
-193.30082399999989
 20
10.41081599999961
 30
0.0
 40
0.8008320000002003
 50
270.0
 51
0.000000000000007
  0
ARC
  5
163
  8
DETAIL
  6
CONTINUOUS
 62
     5
 10
182.4895919999999
 20
26.82787199999802
 30
0.0
 40
3.00312
 50
180.0
 51
270.0
  0
ARC
  5
164
  8
DETAIL
  6
CONTINUOUS
 62
     5
 10
193.30082399999941
 20
10.41081599999961
 30
0.0
 40
1.60166399999991
 50
180.0
 51
270.0
  0
ARC
  5
165
  8
DETAIL
  6
CONTINUOUS
 62
     5
 10
193.30082399999941
 20
10.41081599999961
 30
0.0
 40
0.8008319999997295
 50
180.0
 51
270.0
  0
LINE
  5
166
  8
DETAIL
  6
CONTINUOUS
 62
     5
 10
-104.2154542676094
 20
204.45186149606161
 30
0.0
 11
-104.15688396177531
 21
204.51190627825781
 31
0.0
  0
LINE
  5
167
  8
DETAIL
  6
CONTINUOUS
 62
     5
 10
-190.96612603069801
 20
245.72301193451861
 30
0.0
 11
-190.89832799999971
 21
244.25375999999599
 31
0.0
  0
LINE
  5
168
  8
DETAIL
  6
CONTINUOUS
 62
     5
 10
190.9661239345194
 20
245.72301403119849
 30
0.0
 11
189.4968720000002
 21
245.6552159999992
 31
0.0
  0
LINE
  5
169
  8
DETAIL
  6
CONTINUOUS
 62
     5
 10
-190.96612393401981
 20
245.72301403119849
 30
0.0
 11
-189.49687199999991
 21
245.6552159999992
 31
0.0
  0
LINE
  5
16A
  8
DETAIL
  6
CONTINUOUS
 62
     5
 10
190.96612603119769
 20
245.72301193451861
 30
0.0
 11
190.89832799999971
 21
244.25375999999599
 31
0.0
  0
LINE
  5
16B
  8
DETAIL
  6
CONTINUOUS
 62
     5
 10
191.0461109100504
 20
245.85542399999761
 30
0.0
 11
191.04176783244199
 21
245.80822542047099
 31
0.0
  0
LINE
  5
16C
  8
DETAIL
  6
CONTINUOUS
 62
     5
 10
191.04176783244199
 20
245.80822542047099
 30
0.0
 11
191.03502359472171
 21
245.73495489179189
 31
0.0
  0
LINE
  5
16D
  8
DETAIL
  6
CONTINUOUS
 62
     5
 10
191.03502359472171
 20
245.73495489179189
 30
0.0
 11
190.89832799999971
 21
244.25375999999599
 31
0.0
  0
LINE
  5
16E
  8
DETAIL
  6
CONTINUOUS
 62
     5
 10
-191.09853600000011
 20
245.80299891004691
 30
0.0
 11
-191.05133742047431
 21
245.79865583294301
 31
0.0
  0
LINE
  5
16F
  8
DETAIL
  6
CONTINUOUS
 62
     5
 10
-191.05133742047431
 20
245.79865583294301
 30
0.0
 11
-190.97806689129121
 21
245.79191159472251
 31
0.0
  0
LINE
  5
170
  8
DETAIL
  6
CONTINUOUS
 62
     5
 10
-190.97806689129121
 20
245.79191159472251
 30
0.0
 11
-189.49687199999991
 21
245.6552159999992
 31
0.0
  0
LINE
  5
171
  8
DETAIL
  6
CONTINUOUS
 62
     5
 10
-191.04611090955021
 20
245.85542399999761
 30
0.0
 11
-191.0417678324425
 21
245.80822542047099
 31
0.0
  0
LINE
  5
172
  8
DETAIL
  6
CONTINUOUS
 62
     5
 10
-191.0417678324425
 20
245.80822542047099
 30
0.0
 11
-191.03502359422191
 21
245.73495489179189
 31
0.0
  0
LINE
  5
173
  8
DETAIL
  6
CONTINUOUS
 62
     5
 10
-191.03502359422191
 20
245.73495489179189
 30
0.0
 11
-190.89832799999971
 21
244.25375999999599
 31
0.0
  0
LINE
  5
174
  8
DETAIL
  6
CONTINUOUS
 62
     5
 10
191.098536
 20
245.80299891004691
 30
0.0
 11
191.0513374204738
 21
245.79865583294301
 31
0.0
  0
LINE
  5
175
  8
DETAIL
  6
CONTINUOUS
 62
     5
 10
191.0513374204738
 20
245.79865583294301
 30
0.0
 11
190.97806689179109
 21
245.79191159472251
 31
0.0
  0
LINE
  5
176
  8
DETAIL
  6
CONTINUOUS
 62
     5
 10
190.97806689179109
 20
245.79191159472251
 30
0.0
 11
189.4968720000002
 21
245.6552159999992
 31
0.0
  0
CIRCLE
  5
177
  8
DETAIL
  6
CONTINUOUS
 62
     5
 10
-131.1362400000003
 20
203.1110159999989
 30
0.0
 40
25.276260000000011
  0
CIRCLE
  5
178
  8
DETAIL
  6
CONTINUOUS
 62
     5
 10
-131.1362400000003
 20
203.1110159999989
 30
0.0
 40
24.024955037344249
  0
CIRCLE
  5
179
  8
DETAIL
  6
CONTINUOUS
 62
     5
 10
-131.1362400000003
 20
203.1110159999989
 30
0.0
 40
30.531720000000011
  0
ARC
  5
17A
  8
DETAIL
  6
CONTINUOUS
 62
     5
 10
-40.04160000000001
 20
171.77846399999899
 30
0.0
 40
44.089515953414249
 50
317.32262551164922
 51
325.45927317673107
  0
ARC
  5
17B
  8
DETAIL
  6
CONTINUOUS
 62
     5
 10
5.005200000000058
 20
93.196823999998756
 30
0.0
 40
44.089515953414299
 50
137.2308629081019
 51
92.850432984898944
  0
ARC
  5
17C
  8
DETAIL
  6
CONTINUOUS
 62
     5
 10
70.07279999999993
 20
171.77846399999899
 30
0.0
 40
44.089515953413851
 50
135.16300846397161
 51
282.27737448835097
  0
ARC
  5
17D
  8
DETAIL
  6
CONTINUOUS
 62
     5
 10
70.07279999999993
 20
171.77846399999899
 30
0.0
 40
38.548699709240893
 50
18.03787718273524
 51
18.003548976496919
  0
CIRCLE
  5
17E
  8
DETAIL
  6
CONTINUOUS
 62
     5
 10
70.07279999999993
 20
171.77846399999899
 30
0.0
 40
24.02495503734421
  0
CIRCLE
  5
17F
  8
DETAIL
  6
CONTINUOUS
 62
     5
 10
70.07279999999993
 20
171.77846399999899
 30
0.0
 40
25.276260000000001
  0
CIRCLE
  5
180
  8
DETAIL
  6
CONTINUOUS
 62
     5
 10
70.07279999999993
 20
171.77846399999899
 30
0.0
 40
30.531720000000011
  0
ARC
  5
181
  8
DETAIL
  6
CONTINUOUS
 62
     5
 10
70.07279999999993
 20
171.77846399999899
 30
0.0
 40
44.089515953414619
 50
322.39171698128661
 51
135.85521823321079
  0
ARC
  5
182
  8
DETAIL
  6
CONTINUOUS
 62
     5
 10
70.07279999999993
 20
171.77846399999899
 30
0.0
 40
44.089515953414271
 50
317.32262551164922
 51
325.45927317673107
  0
LINE
  5
183
  8
DETAIL
  6
CONTINUOUS
 62
     5
 10
78.968518058954032
 20
120.96785315795201
 30
0.0
 11
82.753673919291487
 21
123.13563235878971
 31
0.0
  0
LINE
  5
184
  8
DETAIL
  6
CONTINUOUS
 62
     5
 10
105.6752199546554
 20
136.26292554826421
 30
0.0
 11
109.3718955893664
 21
138.38003164609839
 31
0.0
  0
LINE
  5
185
  8
DETAIL
  6
CONTINUOUS
 62
     5
 10
82.753673919291487
 20
123.13563235878971
 30
0.0
 11
105.6752199546554
 21
136.26292554826421
 31
0.0
  0
ARC
  5
186
  8
DETAIL
  6
CONTINUOUS
 62
     5
 10
115.11959999999949
 20
93.196823999998756
 30
0.0
 40
45.547319999996127
 50
142.3504063177005
 51
97.249593682293877
  0
LINE
  5
187
  8
DETAIL
  6
CONTINUOUS
 62
     5
 10
5.0051999999996042
 20
93.196823999998756
 30
0.0
 11
93.597240000003254
 21
93.196823999998756
 31
0.0
  0
LINE
  5
188
  8
NOTE
  6
DASHDOT
 62
     4
 10
-157.41354000000001
 20
203.1110159999989
 30
0.0
 11
-104.8589400000001
 21
203.1110159999989
 31
0.0
  0
LINE
  5
189
  8
NOTE
  6
DASHDOT
 62
     4
 10
133.21381069027171
 20
171.77846399999899
 30
0.0
 11
-93.069619276500362
 21
171.77846399999899
 31
0.0
  0
LINE
  5
18A
  8
NOTE
  6
DASHDOT
 62
     4
 10
-131.1362400000003
 20
229.3883160000004
 30
0.0
 11
-131.1362400000003
 21
176.833716000001
 31
0.0
  0
LINE
  5
18B
  8
NOTE
  6
DASHDOT
 62
     4
 10
-105.1092000000003
 20
144.06664773697551
 30
0.0
 11
-105.1092000000003
 21
50.152103999997053
 31
0.0
  0
LINE
  5
18C
  8
NOTE
  6
DASHDOT
 62
     4
 10
-163.0855694752122
 20
93.196823999998756
 30
0.0
 11
158.1643199999998
 21
93.196823999998756
 31
0.0
  0
LINE
  5
18D
  8
DETAIL
  6
CONTINUOUS
 62
     5
 10
193.7012399999999
 20
85.088400000000533
 30
0.0
 11
194.20175999999989
 21
85.088400000000533
 31
0.0
  0
LINE
  5
18E
  8
NOTE
  6
DASHDOT
 62
     4
 10
-40.04160000000001
 20
224.21168182805329
 30
0.0
 11
-40.04160000000001
 21
128.733744000001
 31
0.0
  0
LINE
  5
18F
  8
NOTE
  6
DASHDOT
 62
     4
 10
0.0
 20
296.83493557504647
 30
0.0
 11
0.0
 21
-38.626768258436641
 31
0.0
  0
LINE
  5
190
  8
DETAIL
  6
CONTINUOUS
 62
     5
 10
193.7012399999999
 20
55.057199999999291
 30
0.0
 11
194.20175999999989
 21
55.057199999999291
 31
0.0
  0
LINE
  5
191
  8
NOTE
  6
DASHDOT
 62
     4
 10
5.005200000000058
 20
145.0811422040006
 30
0.0
 11
5.005200000000058
 21
50.152103999997053
 31
0.0
  0
LINE
  5
192
  8
NOTE
  6
DASHDOT
 62
     4
 10
70.07279999999993
 20
226.24067076210389
 30
0.0
 11
70.07279999999993
 21
128.733744000001
 31
0.0
  0
LINE
  5
193
  8
NOTE
  6
DASHDOT
 62
     4
 10
115.11960000000001
 20
147.61737631414141
 30
0.0
 11
115.11960000000001
 21
50.152103999997053
 31
0.0
  0
CIRCLE
  5
194
  8
DETAIL
  6
CONTINUOUS
 62
     5
 10
-105.1092000000003
 20
93.196823999998756
 30
0.0
 40
45.54732000000002
  0
ARC
  5
195
  8
DETAIL
  6
CONTINUOUS
 62
     5
 10
-40.04160000000001
 20
171.77846399999899
 30
0.0
 40
45.547319999999992
 50
322.41986494805508
 51
277.1801350519608
  0
LINE
  5
196
  8
NOTE
  6
DASHDOT
 62
     4
 10
-211.61985600000031
 20
191.12512964284539
 30
0.0
 11
-211.61985600000031
 21
164.42087076051391
 31
0.0
  0
LINE
  5
197
  8
NOTE
  6
DASHDOT
 62
     4
 10
211.61985600000031
 20
191.12512964284539
 30
0.0
 11
211.61985600000031
 21
164.42087076051391
 31
0.0
  0
LINE
  5
198
  8
DETAIL
  6
CONTINUOUS
 62
     5
 10
-34.348674579433009
 20
126.5883217194278
 30
0.0
 11
-3.9452970490178809
 21
144.00050020757411
 31
0.0
  0
LINE
  5
199
  8
DETAIL
  6
CONTINUOUS
 62
     5
 10
-31.145881941050451
 20
120.96785315795201
 30
0.0
 11
-27.360726080709359
 21
123.13563235878971
 31
0.0
  0
LINE
  5
19A
  8
DETAIL
  6
CONTINUOUS
 62
     5
 10
-4.439180045345438
 20
136.26292554826421
 30
0.0
 11
-0.7425044106353198
 21
138.38003164609839
 31
0.0
  0
LINE
  5
19B
  8
DETAIL
  6
CONTINUOUS
 62
     5
 10
-27.360726080709359
 20
123.13563235878971
 30
0.0
 11
-4.439180045345438
 21
136.26292554826421
 31
0.0
  0
ARC
  5
19C
  8
DETAIL
  6
CONTINUOUS
 62
     5
 10
5.005200000000058
 20
93.196823999998756
 30
0.0
 40
45.547319999999999
 50
142.3504063177005
 51
97.249593682297132
  0
ARC
  5
19D
  8
DETAIL
  6
CONTINUOUS
 62
     5
 10
70.07279999999993
 20
171.77846399999899
 30
0.0
 40
45.547319999999999
 50
322.41986494805508
 51
277.1801350519608
  0
LINE
  5
19E
  8
DETAIL
  6
CONTINUOUS
 62
     5
 10
75.765725420567392
 20
126.5883217194278
 30
0.0
 11
106.16910295098199
 21
144.00050020757411
 31
0.0
  0
LINE
  5
19F
  8
OUTLINE
  6
CONTINUOUS
 62
     3
 10
-51.667656428507129
 20
286.64780399999648
 30
0.0
 11
13.628136429007551
 21
286.64780399999648
 31
0.0
  0
LINE
  5
1A0
  8
OUTLINE
  6
CONTINUOUS
 62
     3
 10
16.01653158086128
 20
285.64676399999718
 30
0.0
 11
14.97125717887698
 21
285.64676399999718
 31
0.0
  0
LINE
  5
1A1
  8
OUTLINE
  6
CONTINUOUS
 62
     3
 10
-217.52599200000009
 20
9.6099839999988035
 30
0.0
 11
-217.52599200000009
 21
8.8091520000016281
 31
0.0
  0
LINE
  5
1A2
  8
OUTLINE
  6
CONTINUOUS
 62
     3
 10
-212.7210000000002
 20
-9.0093600000000151
 30
0.0
 11
-212.7210000000002
 21
0.0
 31
0.0
  0
LINE
  5
1A3
  8
OUTLINE
  6
CONTINUOUS
 62
     3
 10
-191.19864000000001
 20
252.26207999999681
 30
0.0
 11
-60.197629428427462
 21
252.26207999999659
 31
0.0
  0
LINE
  5
1A4
  8
OUTLINE
  6
CONTINUOUS
 62
     3
 10
-191.39936224134371
 20
8.8091520000016281
 30
0.0
 11
-191.32248593646131
 21
0.0
 31
0.0
  0
LINE
  5
1A5
  8
OUTLINE
  6
CONTINUOUS
 62
     3
 10
-192.49999199999999
 20
245.85542399999761
 30
0.0
 11
-192.49999199999999
 21
10.41081599999961
 31
0.0
  0
LINE
  5
1A6
  8
OUTLINE
  6
CONTINUOUS
 62
     3
 10
-191.19864000000001
 20
247.25330028534839
 30
0.0
 11
-191.19864000000001
 21
252.26207999999681
 31
0.0
  0
LINE
  5
1A7
  8
OUTLINE
  6
CONTINUOUS
 62
     3
 10
-52.881437527888473
 20
285.94707609709798
 30
0.0
 11
-52.910335060098973
 21
285.89702410660908
 31
0.0
  0
LINE
  5
1A8
  8
OUTLINE
  6
CONTINUOUS
 62
     3
 10
-60.062400000000238
 20
258.13613185966102
 30
0.0
 11
-59.561880000000201
 21
259.0030579300801
 31
0.0
  0
LINE
  5
1A9
  8
OUTLINE
  6
CONTINUOUS
 62
     3
 10
14.841917527889111
 20
285.94707609709798
 30
0.0
 11
14.8708150605994
 21
285.89702410660908
 31
0.0
  0
LINE
  5
1AA
  8
OUTLINE
  6
CONTINUOUS
 62
     3
 10
22.02287999999999
 20
258.13613185966102
 30
0.0
 11
21.522359999999932
 21
259.0030579300801
 31
0.0
  0
LINE
  5
1AB
  8
OUTLINE
  6
CONTINUOUS
 62
     3
 10
-60.062400000000238
 20
258.13613185966102
 30
0.0
 11
-60.062400000000238
 21
252.86270399999921
 31
0.0
  0
LINE
  5
1AC
  8
OUTLINE
  6
CONTINUOUS
 62
     3
 10
-59.561880000000201
 20
280.1410439999965
 30
0.0
 11
-59.561880000000201
 21
259.0030579300801
 31
0.0
  0
LINE
  5
1AD
  8
OUTLINE
  6
CONTINUOUS
 62
     3
 10
21.522359999999932
 20
280.1410439999965
 30
0.0
 11
21.522359999999932
 21
259.0030579300801
 31
0.0
  0
LINE
  5
1AE
  8
OUTLINE
  6
CONTINUOUS
 62
     3
 10
22.02287999999999
 20
258.13613185966102
 30
0.0
 11
22.02287999999999
 21
252.86270399999921
 31
0.0
  0
LINE
  5
1AF
  8
OUTLINE
  6
CONTINUOUS
 62
     3
 10
-217.52599200000009
 20
9.6099839999988035
 30
0.0
 11
-193.30082399999989
 21
9.6099839999988035
 31
0.0
  0
LINE
  5
1B0
  8
OUTLINE
  6
CONTINUOUS
 62
     3
 10
193.30082399999941
 20
9.6099839999988035
 30
0.0
 11
217.5259920000002
 21
9.6099839999988035
 31
0.0
  0
LINE
  5
1B1
  8
OUTLINE
  6
CONTINUOUS
 62
     3
 10
-217.52599200000009
 20
8.8091520000016281
 30
0.0
 11
-191.39936224134371
 21
8.8091520000016281
 31
0.0
  0
LINE
  5
1B2
  8
OUTLINE
  6
CONTINUOUS
 62
     3
 10
191.39936224165879
 20
8.8091520000016281
 30
0.0
 11
217.5259920000002
 21
8.8091520000016281
 31
0.0
  0
LINE
  5
1B3
  8
OUTLINE
  6
CONTINUOUS
 62
     3
 10
-212.7210000000002
 20
0.0
 30
0.0
 11
-191.32248593646131
 21
0.0
 31
0.0
  0
LINE
  5
1B4
  8
OUTLINE
  6
CONTINUOUS
 62
     3
 10
-212.7210000000002
 20
-9.0093600000000151
 30
0.0
 11
212.721
 21
-9.0093600000000151
 31
0.0
  0
LINE
  5
1B5
  8
OUTLINE
  6
CONTINUOUS
 62
     3
 10
191.19864000000001
 20
247.25330028534839
 30
0.0
 11
191.19864000000001
 21
252.26207999999681
 31
0.0
  0
LINE
  5
1B6
  8
OUTLINE
  6
CONTINUOUS
 62
     3
 10
192.49999199999999
 20
245.85542399999761
 30
0.0
 11
192.49999199999999
 21
10.41081599999961
 31
0.0
  0
LINE
  5
1B7
  8
OUTLINE
  6
CONTINUOUS
 62
     3
 10
191.39936224165879
 20
8.8091520000016281
 30
0.0
 11
191.32248593696161
 21
0.0
 31
0.0
  0
LINE
  5
1B8
  8
OUTLINE
  6
CONTINUOUS
 62
     3
 10
212.721
 20
0.0
 30
0.0
 11
212.721
 21
-9.0093600000000151
 31
0.0
  0
LINE
  5
1B9
  8
OUTLINE
  6
CONTINUOUS
 62
     3
 10
217.5259920000002
 20
9.6099839999988035
 30
0.0
 11
217.5259920000002
 21
8.8091520000016281
 31
0.0
  0
ARC
  5
1BA
  8
OUTLINE
  6
CONTINUOUS
 62
     3
 10
-54.056160000000091
 20
280.1410439999965
 30
0.0
 40
5.5057200000000401
 50
90.0
 51
180.0
  0
ARC
  5
1BB
  8
OUTLINE
  6
CONTINUOUS
 62
     3
 10
-51.667741085459063
 20
285.24634799999689
 30
0.0
 40
1.401455999999579
 50
90.0
 51
149.99999541590989
  0
ARC
  5
1BC
  8
OUTLINE
  6
CONTINUOUS
 62
     3
 10
-53.343798156873618
 20
286.14728399999882
 30
0.0
 40
0.5005200000000502
 50
270.0
 51
330.00001408728701
  0
ARC
  5
1BD
  8
OUTLINE
  6
CONTINUOUS
 62
     3
 10
-191.09853600000011
 20
245.85542399999761
 30
0.0
 40
1.4014559999996501
 50
94.096043758120274
 51
180.0
  0
ARC
  5
1BE
  8
OUTLINE
  6
CONTINUOUS
 62
     3
 10
-61.463856000000312
 20
252.86270399999921
 30
0.0
 40
1.4014560000001091
 50
334.61533808968352
 51
0.000000000000007
  0
ARC
  5
1BF
  8
OUTLINE
  6
CONTINUOUS
 62
     3
 10
16.016639999999821
 20
280.1410439999965
 30
0.0
 40
5.5057199999999904
 50
0.000000000000007
 51
90.0
  0
ARC
  5
1C0
  8
OUTLINE
  6
CONTINUOUS
 62
     3
 10
13.628221085959471
 20
285.24634799999689
 30
0.0
 40
1.40145599999981
 50
30.000004584090082
 51
90.0
  0
ARC
  5
1C1
  8
OUTLINE
  6
CONTINUOUS
 62
     3
 10
15.30427815687335
 20
286.14728399999882
 30
0.0
 40
0.5005200000002104
 50
209.99998591271299
 51
270.0
  0
ARC
  5
1C2
  8
OUTLINE
  6
CONTINUOUS
 62
     3
 10
23.424336000000039
 20
252.86270399999921
 30
0.0
 40
1.40145600000009
 50
180.0
 51
205.3846619103164
  0
ARC
  5
1C3
  8
OUTLINE
  6
CONTINUOUS
 62
     3
 10
191.098536
 20
245.85542399999761
 30
0.0
 40
1.40145600000009
 50
0.000000000000007
 51
85.903956241869935
  0
ARC
  5
1C4
  8
OUTLINE
  6
CONTINUOUS
 62
     3
 10
-193.30082399999989
 20
10.41081599999961
 30
0.0
 40
0.8008320000002003
 50
270.0
 51
0.000000000000007
  0
ARC
  5
1C5
  8
OUTLINE
  6
CONTINUOUS
 62
     3
 10
193.30082399999941
 20
10.41081599999961
 30
0.0
 40
0.8008319999997295
 50
180.0
 51
270.0
  0
LINE
  5
1C6
  8
OUTLINE
  6
CONTINUOUS
 62
     3
 10
-53.010777178376337
 20
285.64676399999718
 30
0.0
 11
-54.056051580360872
 21
285.64676399999718
 31
0.0
  0
LINE
  5
1C7
  8
OUTLINE
  6
CONTINUOUS
 62
     3
 10
22.15810942842722
 20
252.26207999999659
 30
0.0
 11
191.19864000000001
 21
252.26207999999681
 31
0.0
  0
LINE
  5
1C8
  8
OUTLINE
  6
CONTINUOUS
 62
     3
 10
191.32248593696161
 20
0.0
 30
0.0
 11
212.721
 21
0.0
 31
0.0
  0
LINE
  5
1C9
  8
NOTE
  6
DASHDOT
 62
     4
 10
205.5
 20
24.829491346650229
 30
0.0
 11
205.5
 21
1.578872253395273
 31
0.0
  0
LINE
  5
1CA
  8
NOTE
  6
DASHDOT
 62
     4
 10
-205.5
 20
24.829491346650229
 30
0.0
 11
-205.5
 21
1.578872253395273
 31
0.0
  0
CIRCLE
  5
1CB
  8
FIX
  6
CONTINUOUS
 62
    11
 39
50.0
 10
211.61985600000031
 20
176.68356000000131
 30
0.0
 40
3.0
  0
CIRCLE
  5
1CC
  8
FIX
  6
CONTINUOUS
 62
    11
 39
50.0
 10
205.5
 20
8.8091520000016281
 30
0.0
 40
3.0
  0
CIRCLE
  5
1CD
  8
FIX
  6
CONTINUOUS
 62
    11
 39
50.0
 10
-205.5
 20
8.8091520000016281
 30
0.0
 40
3.0
  0
CIRCLE
  5
1CE
  8
FIX
  6
CONTINUOUS
 62
    11
 39
50.0
 10
-211.61985600000031
 20
176.68356000000131
 30
0.0
 40
3.0
  0
LINE
  5
1CF
  8
NOTE
  6
DASHDOT
 62
     4
 10
171.61876430700281
 20
69.809152000001632
 30
0.0
 11
217.5259920000002
 21
69.809152000001632
 31
0.0
  0
CIRCLE
  5
1D0
  8
ARRANGE
  6
CONTINUOUS
 62
     1
 10
0.0
 20
0.0
 30
0.0
 40
40.0
  0
POINT
  5
1D1
  8
ARRANGE
  6
CONTINUOUS
 62
     1
 10
0.0
 20
0.0
 30
0.0
 39
50.0
 50
180.0
  0
LINE
  5
1D2
  8
BASIS
  6
DASHDOT
 62
     6
 39
50.0
 10
0.0
 20
-97.413316491394639
 30
0.0
 11
0.0
 21
121.1574855372337
 31
0.0
  0
LINE
  5
1D3
  8
BASIS
  6
DASHDOT
 62
     6
 39
50.0
 10
-128.789675687467
 20
0.0
 30
0.0
 11
122.12257372271419
 21
0.0
 31
0.0
  0
LINE
  5
1D4
  8
NOTE
  6
CONTINUOUS
 62
     4
 10
392.97252600000002
 20
332.37667426329602
 30
0.0
 11
518.19375199999968
 21
332.37667426329602
 31
0.0
  0
LINE
  5
1D5
  8
NOTE
  6
CONTINUOUS
 62
     4
 10
197.2048799999998
 20
69.809152000001632
 30
0.0
 11
392.97252600000002
 21
332.37667426329602
 31
0.0
  0
TEXT
  5
1D6
  8
NOTE
  6
CONTINUOUS
 62
     4
 10
-243.47194749158459
 20
171.77846399999899
 30
0.0
 40
64.0
  1
RA2
 41
0.9
  0
TEXT
  5
1D7
  8
NOTE
  6
CONTINUOUS
 62
     4
 10
16.376742857142869
 20
147.61737631414141
 30
0.0
 40
64.0
  1
SA
 41
0.9
  0
TEXT
  5
1D8
  8
NOTE
  6
CONTINUOUS
 62
     4
 10
428.36994199999981
 20
349.15629926329598
 30
0.0
 40
64.0
  1
EL
 41
0.9
  0
LINE
  5
1D9
  8
NOTE
  6
CONTINUOUS
 62
     4
 10
-211.61985600000031
 20
176.68356000000131
 30
0.0
 11
-421.66674114320449
 21
419.30922203391373
 31
0.0
  0
TEXT
  5
1DA
  8
NOTE
  6
CONTINUOUS
 62
     4
 10
-643.47885692456396
 20
436.96145233317458
 30
0.0
 40
64.0
  1
AH 4
 41
0.9
  0
LINE
  5
1DB
  8
NOTE
  6
CONTINUOUS
 62
     4
 10
-666.34804904384043
 20
419.30922203391373
 30
0.0
 11
-421.66674114320449
 21
419.30922203391373
 31
0.0
  0
LINE
  5
1DC
  8
NOTE
  6
CONTINUOUS
 62
     4
 10
209.78009714701329
 20
109.4200562648202
 30
0.0
 11
197.2048799999998
 21
69.809152000001632
 31
0.0
  0
LINE
  5
1DD
  8
NOTE
  6
CONTINUOUS
 62
     4
 10
197.2048799999998
 20
69.809152000001632
 30
0.0
 11
228.0894847349355
 21
94.217396184631085
 31
0.0
  0
LINE
  5
1DE
  8
NOTE
  6
CONTINUOUS
 62
     4
 10
-244.51262578510429
 20
196.13691499230009
 30
0.0
 11
-211.61985600000031
 21
176.68356000000131
 31
0.0
  0
LINE
  5
1DF
  8
NOTE
  6
CONTINUOUS
 62
     4
 10
-211.61985600000031
 20
176.68356000000131
 30
0.0
 11
-228.45729297142589
 21
209.79793312033601
 31
0.0
  0
TEXT
  5
1E0
  8
NOTE
  6
CONTINUOUS
 62
     4
 10
-93.666454851509002
 20
144.72216117106109
 30
0.0
 40
64.0
  1
SA
 41
0.9
  0
TEXT
  5
1E1
  8
NOTE
  6
CONTINUOUS
 62
     4
 10
60.5388224323234
 20
59.313225883637656
 30
0.0
 40
64.0
  1
SA
 41
0.9
  0
TEXT
  5
1E2
  8
NOTE
  6
CONTINUOUS
 62
     4
 10
-45.884542152509177
 20
60.037029669407282
 30
0.0
 40
64.0
  1
SA
 41
0.9
  0
TEXT
  5
1E3
  8
NOTE
  6
CONTINUOUS
 62
     4
 10
-153.75583202379659
 20
63.65606125062186
 30
0.0
 40
64.0
  1
SA
 41
0.9
  0
TEXT
  5
1E4
  8
NOTE
  6
CONTINUOUS
 62
     4
 10
-83.682453571381274
 20
-111.51193818473079
 30
0.0
 40
64.0
  1
RA1
 41
0.9
  0
LINE
  5
1E5
  8
NOTE
  6
CONTINUOUS
 62
     4
 10
-205.5
 20
8.8091520000016281
 30
0.0
 11
-394.58228687231002
 21
298.85015506164649
 31
0.0
  0
LINE
  5
1E6
  8
NOTE
  6
CONTINUOUS
 62
     4
 10
-1018.533643789494
 20
298.85015506164649
 30
0.0
 11
-394.58228687231002
 21
298.85015506164649
 31
0.0
  0
LINE
  5
1E7
  8
NOTE
  6
CONTINUOUS
 62
     4
 10
-237.555369304685
 20
31.465475357565079
 30
0.0
 11
-205.5
 21
8.8091520000016281
 31
0.0
  0
LINE
  5
1E8
  8
NOTE
  6
CONTINUOUS
 62
     4
 10
-205.5
 20
8.8091520000016281
 30
0.0
 11
-215.23368385522011
 21
44.43324777643101
 31
0.0
  0
LINE
  5
1E9
  8
SIZE
  6
CONTINUOUS
 62
    30
 10
-212.7210000000002
 20
-29.009360000000012
 30
0.0
 11
-212.7210000000002
 21
-431.64526367460712
 31
0.0
  0
LINE
  5
1EA
  8
SIZE
  6
CONTINUOUS
 62
    30
 10
212.721
 20
-29.009360000000012
 30
0.0
 11
212.721
 21
-431.64526367460712
 31
0.0
  0
LINE
  5
1EB
  8
SIZE
  6
CONTINUOUS
 62
    30
 10
-200.72100000000029
 20
-411.64526367460712
 30
0.0
 11
200.721
 21
-411.64526367460712
 31
0.0
  0
CIRCLE
  5
1EC
  8
SIZE
  6
CONTINUOUS
 62
    30
 10
-212.7210000000002
 20
-411.64526367460712
 30
0.0
 40
6.0
  0
LINE
  5
1ED
  8
SIZE
  6
CONTINUOUS
 62
    30
 10
-212.7210000000002
 20
-411.64526367460712
 30
0.0
 11
-200.72100000000029
 21
-411.64526367460712
 31
0.0
  0
CIRCLE
  5
1EE
  8
SIZE
  6
CONTINUOUS
 62
    30
 10
212.721
 20
-411.64526367460712
 30
0.0
 40
6.0
  0
LINE
  5
1EF
  8
SIZE
  6
CONTINUOUS
 62
    30
 10
212.721
 20
-411.64526367460712
 30
0.0
 11
200.721
 21
-411.64526367460712
 31
0.0
  0
TEXT
  5
1F0
  8
SIZE
  6
CONTINUOUS
 62
    30
 10
-74.05714285714302
 20
-386.64526367460718
 30
0.0
 40
64.0
  1
425
 41
0.9
 72
     1
 11
-0.0000000000001705
 21
-386.64526367460718
 31
0.0
  0
POINT
  5
1F1
  8
DEFPOINTS
  6
CONTINUOUS
 62
    30
 10
-212.7210000000002
 20
-9.0093600000000151
 30
0.0
  0
POINT
  5
1F2
  8
DEFPOINTS
  6
CONTINUOUS
 62
    30
 10
212.721
 20
-9.0093600000000151
 30
0.0
  0
POINT
  5
1F3
  8
DEFPOINTS
  6
CONTINUOUS
 62
    30
 10
212.721
 20
-411.64526367460712
 30
0.0
  0
LINE
  5
1F4
  8
SIZE
  6
CONTINUOUS
 62
    30
 10
-217.52599200000009
 20
-10.3900160000012
 30
0.0
 11
-217.52599200000009
 21
-545.6791454673812
 31
0.0
  0
LINE
  5
1F5
  8
SIZE
  6
CONTINUOUS
 62
    30
 10
217.5259920000002
 20
-10.3900160000012
 30
0.0
 11
217.5259920000002
 21
-545.6791454673812
 31
0.0
  0
LINE
  5
1F6
  8
SIZE
  6
CONTINUOUS
 62
    30
 10
-205.52599200000009
 20
-525.6791454673812
 30
0.0
 11
205.52599200000029
 21
-525.6791454673812
 31
0.0
  0
CIRCLE
  5
1F7
  8
SIZE
  6
CONTINUOUS
 62
    30
 10
-217.52599200000009
 20
-525.6791454673812
 30
0.0
 40
6.0
  0
LINE
  5
1F8
  8
SIZE
  6
CONTINUOUS
 62
    30
 10
-217.52599200000009
 20
-525.6791454673812
 30
0.0
 11
-205.52599200000009
 21
-525.6791454673812
 31
0.0
  0
CIRCLE
  5
1F9
  8
SIZE
  6
CONTINUOUS
 62
    30
 10
217.5259920000002
 20
-525.6791454673812
 30
0.0
 40
6.0
  0
LINE
  5
1FA
  8
SIZE
  6
CONTINUOUS
 62
    30
 10
217.5259920000002
 20
-525.6791454673812
 30
0.0
 11
205.52599200000029
 21
-525.6791454673812
 31
0.0
  0
TEXT
  5
1FB
  8
SIZE
  6
CONTINUOUS
 62
    30
 10
-74.057142857142793
 20
-500.6791454673812
 30
0.0
 40
64.0
  1
435
 41
0.9
 72
     1
 11
0.0000000000000568
 21
-500.6791454673812
 31
0.0
  0
POINT
  5
1FC
  8
DEFPOINTS
  6
CONTINUOUS
 62
    30
 10
-217.52599200000009
 20
9.6099839999988035
 30
0.0
  0
POINT
  5
1FD
  8
DEFPOINTS
  6
CONTINUOUS
 62
    30
 10
217.5259920000002
 20
9.6099839999988035
 30
0.0
  0
POINT
  5
1FE
  8
DEFPOINTS
  6
CONTINUOUS
 62
    30
 10
217.5259920000002
 20
-525.6791454673812
 30
0.0
  0
LINE
  5
1FF
  8
SIZE
  6
CONTINUOUS
 62
    30
 10
-205.5
 20
-18.421127746604721
 30
0.0
 11
-205.5
 21
-314.23558599768239
 31
0.0
  0
LINE
  5
200
  8
SIZE
  6
CONTINUOUS
 62
    30
 10
205.5
 20
-18.421127746604721
 30
0.0
 11
205.5
 21
-314.23558599768239
 31
0.0
  0
LINE
  5
201
  8
SIZE
  6
CONTINUOUS
 62
    30
 10
-193.5
 20
-294.23558599768239
 30
0.0
 11
193.5
 21
-294.23558599768239
 31
0.0
  0
CIRCLE
  5
202
  8
SIZE
  6
CONTINUOUS
 62
    30
 10
-205.5
 20
-294.23558599768239
 30
0.0
 40
6.0
  0
LINE
  5
203
  8
SIZE
  6
CONTINUOUS
 62
    30
 10
-205.5
 20
-294.23558599768239
 30
0.0
 11
-193.5
 21
-294.23558599768239
 31
0.0
  0
CIRCLE
  5
204
  8
SIZE
  6
CONTINUOUS
 62
    30
 10
205.5
 20
-294.23558599768239
 30
0.0
 40
6.0
  0
LINE
  5
205
  8
SIZE
  6
CONTINUOUS
 62
    30
 10
205.5
 20
-294.23558599768239
 30
0.0
 11
193.5
 21
-294.23558599768239
 31
0.0
  0
TEXT
  5
206
  8
SIZE
  6
CONTINUOUS
 62
    30
 10
-56.228571428571442
 20
-269.23558599768239
 30
0.0
 40
64.0
  1
411
 41
0.9
 72
     1
 11
-0.0000000000000284
 21
-269.23558599768239
 31
0.0
  0
POINT
  5
207
  8
DEFPOINTS
  6
CONTINUOUS
 62
    30
 10
-205.5
 20
1.578872253395273
 30
0.0
  0
POINT
  5
208
  8
DEFPOINTS
  6
CONTINUOUS
 62
    30
 10
205.5
 20
1.578872253395273
 30
0.0
  0
POINT
  5
209
  8
DEFPOINTS
  6
CONTINUOUS
 62
    30
 10
205.5
 20
-294.23558599768239
 30
0.0
  0
LINE
  5
20A
  8
SIZE
  6
CONTINUOUS
 62
    30
 10
-211.61985600000031
 20
211.12512964284539
 30
0.0
 11
-211.6198560000002
 21
912.74009613138173
 31
0.0
  0
LINE
  5
20B
  8
SIZE
  6
CONTINUOUS
 62
    30
 10
211.61985600000031
 20
211.12512964284539
 30
0.0
 11
211.61985600000031
 21
912.74009613138173
 31
0.0
  0
LINE
  5
20C
  8
SIZE
  6
CONTINUOUS
 62
    30
 10
-199.6198560000002
 20
892.74009613138139
 30
0.0
 11
199.61985600000031
 21
892.74009613138139
 31
0.0
  0
CIRCLE
  5
20D
  8
SIZE
  6
CONTINUOUS
 62
    30
 10
-211.6198560000002
 20
892.74009613138139
 30
0.0
 40
6.0
  0
LINE
  5
20E
  8
SIZE
  6
CONTINUOUS
 62
    30
 10
-211.6198560000002
 20
892.74009613138139
 30
0.0
 11
-199.6198560000002
 21
892.74009613138139
 31
0.0
  0
CIRCLE
  5
20F
  8
SIZE
  6
CONTINUOUS
 62
    30
 10
211.61985600000031
 20
892.74009613138139
 30
0.0
 40
6.0
  0
LINE
  5
210
  8
SIZE
  6
CONTINUOUS
 62
    30
 10
211.61985600000031
 20
892.74009613138139
 30
0.0
 11
199.61985600000031
 21
892.74009613138139
 31
0.0
  0
TEXT
  5
211
  8
SIZE
  6
CONTINUOUS
 62
    30
 10
-74.057142857142807
 20
917.74009613138185
 30
0.0
 40
64.0
  1
423
 41
0.9
 72
     1
 11
0.0000000000000284
 21
917.74009613138185
 31
0.0
  0
POINT
  5
212
  8
DEFPOINTS
  6
CONTINUOUS
 62
    30
 10
-211.61985600000031
 20
191.12512964284539
 30
0.0
  0
POINT
  5
213
  8
DEFPOINTS
  6
CONTINUOUS
 62
    30
 10
211.61985600000031
 20
191.12512964284539
 30
0.0
  0
POINT
  5
214
  8
DEFPOINTS
  6
CONTINUOUS
 62
    30
 10
211.61985600000031
 20
892.74009613138139
 30
0.0
  0
LINE
  5
215
  8
SIZE
  6
CONTINUOUS
 62
    30
 10
-192.49999199999971
 20
265.85542399999758
 30
0.0
 11
-192.49999199999971
 21
789.82378016414498
 31
0.0
  0
LINE
  5
216
  8
SIZE
  6
CONTINUOUS
 62
    30
 10
192.49999199999999
 20
265.85542399999758
 30
0.0
 11
192.49999199999999
 21
789.82378016414498
 31
0.0
  0
LINE
  5
217
  8
SIZE
  6
CONTINUOUS
 62
    30
 10
-180.49999199999971
 20
769.82378016414521
 30
0.0
 11
180.49999199999999
 21
769.82378016414521
 31
0.0
  0
CIRCLE
  5
218
  8
SIZE
  6
CONTINUOUS
 62
    30
 10
-192.49999199999971
 20
769.82378016414521
 30
0.0
 40
6.0
  0
LINE
  5
219
  8
SIZE
  6
CONTINUOUS
 62
    30
 10
-192.49999199999971
 20
769.82378016414521
 30
0.0
 11
-180.49999199999971
 21
769.82378016414521
 31
0.0
  0
CIRCLE
  5
21A
  8
SIZE
  6
CONTINUOUS
 62
    30
 10
192.49999199999999
 20
769.82378016414521
 30
0.0
 40
6.0
  0
LINE
  5
21B
  8
SIZE
  6
CONTINUOUS
 62
    30
 10
192.49999199999999
 20
769.82378016414521
 30
0.0
 11
180.49999199999999
 21
769.82378016414521
 31
0.0
  0
TEXT
  5
21C
  8
SIZE
  6
CONTINUOUS
 62
    30
 10
-74.057142857142708
 20
794.82378016414521
 30
0.0
 40
64.0
  1
385
 41
0.9
 72
     1
 11
0.0000000000001137
 21
794.82378016414521
 31
0.0
  0
POINT
  5
21D
  8
DEFPOINTS
  6
CONTINUOUS
 62
    30
 10
-192.49999199999971
 20
245.85542399999761
 30
0.0
  0
POINT
  5
21E
  8
DEFPOINTS
  6
CONTINUOUS
 62
    30
 10
192.49999199999999
 20
245.85542399999761
 30
0.0
  0
POINT
  5
21F
  8
DEFPOINTS
  6
CONTINUOUS
 62
    30
 10
192.49999199999999
 20
769.82378016414521
 30
0.0
  0
LINE
  5
220
  8
SIZE
  6
CONTINUOUS
 62
    30
 10
5.005200000000058
 20
165.0811422040006
 30
0.0
 11
5.0052000000000749
 21
470.46840789777332
 31
0.0
  0
LINE
  5
221
  8
SIZE
  6
CONTINUOUS
 62
    30
 10
0.0000000000000012
 20
316.83493557504647
 30
0.0
 11
0.0000000000000106
 21
470.46840789777332
 31
0.0
  0
LINE
  5
222
  8
SIZE
  6
CONTINUOUS
 62
    30
 10
-11.999999999999989
 20
450.4684078977732
 30
0.0
 11
-23.999999999999989
 21
450.4684078977732
 31
0.0
  0
LINE
  5
223
  8
SIZE
  6
CONTINUOUS
 62
    30
 10
17.00520000000008
 20
450.4684078977732
 30
0.0
 11
353.60383934948021
 21
450.4684078977732
 31
0.0
  0
LINE
  5
224
  8
SIZE
  6
CONTINUOUS
 62
    30
 10
0.0000000000000094
 20
450.4684078977732
 30
0.0
 11
5.0052000000000749
 21
450.4684078977732
 31
0.0
  0
CIRCLE
  5
225
  8
SIZE
  6
CONTINUOUS
 62
    30
 10
0.0000000000000094
 20
450.4684078977732
 30
0.0
 40
6.0
  0
LINE
  5
226
  8
SIZE
  6
CONTINUOUS
 62
    30
 10
0.0000000000000094
 20
450.4684078977732
 30
0.0
 11
-11.999999999999989
 21
450.4684078977732
 31
0.0
  0
CIRCLE
  5
227
  8
SIZE
  6
CONTINUOUS
 62
    30
 10
5.0052000000000749
 20
450.4684078977732
 30
0.0
 40
6.0
  0
LINE
  5
228
  8
SIZE
  6
CONTINUOUS
 62
    30
 10
5.0052000000000749
 20
450.4684078977732
 30
0.0
 11
17.00520000000007
 21
450.4684078977732
 31
0.0
  0
TEXT
  5
229
  8
SIZE
  6
CONTINUOUS
 62
    30
 10
290.20383934948018
 20
475.4684078977732
 30
0.0
 40
64.0
  1
5
 41
0.9
 72
     1
 11
309.40383934948022
 21
475.4684078977732
 31
0.0
  0
POINT
  5
22A
  8
DEFPOINTS
  6
CONTINUOUS
 62
    30
 10
5.005200000000058
 20
145.0811422040006
 30
0.0
  0
POINT
  5
22B
  8
DEFPOINTS
  6
CONTINUOUS
 62
    30
 10
0.0
 20
296.83493557504647
 30
0.0
  0
POINT
  5
22C
  8
DEFPOINTS
  6
CONTINUOUS
 62
    30
 10
0.0000000000000094
 20
450.4684078977732
 30
0.0
  0
LINE
  5
22D
  8
SIZE
  6
CONTINUOUS
 62
    30
 10
-40.04160000000001
 20
244.21168182805329
 30
0.0
 11
-40.041600000000003
 21
575.89425753016064
 31
0.0
  0
LINE
  5
22E
  8
SIZE
  6
CONTINUOUS
 62
    30
 10
5.005200000000058
 20
165.0811422040006
 30
0.0
 11
5.0052000000000829
 21
575.89425753016064
 31
0.0
  0
LINE
  5
22F
  8
SIZE
  6
CONTINUOUS
 62
    30
 10
17.00520000000008
 20
555.89425753016087
 30
0.0
 11
29.00520000000008
 21
555.89425753016087
 31
0.0
  0
LINE
  5
230
  8
SIZE
  6
CONTINUOUS
 62
    30
 10
-52.041600000000003
 20
555.89425753016087
 30
0.0
 11
-405.35977642857188
 21
555.89425753016087
 31
0.0
  0
LINE
  5
231
  8
SIZE
  6
CONTINUOUS
 62
    30
 10
5.005200000000082
 20
555.89425753016087
 30
0.0
 11
-40.041600000000003
 21
555.89425753016087
 31
0.0
  0
CIRCLE
  5
232
  8
SIZE
  6
CONTINUOUS
 62
    30
 10
5.005200000000082
 20
555.89425753016087
 30
0.0
 40
6.0
  0
LINE
  5
233
  8
SIZE
  6
CONTINUOUS
 62
    30
 10
5.005200000000082
 20
555.89425753016087
 30
0.0
 11
17.005200000000091
 21
555.89425753016087
 31
0.0
  0
CIRCLE
  5
234
  8
SIZE
  6
CONTINUOUS
 62
    30
 10
-40.041600000000003
 20
555.89425753016087
 30
0.0
 40
6.0
  0
LINE
  5
235
  8
SIZE
  6
CONTINUOUS
 62
    30
 10
-40.041600000000003
 20
555.89425753016087
 30
0.0
 11
-52.041600000000003
 21
555.89425753016087
 31
0.0
  0
TEXT
  5
236
  8
SIZE
  6
CONTINUOUS
 62
    30
 10
-380.35977642857188
 20
580.89425753016064
 30
0.0
 40
64.0
  1
45
 41
0.9
 72
     1
 11
-333.7312050000005
 21
580.89425753016064
 31
0.0
  0
POINT
  5
237
  8
DEFPOINTS
  6
CONTINUOUS
 62
    30
 10
-40.04160000000001
 20
224.21168182805329
 30
0.0
  0
POINT
  5
238
  8
DEFPOINTS
  6
CONTINUOUS
 62
    30
 10
5.005200000000058
 20
145.0811422040006
 30
0.0
  0
POINT
  5
239
  8
DEFPOINTS
  6
CONTINUOUS
 62
    30
 10
5.005200000000082
 20
555.89425753016087
 30
0.0
  0
LINE
  5
23A
  8
SIZE
  6
CONTINUOUS
 62
    30
 10
5.005200000000058
 20
165.0811422040006
 30
0.0
 11
5.0052000000000829
 21
575.89425753016064
 31
0.0
  0
LINE
  5
23B
  8
SIZE
  6
CONTINUOUS
 62
    30
 10
70.07279999999993
 20
246.24067076210389
 30
0.0
 11
70.07279999999993
 21
575.89425753016064
 31
0.0
  0
LINE
  5
23C
  8
SIZE
  6
CONTINUOUS
 62
    30
 10
-6.9947999999999162
 20
555.89425753016087
 30
0.0
 11
-18.99479999999992
 21
555.89425753016087
 31
0.0
  0
LINE
  5
23D
  8
SIZE
  6
CONTINUOUS
 62
    30
 10
82.07279999999993
 20
555.89425753016087
 30
0.0
 11
368.88977916659042
 21
555.89425753016087
 31
0.0
  0
LINE
  5
23E
  8
SIZE
  6
CONTINUOUS
 62
    30
 10
5.005200000000082
 20
555.89425753016087
 30
0.0
 11
70.07279999999993
 21
555.89425753016087
 31
0.0
  0
CIRCLE
  5
23F
  8
SIZE
  6
CONTINUOUS
 62
    30
 10
5.005200000000082
 20
555.89425753016087
 30
0.0
 40
6.0
  0
LINE
  5
240
  8
SIZE
  6
CONTINUOUS
 62
    30
 10
5.005200000000082
 20
555.89425753016087
 30
0.0
 11
-6.9947999999999162
 21
555.89425753016087
 31
0.0
  0
CIRCLE
  5
241
  8
SIZE
  6
CONTINUOUS
 62
    30
 10
70.07279999999993
 20
555.89425753016087
 30
0.0
 40
6.0
  0
LINE
  5
242
  8
SIZE
  6
CONTINUOUS
 62
    30
 10
70.07279999999993
 20
555.89425753016087
 30
0.0
 11
82.07279999999993
 21
555.89425753016087
 31
0.0
  0
TEXT
  5
243
  8
SIZE
  6
CONTINUOUS
 62
    30
 10
250.63263630944741
 20
580.89425753016064
 30
0.0
 40
64.0
  1
65
 41
0.9
 72
     1
 11
297.26120773801892
 21
580.89425753016064
 31
0.0
  0
POINT
  5
244
  8
DEFPOINTS
  6
CONTINUOUS
 62
    30
 10
5.005200000000058
 20
145.0811422040006
 30
0.0
  0
POINT
  5
245
  8
DEFPOINTS
  6
CONTINUOUS
 62
    30
 10
70.07279999999993
 20
226.24067076210389
 30
0.0
  0
POINT
  5
246
  8
DEFPOINTS
  6
CONTINUOUS
 62
    30
 10
70.07279999999993
 20
555.89425753016087
 30
0.0
  0
LINE
  5
247
  8
SIZE
  6
CONTINUOUS
 62
    30
 10
5.005200000000058
 20
165.0811422040006
 30
0.0
 11
5.00520000000009
 21
686.90746859235765
 31
0.0
  0
LINE
  5
248
  8
SIZE
  6
CONTINUOUS
 62
    30
 10
115.11960000000001
 20
167.61737631414141
 30
0.0
 11
115.11960000000001
 21
686.90746859235765
 31
0.0
  0
LINE
  5
249
  8
SIZE
  6
CONTINUOUS
 62
    30
 10
17.005200000000091
 20
666.90746859235765
 30
0.0
 11
103.11960000000001
 21
666.90746859235765
 31
0.0
  0
LINE
  5
24A
  8
SIZE
  6
CONTINUOUS
 62
    30
 10
115.11960000000001
 20
666.90746859235765
 30
0.0
 11
399.00737739966132
 21
666.90746859235765
 31
0.0
  0
CIRCLE
  5
24B
  8
SIZE
  6
CONTINUOUS
 62
    30
 10
5.00520000000009
 20
666.90746859235765
 30
0.0
 40
6.0
  0
LINE
  5
24C
  8
SIZE
  6
CONTINUOUS
 62
    30
 10
5.00520000000009
 20
666.90746859235765
 30
0.0
 11
17.005200000000091
 21
666.90746859235765
 31
0.0
  0
CIRCLE
  5
24D
  8
SIZE
  6
CONTINUOUS
 62
    30
 10
115.11960000000001
 20
666.90746859235765
 30
0.0
 40
6.0
  0
LINE
  5
24E
  8
SIZE
  6
CONTINUOUS
 62
    30
 10
115.11960000000001
 20
666.90746859235765
 30
0.0
 11
103.11960000000001
 21
666.90746859235765
 31
0.0
  0
TEXT
  5
24F
  8
SIZE
  6
CONTINUOUS
 62
    30
 10
247.83594882823269
 20
691.90746859235799
 30
0.0
 40
64.0
  1
110
 41
0.9
 72
     1
 11
310.92166311394698
 21
691.90746859235799
 31
0.0
  0
POINT
  5
250
  8
DEFPOINTS
  6
CONTINUOUS
 62
    30
 10
5.005200000000058
 20
145.0811422040006
 30
0.0
  0
POINT
  5
251
  8
DEFPOINTS
  6
CONTINUOUS
 62
    30
 10
115.11960000000001
 20
147.61737631414141
 30
0.0
  0
POINT
  5
252
  8
DEFPOINTS
  6
CONTINUOUS
 62
    30
 10
115.11960000000001
 20
666.90746859235765
 30
0.0
  0
LINE
  5
253
  8
SIZE
  6
CONTINUOUS
 62
    30
 10
-105.1092000000003
 20
164.06664773697551
 30
0.0
 11
-105.1092000000003
 21
686.90746859235765
 31
0.0
  0
LINE
  5
254
  8
SIZE
  6
CONTINUOUS
 62
    30
 10
5.005200000000058
 20
165.0811422040006
 30
0.0
 11
5.00520000000009
 21
686.90746859235765
 31
0.0
  0
LINE
  5
255
  8
SIZE
  6
CONTINUOUS
 62
    30
 10
-6.9947999999999091
 20
666.90746859235765
 30
0.0
 11
-93.109200000000286
 21
666.90746859235765
 31
0.0
  0
LINE
  5
256
  8
SIZE
  6
CONTINUOUS
 62
    30
 10
-105.1092000000003
 20
666.90746859235765
 30
0.0
 11
-402.50960682583661
 21
666.90746859235765
 31
0.0
  0
CIRCLE
  5
257
  8
SIZE
  6
CONTINUOUS
 62
    30
 10
5.00520000000009
 20
666.90746859235765
 30
0.0
 40
6.0
  0
LINE
  5
258
  8
SIZE
  6
CONTINUOUS
 62
    30
 10
5.00520000000009
 20
666.90746859235765
 30
0.0
 11
-6.9947999999999091
 21
666.90746859235765
 31
0.0
  0
CIRCLE
  5
259
  8
SIZE
  6
CONTINUOUS
 62
    30
 10
-105.1092000000003
 20
666.90746859235765
 30
0.0
 40
6.0
  0
LINE
  5
25A
  8
SIZE
  6
CONTINUOUS
 62
    30
 10
-105.1092000000003
 20
666.90746859235765
 30
0.0
 11
-93.109200000000286
 21
666.90746859235765
 31
0.0
  0
TEXT
  5
25B
  8
SIZE
  6
CONTINUOUS
 62
    30
 10
-377.50960682583661
 20
691.90746859235799
 30
0.0
 40
64.0
  1
110
 41
0.9
 72
     1
 11
-314.42389254012232
 21
691.90746859235799
 31
0.0
  0
POINT
  5
25C
  8
DEFPOINTS
  6
CONTINUOUS
 62
    30
 10
-105.1092000000003
 20
144.06664773697551
 30
0.0
  0
POINT
  5
25D
  8
DEFPOINTS
  6
CONTINUOUS
 62
    30
 10
5.005200000000058
 20
145.0811422040006
 30
0.0
  0
POINT
  5
25E
  8
DEFPOINTS
  6
CONTINUOUS
 62
    30
 10
5.00520000000009
 20
666.90746859235765
 30
0.0
  0
LINE
  5
25F
  8
SIZE
  6
CONTINUOUS
 62
    30
 10
237.52599200000029
 20
8.8091520000016246
 30
0.0
 11
659.30284527607898
 21
8.8091520000015073
 31
0.0
  0
LINE
  5
260
  8
SIZE
  6
CONTINUOUS
 62
    30
 10
237.52599200000029
 20
69.809152000001603
 30
0.0
 11
659.30284527607898
 21
69.809152000001504
 31
0.0
  0
LINE
  5
261
  8
SIZE
  6
CONTINUOUS
 62
    30
 10
639.30284527607887
 20
81.809152000001504
 30
0.0
 11
639.30284527607887
 21
93.809152000001504
 31
0.0
  0
LINE
  5
262
  8
SIZE
  6
CONTINUOUS
 62
    30
 10
639.30284527607887
 20
-3.190847999998486
 30
0.0
 11
639.30284527607887
 21
-133.76227657142701
 31
0.0
  0
LINE
  5
263
  8
SIZE
  6
CONTINUOUS
 62
    30
 10
639.30284527607887
 20
69.809152000001504
 30
0.0
 11
639.30284527607887
 21
8.8091520000015127
 31
0.0
  0
CIRCLE
  5
264
  8
SIZE
  6
CONTINUOUS
 62
    30
 10
639.30284527607887
 20
69.809152000001504
 30
0.0
 40
6.0
  0
LINE
  5
265
  8
SIZE
  6
CONTINUOUS
 62
    30
 10
639.30284527607887
 20
69.809152000001504
 30
0.0
 11
639.30284527607887
 21
81.809152000001504
 31
0.0
  0
CIRCLE
  5
266
  8
SIZE
  6
CONTINUOUS
 62
    30
 10
639.30284527607887
 20
8.8091520000015127
 30
0.0
 40
6.0
  0
LINE
  5
267
  8
SIZE
  6
CONTINUOUS
 62
    30
 10
639.30284527607887
 20
8.8091520000015127
 30
0.0
 11
639.30284527607887
 21
-3.190847999998486
 31
0.0
  0
TEXT
  5
268
  8
SIZE
  6
CONTINUOUS
 62
    30
 10
614.30284527607887
 20
-108.7622765714269
 30
0.0
 40
64.0
  1
61
 50
90.0
 41
0.9
 72
     1
 11
614.30284527607887
 21
-74.476562285712646
 31
0.0
  0
POINT
  5
269
  8
DEFPOINTS
  6
CONTINUOUS
 62
    30
 10
217.5259920000002
 20
8.8091520000016281
 30
0.0
  0
POINT
  5
26A
  8
DEFPOINTS
  6
CONTINUOUS
 62
    30
 10
217.5259920000002
 20
69.809152000001632
 30
0.0
  0
POINT
  5
26B
  8
DEFPOINTS
  6
CONTINUOUS
 62
    30
 10
639.30284527607887
 20
69.809152000001504
 30
0.0
  0
LINE
  5
26C
  8
SIZE
  6
CONTINUOUS
 62
    30
 10
237.52599200000029
 20
8.8091520000016246
 30
0.0
 11
556.06279578633155
 21
8.8091520000015322
 31
0.0
  0
LINE
  5
26D
  8
SIZE
  6
CONTINUOUS
 62
    30
 10
232.721
 20
-0.0000000000000057
 30
0.0
 11
556.06279578633155
 21
-0.0000000000000973
 31
0.0
  0
LINE
  5
26E
  8
SIZE
  6
CONTINUOUS
 62
    30
 10
536.06279578633155
 20
20.809152000001539
 30
0.0
 11
536.06279578633155
 21
32.809152000001539
 31
0.0
  0
LINE
  5
26F
  8
SIZE
  6
CONTINUOUS
 62
    30
 10
536.06279578633155
 20
-12.000000000000091
 30
0.0
 11
536.06279578633155
 21
-291.23428571428587
 31
0.0
  0
LINE
  5
270
  8
SIZE
  6
CONTINUOUS
 62
    30
 10
536.06279578633155
 20
8.8091520000015411
 30
0.0
 11
536.06279578633155
 21
-0.0000000000000916
 31
0.0
  0
CIRCLE
  5
271
  8
SIZE
  6
CONTINUOUS
 62
    30
 10
536.06279578633155
 20
8.8091520000015411
 30
0.0
 40
6.0
  0
LINE
  5
272
  8
SIZE
  6
CONTINUOUS
 62
    30
 10
536.06279578633155
 20
8.8091520000015411
 30
0.0
 11
536.06279578633155
 21
20.809152000001539
 31
0.0
  0
CIRCLE
  5
273
  8
SIZE
  6
CONTINUOUS
 62
    30
 10
536.06279578633155
 20
-0.0000000000000916
 30
0.0
 40
6.0
  0
LINE
  5
274
  8
SIZE
  6
CONTINUOUS
 62
    30
 10
536.06279578633155
 20
-0.0000000000000916
 30
0.0
 11
536.06279578633155
 21
-12.000000000000091
 31
0.0
  0
TEXT
  5
275
  8
SIZE
  6
CONTINUOUS
 62
    30
 10
511.06279578633172
 20
-266.23428571428559
 30
0.0
 40
64.0
  1
9～25
 50
90.0
 41
0.9
 72
     1
 11
511.06279578633172
 21
-157.6171428571428
 31
0.0
  0
POINT
  5
276
  8
DEFPOINTS
  6
CONTINUOUS
 62
    30
 10
217.5259920000002
 20
8.8091520000016281
 30
0.0
  0
POINT
  5
277
  8
DEFPOINTS
  6
CONTINUOUS
 62
    30
 10
212.721
 20
0.0
 30
0.0
  0
POINT
  5
278
  8
DEFPOINTS
  6
CONTINUOUS
 62
    30
 10
536.06279578633155
 20
-0.0000000000000916
 30
0.0
  0
LINE
  5
279
  8
SIZE
  6
CONTINUOUS
 62
    30
 10
232.721
 20
-0.0000000000000057
 30
0.0
 11
420.2481854815187
 21
-0.0000000000000588
 31
0.0
  0
LINE
  5
27A
  8
SIZE
  6
CONTINUOUS
 62
    30
 10
232.721
 20
-9.0093600000000151
 30
0.0
 11
420.2481854815187
 21
-9.0093600000000738
 31
0.0
  0
LINE
  5
27B
  8
SIZE
  6
CONTINUOUS
 62
    30
 10
400.2481854815187
 20
11.99999999999995
 30
0.0
 11
400.2481854815187
 21
23.99999999999995
 31
0.0
  0
LINE
  5
27C
  8
SIZE
  6
CONTINUOUS
 62
    30
 10
400.2481854815187
 20
-21.009360000000068
 30
0.0
 11
400.2481854815187
 21
-118.6665028571429
 31
0.0
  0
LINE
  5
27D
  8
SIZE
  6
CONTINUOUS
 62
    30
 10
400.2481854815187
 20
-0.0000000000000531
 30
0.0
 11
400.2481854815187
 21
-9.0093600000000649
 31
0.0
  0
CIRCLE
  5
27E
  8
SIZE
  6
CONTINUOUS
 62
    30
 10
400.2481854815187
 20
-0.0000000000000531
 30
0.0
 40
6.0
  0
LINE
  5
27F
  8
SIZE
  6
CONTINUOUS
 62
    30
 10
400.2481854815187
 20
-0.0000000000000531
 30
0.0
 11
400.2481854815187
 21
11.99999999999994
 31
0.0
  0
CIRCLE
  5
280
  8
SIZE
  6
CONTINUOUS
 62
    30
 10
400.2481854815187
 20
-9.0093600000000649
 30
0.0
 40
6.0
  0
LINE
  5
281
  8
SIZE
  6
CONTINUOUS
 62
    30
 10
400.2481854815187
 20
-9.0093600000000649
 30
0.0
 11
400.2481854815187
 21
-21.009360000000068
 31
0.0
  0
TEXT
  5
282
  8
SIZE
  6
CONTINUOUS
 62
    30
 10
375.2481854815187
 20
-93.666502857142845
 30
0.0
 40
64.0
  1
9
 50
90.0
 41
0.9
 72
     1
 11
375.2481854815187
 21
-75.837931428571409
 31
0.0
  0
POINT
  5
283
  8
DEFPOINTS
  6
CONTINUOUS
 62
    30
 10
212.721
 20
0.0
 30
0.0
  0
POINT
  5
284
  8
DEFPOINTS
  6
CONTINUOUS
 62
    30
 10
212.721
 20
-9.0093600000000151
 30
0.0
  0
POINT
  5
285
  8
DEFPOINTS
  6
CONTINUOUS
 62
    30
 10
400.2481854815187
 20
-9.0093600000000649
 30
0.0
  0
LINE
  5
286
  8
SIZE
  6
CONTINUOUS
 62
    30
 10
237.52599200000029
 20
8.8091520000016246
 30
0.0
 11
787.47682987299595
 21
8.8091520000014718
 31
0.0
  0
LINE
  5
287
  8
SIZE
  6
CONTINUOUS
 62
    30
 10
246.73556000000011
 20
176.68356000000131
 30
0.0
 11
787.47682987299595
 21
176.68356000000119
 31
0.0
  0
LINE
  5
288
  8
SIZE
  6
CONTINUOUS
 62
    30
 10
767.47682987299595
 20
-3.1908479999985242
 30
0.0
 11
767.47682987299595
 21
-15.190847999998519
 31
0.0
  0
LINE
  5
289
  8
SIZE
  6
CONTINUOUS
 62
    30
 10
767.47682987299595
 20
188.68356000000119
 30
0.0
 11
767.47682987299595
 21
200.68356000000119
 31
0.0
  0
LINE
  5
28A
  8
SIZE
  6
CONTINUOUS
 62
    30
 10
767.47682987299595
 20
8.8091520000014754
 30
0.0
 11
767.47682987299595
 21
176.68356000000119
 31
0.0
  0
CIRCLE
  5
28B
  8
SIZE
  6
CONTINUOUS
 62
    30
 10
767.47682987299595
 20
8.8091520000014754
 30
0.0
 40
6.0
  0
LINE
  5
28C
  8
SIZE
  6
CONTINUOUS
 62
    30
 10
767.47682987299595
 20
8.8091520000014754
 30
0.0
 11
767.47682987299595
 21
-3.1908479999985242
 31
0.0
  0
CIRCLE
  5
28D
  8
SIZE
  6
CONTINUOUS
 62
    30
 10
767.47682987299595
 20
176.68356000000119
 30
0.0
 40
6.0
  0
LINE
  5
28E
  8
SIZE
  6
CONTINUOUS
 62
    30
 10
767.47682987299595
 20
176.68356000000119
 30
0.0
 11
767.47682987299595
 21
188.68356000000119
 31
0.0
  0
TEXT
  5
28F
  8
SIZE
  6
CONTINUOUS
 62
    30
 10
742.47682987299595
 20
24.174927428572872
 30
0.0
 40
64.0
  1
168
 50
90.0
 41
0.9
 72
     1
 11
742.47682987299595
 21
92.746356000001427
 31
0.0
  0
POINT
  5
290
  8
DEFPOINTS
  6
CONTINUOUS
 62
    30
 10
217.5259920000002
 20
8.8091520000016281
 30
0.0
  0
POINT
  5
291
  8
DEFPOINTS
  6
CONTINUOUS
 62
    30
 10
226.73556000000011
 20
176.68356000000131
 30
0.0
  0
POINT
  5
292
  8
DEFPOINTS
  6
CONTINUOUS
 62
    30
 10
767.47682987299595
 20
176.68356000000119
 30
0.0
  0
LINE
  5
293
  8
DETAIL
  6
CONTINUOUS
 62
     5
 10
229.93888799999971
 20
168.8754479999989
 30
0.0
 11
229.93888799999971
 21
175.08189599999599
 31
0.0
  0
LINE
  5
294
  8
SIZE
  6
CONTINUOUS
 62
    30
 10
237.52599200000029
 20
8.8091520000016246
 30
0.0
 11
898.35749815468444
 21
8.8091520000014398
 31
0.0
  0
LINE
  5
295
  8
SIZE
  6
CONTINUOUS
 62
    30
 10
211.098536
 20
247.25687999999761
 30
0.0
 11
898.35749815468444
 21
247.25687999999741
 31
0.0
  0
LINE
  5
296
  8
SIZE
  6
CONTINUOUS
 62
    30
 10
878.35749815468455
 20
20.80915200000144
 30
0.0
 11
878.35749815468455
 21
235.25687999999749
 31
0.0
  0
CIRCLE
  5
297
  8
SIZE
  6
CONTINUOUS
 62
    30
 10
878.35749815468455
 20
8.8091520000014434
 30
0.0
 40
6.0
  0
LINE
  5
298
  8
SIZE
  6
CONTINUOUS
 62
    30
 10
878.35749815468455
 20
8.8091520000014434
 30
0.0
 11
878.35749815468455
 21
20.80915200000144
 31
0.0
  0
CIRCLE
  5
299
  8
SIZE
  6
CONTINUOUS
 62
    30
 10
878.35749815468455
 20
247.25687999999749
 30
0.0
 40
6.0
  0
LINE
  5
29A
  8
SIZE
  6
CONTINUOUS
 62
    30
 10
878.35749815468455
 20
247.25687999999749
 30
0.0
 11
878.35749815468455
 21
235.25687999999749
 31
0.0
  0
TEXT
  5
29B
  8
SIZE
  6
CONTINUOUS
 62
    30
 10
853.35749815468455
 20
53.975873142856763
 30
0.0
 40
64.0
  1
238
 50
90.0
 41
0.9
 72
     1
 11
853.35749815468455
 21
128.03301599999961
 31
0.0
  0
POINT
  5
29C
  8
DEFPOINTS
  6
CONTINUOUS
 62
    30
 10
217.5259920000002
 20
8.8091520000016281
 30
0.0
  0
POINT
  5
29D
  8
DEFPOINTS
  6
CONTINUOUS
 62
    30
 10
191.098536
 20
247.25687999999769
 30
0.0
  0
POINT
  5
29E
  8
DEFPOINTS
  6
CONTINUOUS
 62
    30
 10
878.35749815468455
 20
247.25687999999749
 30
0.0
  0
LINE
  5
29F
  8
SIZE
  6
CONTINUOUS
 62
    30
 10
211.098536
 20
247.25687999999721
 30
0.0
 11
787.47682987299595
 21
247.25687999999701
 31
0.0
  0
LINE
  5
2A0
  8
SIZE
  6
CONTINUOUS
 62
    30
 10
211.1986400000001
 20
252.26207999999681
 30
0.0
 11
787.47682987299595
 21
252.26207999999659
 31
0.0
  0
LINE
  5
2A1
  8
SIZE
  6
CONTINUOUS
 62
    30
 10
767.47682987299595
 20
235.25687999999701
 30
0.0
 11
767.47682987299595
 21
223.25687999999701
 31
0.0
  0
LINE
  5
2A2
  8
SIZE
  6
CONTINUOUS
 62
    30
 10
767.47682987299606
 20
264.26207999999662
 30
0.0
 11
767.47682987299606
 21
364.66207999999659
 31
0.0
  0
LINE
  5
2A3
  8
SIZE
  6
CONTINUOUS
 62
    30
 10
767.47682987299595
 20
247.25687999999701
 30
0.0
 11
767.47682987299595
 21
252.26207999999659
 31
0.0
  0
CIRCLE
  5
2A4
  8
SIZE
  6
CONTINUOUS
 62
    30
 10
767.47682987299595
 20
247.25687999999701
 30
0.0
 40
6.0
  0
LINE
  5
2A5
  8
SIZE
  6
CONTINUOUS
 62
    30
 10
767.47682987299595
 20
247.25687999999701
 30
0.0
 11
767.47682987299595
 21
235.25687999999701
 31
0.0
  0
CIRCLE
  5
2A6
  8
SIZE
  6
CONTINUOUS
 62
    30
 10
767.47682987299595
 20
252.26207999999659
 30
0.0
 40
6.0
  0
LINE
  5
2A7
  8
SIZE
  6
CONTINUOUS
 62
    30
 10
767.47682987299595
 20
252.26207999999659
 30
0.0
 11
767.47682987299595
 21
264.26207999999662
 31
0.0
  0
TEXT
  5
2A8
  8
SIZE
  6
CONTINUOUS
 62
    30
 10
742.47682987299595
 20
301.26207999999679
 30
0.0
 40
64.0
  1
5
 50
90.0
 41
0.9
 72
     1
 11
742.47682987299595
 21
320.46207999999677
 31
0.0
  0
POINT
  5
2A9
  8
DEFPOINTS
  6
CONTINUOUS
 62
    30
 10
191.098536
 20
247.25687999999721
 30
0.0
  0
POINT
  5
2AA
  8
DEFPOINTS
  6
CONTINUOUS
 62
    30
 10
191.19864000000001
 20
252.26207999999681
 30
0.0
  0
POINT
  5
2AB
  8
DEFPOINTS
  6
CONTINUOUS
 62
    30
 10
767.47682987299595
 20
252.26207999999659
 30
0.0
  0
LINE
  5
2AC
  8
SIZE
  6
CONTINUOUS
 62
    30
 10
211.098536
 20
247.25687999999721
 30
0.0
 11
898.35749815468444
 21
247.25687999999701
 31
0.0
  0
LINE
  5
2AD
  8
SIZE
  6
CONTINUOUS
 62
    30
 10
33.628136429007547
 20
286.64780399999648
 30
0.0
 11
898.35749815468444
 21
286.64780399999631
 31
0.0
  0
LINE
  5
2AE
  8
SIZE
  6
CONTINUOUS
 62
    30
 10
878.35749815468455
 20
235.25687999999701
 30
0.0
 11
878.35749815468455
 21
223.25687999999701
 31
0.0
  0
LINE
  5
2AF
  8
SIZE
  6
CONTINUOUS
 62
    30
 10
878.35749815468455
 20
298.64780399999631
 30
0.0
 11
878.35749815468455
 21
451.1620897142825
 31
0.0
  0
LINE
  5
2B0
  8
SIZE
  6
CONTINUOUS
 62
    30
 10
878.35749815468455
 20
247.25687999999701
 30
0.0
 11
878.35749815468455
 21
286.64780399999631
 31
0.0
  0
CIRCLE
  5
2B1
  8
SIZE
  6
CONTINUOUS
 62
    30
 10
878.35749815468455
 20
247.25687999999701
 30
0.0
 40
6.0
  0
LINE
  5
2B2
  8
SIZE
  6
CONTINUOUS
 62
    30
 10
878.35749815468455
 20
247.25687999999701
 30
0.0
 11
878.35749815468455
 21
235.25687999999701
 31
0.0
  0
CIRCLE
  5
2B3
  8
SIZE
  6
CONTINUOUS
 62
    30
 10
878.35749815468455
 20
286.64780399999631
 30
0.0
 40
6.0
  0
LINE
  5
2B4
  8
SIZE
  6
CONTINUOUS
 62
    30
 10
878.35749815468455
 20
286.64780399999631
 30
0.0
 11
878.35749815468455
 21
298.64780399999631
 31
0.0
  0
TEXT
  5
2B5
  8
SIZE
  6
CONTINUOUS
 62
    30
 10
853.35749815468455
 20
335.64780399999682
 30
0.0
 40
64.0
  1
39
 50
90.0
 41
0.9
 72
     1
 11
853.35749815468455
 21
380.90494685713969
 31
0.0
  0
POINT
  5
2B6
  8
DEFPOINTS
  6
CONTINUOUS
 62
    30
 10
191.098536
 20
247.25687999999721
 30
0.0
  0
POINT
  5
2B7
  8
DEFPOINTS
  6
CONTINUOUS
 62
    30
 10
13.628136429007551
 20
286.64780399999648
 30
0.0
  0
POINT
  5
2B8
  8
DEFPOINTS
  6
CONTINUOUS
 62
    30
 10
878.35749815468455
 20
286.64780399999631
 30
0.0
  0
LINE
  5
2B9
  8
SIZE
  6
CONTINUOUS
 62
    30
 10
-175.1611950373445
 20
203.1110159999989
 30
0.0
 11
-485.3895846794864
 21
203.11101599999901
 31
0.0
  0
LINE
  5
2BA
  8
SIZE
  6
CONTINUOUS
 62
    30
 10
-237.52599200000009
 20
8.8091520000016388
 30
0.0
 11
-485.3895846794864
 21
8.8091520000017081
 31
0.0
  0
LINE
  5
2BB
  8
SIZE
  6
CONTINUOUS
 62
    30
 10
-465.38958467948629
 20
191.11101599999901
 30
0.0
 11
-465.3895846794864
 21
20.809152000001699
 31
0.0
  0
CIRCLE
  5
2BC
  8
SIZE
  6
CONTINUOUS
 62
    30
 10
-465.38958467948629
 20
203.11101599999901
 30
0.0
 40
6.0
  0
LINE
  5
2BD
  8
SIZE
  6
CONTINUOUS
 62
    30
 10
-465.38958467948629
 20
203.11101599999901
 30
0.0
 11
-465.38958467948629
 21
191.11101599999901
 31
0.0
  0
CIRCLE
  5
2BE
  8
SIZE
  6
CONTINUOUS
 62
    30
 10
-465.3895846794864
 20
8.8091520000017027
 30
0.0
 40
6.0
  0
LINE
  5
2BF
  8
SIZE
  6
CONTINUOUS
 62
    30
 10
-465.3895846794864
 20
8.8091520000017027
 30
0.0
 11
-465.3895846794864
 21
20.809152000001699
 31
0.0
  0
TEXT
  5
2C0
  8
SIZE
  6
CONTINUOUS
 62
    30
 10
-490.3895846794864
 20
36.017226857143072
 30
0.0
 40
64.0
  1
194
 50
90.0
 41
0.9
 72
     1
 11
-490.3895846794864
 21
105.96008400000019
 31
0.0
  0
POINT
  5
2C1
  8
DEFPOINTS
  6
CONTINUOUS
 62
    30
 10
-155.1611950373445
 20
203.1110159999989
 30
0.0
  0
POINT
  5
2C2
  8
DEFPOINTS
  6
CONTINUOUS
 62
    30
 10
-217.52599200000009
 20
8.8091520000016281
 30
0.0
  0
POINT
  5
2C3
  8
DEFPOINTS
  6
CONTINUOUS
 62
    30
 10
-465.3895846794864
 20
8.8091520000017027
 30
0.0
  0
LINE
  5
2C4
  8
SIZE
  6
CONTINUOUS
 62
    30
 10
-113.0696192765004
 20
171.77846399999899
 30
0.0
 11
-371.4152578433513
 21
171.77846399999919
 31
0.0
  0
LINE
  5
2C5
  8
SIZE
  6
CONTINUOUS
 62
    30
 10
-183.08556947521211
 20
93.196823999998756
 30
0.0
 11
-371.4152578433513
 21
93.196823999998827
 31
0.0
  0
LINE
  5
2C6
  8
SIZE
  6
CONTINUOUS
 62
    30
 10
-351.4152578433513
 20
183.77846399999919
 30
0.0
 11
-351.4152578433513
 21
195.77846399999919
 31
0.0
  0
LINE
  5
2C7
  8
SIZE
  6
CONTINUOUS
 62
    30
 10
-351.41525784335141
 20
81.196823999998784
 30
0.0
 11
-351.41525784335141
 21
69.196823999998784
 31
0.0
  0
LINE
  5
2C8
  8
SIZE
  6
CONTINUOUS
 62
    30
 10
-351.4152578433513
 20
171.77846399999919
 30
0.0
 11
-351.41525784335141
 21
93.196823999998784
 31
0.0
  0
CIRCLE
  5
2C9
  8
SIZE
  6
CONTINUOUS
 62
    30
 10
-351.4152578433513
 20
171.77846399999919
 30
0.0
 40
6.0
  0
LINE
  5
2CA
  8
SIZE
  6
CONTINUOUS
 62
    30
 10
-351.4152578433513
 20
171.77846399999919
 30
0.0
 11
-351.4152578433513
 21
183.77846399999919
 31
0.0
  0
CIRCLE
  5
2CB
  8
SIZE
  6
CONTINUOUS
 62
    30
 10
-351.41525784335141
 20
93.196823999998784
 30
0.0
 40
6.0
  0
LINE
  5
2CC
  8
SIZE
  6
CONTINUOUS
 62
    30
 10
-351.41525784335141
 20
93.196823999998784
 30
0.0
 11
-351.41525784335141
 21
81.196823999998784
 31
0.0
  0
TEXT
  5
2CD
  8
SIZE
  6
CONTINUOUS
 62
    30
 10
-376.41525784335141
 20
87.230501142856028
 30
0.0
 40
64.0
  1
79
 50
90.0
 41
0.9
 72
     1
 11
-376.41525784335141
 21
132.48764399999891
 31
0.0
  0
POINT
  5
2CE
  8
DEFPOINTS
  6
CONTINUOUS
 62
    30
 10
-93.069619276500362
 20
171.77846399999899
 30
0.0
  0
POINT
  5
2CF
  8
DEFPOINTS
  6
CONTINUOUS
 62
    30
 10
-163.0855694752122
 20
93.196823999998756
 30
0.0
  0
POINT
  5
2D0
  8
DEFPOINTS
  6
CONTINUOUS
 62
    30
 10
-351.41525784335141
 20
93.196823999998784
 30
0.0
  0
LINE
  5
2D1
  8
SIZE
  6
CONTINUOUS
 62
    30
 10
-183.08556947521211
 20
93.196823999998756
 30
0.0
 11
-371.4152578433513
 21
93.196823999998827
 31
0.0
  0
LINE
  5
2D2
  8
SIZE
  6
CONTINUOUS
 62
    30
 10
-237.52599200000009
 20
8.8091520000016388
 30
0.0
 11
-371.4152578433513
 21
8.8091520000016743
 31
0.0
  0
LINE
  5
2D3
  8
SIZE
  6
CONTINUOUS
 62
    30
 10
-351.41525784335141
 20
81.196823999998784
 30
0.0
 11
-351.41525784335141
 21
20.809152000001671
 31
0.0
  0
LINE
  5
2D4
  8
SIZE
  6
CONTINUOUS
 62
    30
 10
-351.41525784335141
 20
8.8091520000016708
 30
0.0
 11
-351.41525784335141
 21
-149.19084799999831
 31
0.0
  0
CIRCLE
  5
2D5
  8
SIZE
  6
CONTINUOUS
 62
    30
 10
-351.41525784335141
 20
93.196823999998784
 30
0.0
 40
6.0
  0
LINE
  5
2D6
  8
SIZE
  6
CONTINUOUS
 62
    30
 10
-351.41525784335141
 20
93.196823999998784
 30
0.0
 11
-351.41525784335141
 21
81.196823999998784
 31
0.0
  0
CIRCLE
  5
2D7
  8
SIZE
  6
CONTINUOUS
 62
    30
 10
-351.41525784335141
 20
8.8091520000016708
 30
0.0
 40
6.0
  0
LINE
  5
2D8
  8
SIZE
  6
CONTINUOUS
 62
    30
 10
-351.41525784335141
 20
8.8091520000016708
 30
0.0
 11
-351.41525784335141
 21
20.809152000001671
 31
0.0
  0
TEXT
  5
2D9
  8
SIZE
  6
CONTINUOUS
 62
    30
 10
-376.41525784335141
 20
-124.1908479999983
 30
0.0
 40
64.0
  1
84
 50
90.0
 41
0.9
 72
     1
 11
-376.41525784335141
 21
-76.190847999998383
 31
0.0
  0
POINT
  5
2DA
  8
DEFPOINTS
  6
CONTINUOUS
 62
    30
 10
-163.0855694752122
 20
93.196823999998756
 30
0.0
  0
POINT
  5
2DB
  8
DEFPOINTS
  6
CONTINUOUS
 62
    30
 10
-217.52599200000009
 20
8.8091520000016281
 30
0.0
  0
POINT
  5
2DC
  8
DEFPOINTS
  6
CONTINUOUS
 62
    30
 10
-351.41525784335141
 20
8.8091520000016708
 30
0.0
  0
LINE
  5
2DD
  8
SIZE
  6
CONTINUOUS
 62
    30
 10
422.80241147846249
 20
385.85998493901508
 30
0.0
 11
100.8694150968297
 21
190.46979578830101
 31
0.0
  0
LINE
  5
2DE
  8
SIZE
  6
CONTINUOUS
 62
    30
 10
39.276184903170098
 20
153.08713221169711
 30
0.0
 11
29.017757632994051
 21
146.86100420606559
 31
0.0
  0
TEXT
  5
2DF
  8
SIZE
  6
CONTINUOUS
 62
    30
 10
245.28646780862911
 20
319.84236152633503
 30
0.0
 40
64.0
  1
φ49
 50
31.254741234314679
 41
0.9
 72
     1
 11
318.44370914108453
 21
364.2435486750669
 31
0.0
  0
LINE
  5
2E0
  8
SIZE
  6
CONTINUOUS
 62
    30
 10
49.53461217334614
 20
159.3132602173286
 30
0.0
 11
90.610987826653684
 21
184.24366778266949
 31
0.0
  0
CIRCLE
  5
2E1
  8
SIZE
  6
CONTINUOUS
 62
    30
 10
49.53461217334614
 20
159.3132602173286
 30
0.0
 40
6.0
  0
LINE
  5
2E2
  8
SIZE
  6
CONTINUOUS
 62
    30
 10
49.53461217334614
 20
159.3132602173286
 30
0.0
 11
39.276184903170098
 21
153.08713221169711
 31
0.0
  0
CIRCLE
  5
2E3
  8
SIZE
  6
CONTINUOUS
 62
    30
 10
90.610987826653684
 20
184.24366778266949
 30
0.0
 40
6.0
  0
LINE
  5
2E4
  8
SIZE
  6
CONTINUOUS
 62
    30
 10
90.610987826653684
 20
184.24366778266949
 30
0.0
 11
100.8694150968297
 21
190.46979578830101
 31
0.0
  0
POINT
  5
2E5
  8
DEFPOINTS
  6
CONTINUOUS
 62
    30
 10
90.610987826653684
 20
184.24366778266949
 30
0.0
  0
POINT
  5
2E6
  8
DEFPOINTS
  6
CONTINUOUS
 62
    30
 10
49.53461217334614
 20
159.3132602173286
 30
0.0
  0
TEXT
  5
2E7
  8
NOTE
  6
CONTINUOUS
 62
     4
 10
-1009.3859646849839
 20
320.41498968506681
 30
0.0
 40
64.0
  1
野縁ネジ（6ヵ所）
 41
0.9
  0
ENDSEC
  0
EOF
