  0
SECTION
  2
HEADER
  9
$ACADVER
  1
AC1009
  9
$DWGCODEPAGE
  3
dos932
  9
$INSBASE
 10
0.0
 20
0.0
 30
0.0
  9
$EXTMIN
 10
-1018.76219092957
 20
-529.6783331195802
 30
-0.0015258207003583
  9
$EXTMAX
 10
1223.1491206832559
 20
998.15369501960595
 30
0.0000000349246037
  9
$LIMMIN
 10
-2970.0
 20
-2100.0
  9
$LIMMAX
 10
2970.0
 20
2100.0
  9
$ORTHOMODE
 70
     1
  9
$REGENMODE
 70
     1
  9
$FILLMODE
 70
     1
  9
$QTEXTMODE
 70
     0
  9
$MIRRTEXT
 70
     0
  9
$LTSCALE
 40
20.0
  9
$ATTMODE
 70
     1
  9
$TEXTSIZE
 40
64.0
  9
$TRACEWID
 40
0.05
  9
$TEXTSTYLE
  7
STANDARD
  9
$CLAYER
  8
SIZE
  9
$CELTYPE
  6
CONTINUOUS
  9
$CECOLOR
 62
     7
  9
$DIMSCALE
 40
1.0
  9
$DIMASZ
 40
12.0
  9
$DIMEXO
 40
20.0
  9
$DIMDLI
 40
200.0
  9
$DIMRND
 40
0.0
  9
$DIMDLE
 40
0.0
  9
$DIMEXE
 40
20.0
  9
$DIMTP
 40
0.0
  9
$DIMTM
 40
0.0
  9
$DIMTXT
 40
64.0
  9
$DIMCEN
 40
0.09
  9
$DIMTSZ
 40
0.0
  9
$DIMTOL
 70
     0
  9
$DIMLIM
 70
     0
  9
$DIMTIH
 70
     0
  9
$DIMTOH
 70
     0
  9
$DIMSE1
 70
     0
  9
$DIMSE2
 70
     0
  9
$DIMTAD
 70
     1
  9
$DIMZIN
 70
     8
  9
$DIMBLK
  1

  9
$DIMASO
 70
     1
  9
$DIMSHO
 70
     0
  9
$DIMPOST
  1

  9
$DIMAPOST
  1

  9
$DIMALT
 70
     0
  9
$DIMALTD
 70
     2
  9
$DIMALTF
 40
25.399999999999999
  9
$DIMLFAC
 40
1.0
  9
$DIMTOFL
 70
     1
  9
$DIMTVP
 40
0.0
  9
$DIMTIX
 70
     1
  9
$DIMSOXD
 70
     0
  9
$DIMSAH
 70
     0
  9
$DIMBLK1
  1

  9
$DIMBLK2
  1

  9
$DIMSTYLE
  2
STANDARD
  9
$DIMCLRD
 70
     7
  9
$DIMCLRE
 70
     7
  9
$DIMCLRT
 70
     7
  9
$DIMTFAC
 40
1.0
  9
$DIMGAP
 40
25.0
  9
$LUNITS
 70
     2
  9
$LUPREC
 70
     4
  9
$SKETCHINC
 40
0.1
  9
$FILLETRAD
 40
3.0
  9
$AUNITS
 70
     1
  9
$AUPREC
 70
     3
  9
$MENU
  1
ACAD
  9
$ELEVATION
 40
0.0
  9
$PELEVATION
 40
0.0
  9
$THICKNESS
 40
0.0
  9
$LIMCHECK
 70
     0
  9
$CHAMFERA
 40
0.0
  9
$CHAMFERB
 40
0.0
  9
$SKPOLY
 70
     0
  9
$TDCREATE
 40
2453019.62301037
  9
$TDUPDATE
 40
2459019.505105764
  9
$TDINDWG
 40
1.713175706
  9
$TDUSRTIMER
 40
1.713175706
  9
$USRTIMER
 70
     1
  9
$ANGBASE
 50
0.0
  9
$ANGDIR
 70
     0
  9
$PDMODE
 70
     3
  9
$PDSIZE
 40
-2.0
  9
$PLINEWID
 40
0.0
  9
$SPLFRAME
 70
     0
  9
$SPLINETYPE
 70
     6
  9
$SPLINESEGS
 70
     8
  9
$SURFTAB1
 70
     6
  9
$SURFTAB2
 70
     6
  9
$SURFTYPE
 70
     6
  9
$SURFU
 70
     6
  9
$SURFV
 70
     6
  9
$UCSNAME
  2

  9
$UCSORG
 10
0.0
 20
0.0
 30
0.0
  9
$UCSXDIR
 10
1.0
 20
0.0
 30
0.0
  9
$UCSYDIR
 10
0.0
 20
1.0
 30
0.0
  9
$PUCSNAME
  2

  9
$PUCSORG
 10
0.0
 20
0.0
 30
0.0
  9
$PUCSXDIR
 10
1.0
 20
0.0
 30
0.0
  9
$PUCSYDIR
 10
0.0
 20
1.0
 30
0.0
  9
$USERI1
 70
     0
  9
$USERI2
 70
     0
  9
$USERI3
 70
     0
  9
$USERI4
 70
     0
  9
$USERI5
 70
     0
  9
$USERR1
 40
20.0
  9
$USERR2
 40
0.0
  9
$USERR3
 40
0.0
  9
$USERR4
 40
0.0
  9
$USERR5
 40
0.0
  9
$WORLDVIEW
 70
     1
  9
$SHADEDGE
 70
     3
  9
$SHADEDIF
 70
    70
  9
$TILEMODE
 70
     1
  9
$MAXACTVP
 70
    48
  9
$PINSBASE
 10
0.0
 20
0.0
 30
0.0
  9
$PLIMCHECK
 70
     0
  9
$PEXTMIN
 10
-100000000000000000000.0
 20
-100000000000000000000.0
 30
-100000000000000000000.0
  9
$PEXTMAX
 10
100000000000000000000.0
 20
100000000000000000000.0
 30
100000000000000000000.0
  9
$PLIMMIN
 10
0.0
 20
0.0
  9
$PLIMMAX
 10
12.0
 20
9.0
  9
$UNITMODE
 70
     0
  9
$VISRETAIN
 70
     0
  9
$PLINEGEN
 70
     0
  9
$PSLTSCALE
 70
     0
  9
$TREEDEPTH
 70
  3020
  9
$ATTDIA
 70
     0
  9
$ATTREQ
 70
     1
  9
$BLIPMODE
 70
     1
  9
$COORDS
 70
     1
  9
$DRAGMODE
 70
     2
  9
$OSMODE
 70
     0
  9
$HANDLING
 70
     0
  9
$HANDSEED
  5
F558
  0
ENDSEC
  0
SECTION
  2
TABLES
  0
TABLE
  2
LTYPE
 70
     2
  0
LTYPE
  2
CONTINUOUS
 70
     0
  3
実線
 72
    65
 73
     0
 40
0.0
  0
LTYPE
  2
DASHDOT
 70
     0
  3
____ _ ____ _ ____ _ ____ _ ____ _ ____ _ ____
 72
    65
 73
     4
 40
5.5
 49
4.0
 49
-0.6
 49
0.3
 49
-0.6
  0
ENDTAB
  0
TABLE
  2
LAYER
 70
    12
  0
LAYER
  2
0
 70
     0
 62
     7
  6
CONTINUOUS
  0
LAYER
  2
BASIS
 70
     0
 62
     6
  6
DASHDOT
  0
LAYER
  2
OUTLINE
 70
     0
 62
     3
  6
CONTINUOUS
  0
LAYER
  2
DETAIL
 70
     0
 62
     5
  6
CONTINUOUS
  0
LAYER
  2
SIZE
 70
     0
 62
    30
  6
CONTINUOUS
  0
LAYER
  2
ARRANGE
 70
     0
 62
     1
  6
CONTINUOUS
  0
LAYER
  2
DEFPOINTS
 70
     0
 62
     7
  6
CONTINUOUS
  0
LAYER
  2
ETC
 70
     0
 62
    61
  6
CONTINUOUS
  0
LAYER
  2
FIX
 70
     0
 62
    11
  6
CONTINUOUS
  0
LAYER
  2
NOTE
 70
     0
 62
     4
  6
CONTINUOUS
  0
LAYER
  2
SERVICESPACE
 70
    64
 62
     2
  6
DASHDOT
  0
LAYER
  2
SYMBOLLINE
 70
    64
 62
    15
  6
CONTINUOUS
  0
ENDTAB
  0
TABLE
  2
STYLE
 70
     1
  0
STYLE
  2
STANDARD
 70
     0
 40
64.0
 41
0.9
 50
0.0
 71
     0
 42
64.0
  3
SIMPLEX.shx
  4
BIGFONT.shx
  0
ENDTAB
  0
TABLE
  2
APPID
 70
    19
  0
APPID
  2
ACAD
 70
     0
  0
APPID
  2
AUTOCAD_POSTSCRIPT_FIGURE
 70
     0
  0
APPID
  2
ACAD_EXEMPT_FROM_CAD_STANDARDS
 70
     0
  0
APPID
  2
ACAD_PSEXT
 70
     0
  0
APPID
  2
ACAUTHENVIRON
 70
     0
  0
APPID
  2
GENIUS_GENOENT_13
 70
     0
  0
APPID
  2
GENIUS_GENCFG_13
 70
     0
  0
APPID
  2
GENIUS_GENCFG0_13
 70
     0
  0
APPID
  2
GENIUS_GENCFG1_13
 70
     0
  0
APPID
  2
GENIUS_GENCFG2_13
 70
     0
  0
APPID
  2
GENIUS_GENCFG3_13
 70
     0
  0
APPID
  2
GENIUS_GENCFG4_13
 70
     0
  0
APPID
  2
GENIUS_GEVCFG0_13
 70
     0
  0
APPID
  2
CONTENTBLOCKICON
 70
     0
  0
APPID
  2
CONTENTBLOCKDESCRIPTION
 70
     0
  0
APPID
  2
ACAD_NAV_VCDISPLAY
 70
     0
  0
APPID
  2
ACAD_MLEADERVER
 70
     0
  0
APPID
  2
ACDBDYNAMICBLOCKTRUENAME
 70
     0
  0
APPID
  2
ACDBDYNAMICBLOCKGUID
 70
     0
  0
ENDTAB
  0
TABLE
  2
DIMSTYLE
 70
     1
  0
DIMSTYLE
  2
STANDARD
 70
     0
  3

  4

  5
_ORIGIN
  6

  7

 40
1.0
 41
12.0
 42
20.0
 43
200.0
 44
20.0
 45
0.0
 46
0.0
 47
0.0
 48
0.0
140
64.0
141
0.09
142
0.0
143
25.399999999999999
144
1.0
145
0.0
146
1.0
147
25.0
 71
     0
 72
     0
 73
     0
 74
     0
 75
     0
 76
     0
 77
     1
 78
     8
170
     0
171
     2
172
     1
173
     0
174
     1
175
     0
176
     7
177
     7
178
     7
  0
ENDTAB
  0
TABLE
  2
VIEW
 70
     1
  0
VIEW
  2
ALL
 70
     0
 40
4282.6198079999986
 10
0.0
 20
41.309904000000003
 41
5940.0
 11
0.0
 21
0.0
 31
1.0
 12
0.0
 22
0.0
 32
0.0
 42
50.0
 43
0.0
 44
0.0
 50
0.0
 71
     0
  0
ENDTAB
  0
TABLE
  2
UCS
 70
     0
  0
ENDTAB
  0
TABLE
  2
VPORT
 70
     1
  0
VPORT
  2
*ACTIVE
 70
     0
 10
0.0
 20
0.0
 11
1.0
 21
1.0
 12
102.1934648768428
 22
234.2376809500129
 13
0.0
 23
0.0
 14
1.0
 24
1.0
 15
0.0
 25
0.0
 16
0.0
 26
0.0
 36
1.0
 17
0.0
 27
0.0
 37
0.0
 40
1537.961301253921
 41
1.747787610619469
 42
50.0
 43
0.0
 44
0.0
 50
0.0
 51
0.0
 71
     0
 72
  1000
 73
     1
 74
     3
 75
     0
 76
     0
 77
     0
 78
     0
  0
ENDTAB
  0
ENDSEC
  0
SECTION
  2
BLOCKS
  0
BLOCK
  8
0
  2
_ORIGIN
 70
     0
 10
0.0
 20
0.0
 30
0.0
  3
_ORIGIN
  1
_ORIGIN
  0
CIRCLE
  8
0
  6
CONTINUOUS
 62
     7
 10
0.0
 20
0.0
 30
0.0
 40
0.5
  0
LINE
  8
0
  6
CONTINUOUS
 62
     7
 10
0.0
 20
0.0
 30
0.0
 11
-1.0
 21
0.0
 31
0.0
  0
ENDBLK
  8
0
  0
ENDSEC
  0
SECTION
  2
ENTITIES
  0
TEXT
  8
ETC
  6
CONTINUOUS
 62
    61
 10
565.00400412648287
 20
792.89753757840481
 30
0.0
 40
64.0
  1
VL-11ZFHV2_2
 41
0.9
  0
TEXT
  8
ETC
  6
CONTINUOUS
 62
    61
 10
758.43052979446111
 20
682.16806506138437
 30
0.0
 40
64.0
  1
換気扇
 41
0.9
  0
TEXT
  8
ETC
  6
CONTINUOUS
 62
    61
 10
929.62736530767961
 20
593.28819657610666
 30
0.0
 40
40.0
  1
VL-11ZFHV2
 41
0.9
  0
LINE
  8
DETAIL
  6
CONTINUOUS
 62
     5
 10
80.191822463999415
 20
136.2936785864182
 30
0.0
 11
80.214923922054822
 21
136.2661560251905
 31
0.0
  0
ARC
  8
DETAIL
  6
CONTINUOUS
 62
     5
 10
115.11959999999949
 20
109.3876239999987
 30
0.0
 40
44.08951595341383
 50
93.027917362017263
 51
102.369137091895
  0
ARC
  8
DETAIL
  6
CONTINUOUS
 62
     5
 10
115.11959999999949
 20
109.3876239999987
 30
0.0
 40
44.089515953413439
 50
137.23086290809789
 51
92.850432984899143
  0
ARC
  8
DETAIL
  6
CONTINUOUS
 62
     5
 10
115.11959999999949
 20
109.3876239999987
 30
0.0
 40
38.548699709241333
 50
339.84060045711573
 51
0.0
  0
ARC
  8
DETAIL
  6
CONTINUOUS
 62
     5
 10
115.11959999999949
 20
109.3876239999987
 30
0.0
 40
38.548699709242563
 50
0.0
 51
180.0
  0
ARC
  8
DETAIL
  6
CONTINUOUS
 62
     5
 10
115.11959999999949
 20
109.3876239999987
 30
0.0
 40
38.548699709238903
 50
180.0
 51
339.80663335949117
  0
CIRCLE
  8
DETAIL
  6
CONTINUOUS
 62
     5
 10
115.11959999999949
 20
109.3876239999987
 30
0.0
 40
38.548699709240992
  0
LINE
  8
DETAIL
  6
CONTINUOUS
 62
     5
 10
-51.667656428507136
 20
302.83860399999651
 30
0.0
 11
13.628136429007551
 21
302.83860399999651
 31
0.0
  0
LINE
  8
DETAIL
  6
CONTINUOUS
 62
     5
 10
-52.881437517878567
 20
302.13787610660768
 30
0.0
 11
14.841917518378979
 21
302.13787610660768
 31
0.0
  0
LINE
  8
DETAIL
  6
CONTINUOUS
 62
     5
 10
-52.910335082622623
 20
302.08782399999802
 30
0.0
 11
14.870815083123031
 21
302.08782399999802
 31
0.0
  0
LINE
  8
DETAIL
  6
CONTINUOUS
 62
     5
 10
16.01653158086128
 20
301.83756399999709
 30
0.0
 11
-54.056051580360872
 21
301.83756399999709
 31
0.0
  0
LINE
  8
DETAIL
  6
CONTINUOUS
 62
     5
 10
-229.93888800000011
 20
191.27269599999599
 30
0.0
 11
-229.93888800000011
 21
185.06624799999881
 31
0.0
  0
LINE
  8
DETAIL
  6
CONTINUOUS
 62
     5
 10
-228.33722400000011
 20
191.27269599999599
 30
0.0
 11
-228.33722400000011
 21
185.06624799999881
 31
0.0
  0
LINE
  8
DETAIL
  6
CONTINUOUS
 62
     5
 10
-226.73556000000011
 20
194.47602399999931
 30
0.0
 11
-226.73556000000011
 21
192.8743600000013
 31
0.0
  0
LINE
  8
DETAIL
  6
CONTINUOUS
 62
     5
 10
-174.20230251665751
 20
251.31375348334021
 30
0.0
 11
-166.95212948334299
 21
258.56392651715532
 31
0.0
  0
LINE
  8
DETAIL
  6
CONTINUOUS
 62
     5
 10
21.522359999999939
 20
296.33184399999641
 30
0.0
 11
-59.561880000000201
 21
296.33184399999641
 31
0.0
  0
LINE
  8
DETAIL
  6
CONTINUOUS
 62
     5
 10
-217.52599200000009
 20
25.800783999998771
 30
0.0
 11
-217.52599200000009
 21
24.999952000001599
 31
0.0
  0
LINE
  8
DETAIL
  6
CONTINUOUS
 62
     5
 10
-212.7210000000002
 20
-9.0093600000000151
 30
0.0
 11
-212.7210000000002
 21
0.0
 31
0.0
  0
LINE
  8
DETAIL
  6
CONTINUOUS
 62
     5
 10
-207.515592
 20
25.800783999998771
 30
0.0
 11
-207.515592
 21
24.999952000001599
 31
0.0
  0
LINE
  8
DETAIL
  6
CONTINUOUS
 62
     5
 10
-113.1175200000002
 20
259.14941292642072
 30
0.0
 11
-112.82341292641919
 21
259.44351999999662
 31
0.0
  0
LINE
  8
DETAIL
  6
CONTINUOUS
 62
     5
 10
21.522359999499709
 20
275.19385793008018
 30
0.0
 11
16.123125000846361
 21
275.19385793008018
 31
0.0
  0
LINE
  8
DETAIL
  6
CONTINUOUS
 62
     5
 10
-59.561880000000201
 20
275.19385793008018
 30
0.0
 11
16.123125000846361
 21
275.19385793008018
 31
0.0
  0
LINE
  8
DETAIL
  6
CONTINUOUS
 62
     5
 10
22.02287999999999
 20
274.32693185966082
 30
0.0
 11
10.50149248206753
 21
274.32693185966082
 31
0.0
  0
LINE
  8
DETAIL
  6
CONTINUOUS
 62
     5
 10
10.50149248206753
 20
274.32693185966082
 30
0.0
 11
-60.062400000000252
 21
274.32693185966082
 31
0.0
  0
LINE
  8
DETAIL
  6
CONTINUOUS
 62
     5
 10
-60.062400000000252
 20
269.05350399999918
 30
0.0
 11
-34.591358891103482
 21
269.05350399999918
 31
0.0
  0
LINE
  8
DETAIL
  6
CONTINUOUS
 62
     5
 10
-34.591358891103482
 20
269.05350399999918
 30
0.0
 11
5.4968293648457802
 21
269.05350399999918
 31
0.0
  0
LINE
  8
DETAIL
  6
CONTINUOUS
 62
     5
 10
5.4968293648457802
 20
269.05350399999918
 30
0.0
 11
16.525901589807749
 21
269.05350399999918
 31
0.0
  0
LINE
  8
DETAIL
  6
CONTINUOUS
 62
     5
 10
16.525901589807749
 20
269.05350399999918
 30
0.0
 11
22.02287999999999
 21
269.05350399999918
 31
0.0
  0
LINE
  8
DETAIL
  6
CONTINUOUS
 62
     5
 10
-191.1986400000001
 20
268.45287999999692
 30
0.0
 11
191.1986400000001
 21
268.45287999999692
 31
0.0
  0
LINE
  8
DETAIL
  6
CONTINUOUS
 62
     5
 10
-191.09853600000011
 20
263.44767999999698
 30
0.0
 11
191.098536
 21
263.44767999999698
 31
0.0
  0
LINE
  8
DETAIL
  6
CONTINUOUS
 62
     5
 10
192.49999199999999
 20
262.04622399999772
 30
0.0
 11
191.69916000000009
 21
262.04622399999772
 31
0.0
  0
LINE
  8
DETAIL
  6
CONTINUOUS
 62
     5
 10
191.69916000000009
 20
262.04622399999772
 30
0.0
 11
191.0461109100504
 21
262.04622399999772
 31
0.0
  0
LINE
  8
DETAIL
  6
CONTINUOUS
 62
     5
 10
-192.49999199999999
 20
262.04622399999772
 30
0.0
 11
-191.69916000000001
 21
262.04622399999772
 31
0.0
  0
LINE
  8
DETAIL
  6
CONTINUOUS
 62
     5
 10
-191.69916000000001
 20
262.04622399999772
 30
0.0
 11
-191.04611090955021
 21
262.04622399999772
 31
0.0
  0
LINE
  8
DETAIL
  6
CONTINUOUS
 62
     5
 10
-189.49687199999991
 20
261.84601599999928
 30
0.0
 11
189.4968720000002
 21
261.84601599999928
 31
0.0
  0
LINE
  8
DETAIL
  6
CONTINUOUS
 62
     5
 10
-164.82860296618509
 20
259.44351999999662
 30
0.0
 11
-97.243669033314745
 21
259.44351999999662
 31
0.0
  0
LINE
  8
DETAIL
  6
CONTINUOUS
 62
     5
 10
-95.949885494836963
 20
259.14941292642072
 30
0.0
 11
-113.1175200000002
 21
259.14941292642072
 31
0.0
  0
LINE
  8
DETAIL
  6
CONTINUOUS
 62
     5
 10
-149.1549600000001
 20
259.14941292642072
 30
0.0
 11
-166.12238650466259
 21
259.14941292642072
 31
0.0
  0
LINE
  8
DETAIL
  6
CONTINUOUS
 62
     5
 10
-191.53040139739301
 20
40.015552000000412
 30
0.0
 11
-191.32248593646139
 21
0.0
 31
0.0
  0
LINE
  8
DETAIL
  6
CONTINUOUS
 62
     5
 10
-195.7033200000003
 20
192.8743600000013
 30
0.0
 11
-195.7033200000003
 21
194.47602399999931
 31
0.0
  0
LINE
  8
DETAIL
  6
CONTINUOUS
 62
     5
 10
-194.1016560000003
 20
212.89515999999969
 30
0.0
 11
-194.1016560000003
 21
196.0776879999971
 31
0.0
  0
LINE
  8
DETAIL
  6
CONTINUOUS
 62
     5
 10
-193.30082399999989
 20
24.999952000001599
 30
0.0
 11
-193.30082399999989
 21
25.800783999998771
 31
0.0
  0
LINE
  8
DETAIL
  6
CONTINUOUS
 62
     5
 10
-193.30082399999989
 20
41.316903999998999
 30
0.0
 11
-193.30082399999989
 21
36.511911999997778
 31
0.0
  0
LINE
  8
DETAIL
  6
CONTINUOUS
 62
     5
 10
-192.49999199999999
 20
262.04622399999772
 30
0.0
 11
-192.49999199999999
 21
26.601615999999581
 31
0.0
  0
LINE
  8
DETAIL
  6
CONTINUOUS
 62
     5
 10
-191.69916000000001
 20
40.015552000000412
 30
0.0
 11
-191.69916000000001
 21
26.601615999999581
 31
0.0
  0
LINE
  8
DETAIL
  6
CONTINUOUS
 62
     5
 10
-191.1986400000001
 20
263.44767999999698
 30
0.0
 11
-191.1986400000001
 21
268.45287999999692
 31
0.0
  0
LINE
  8
DETAIL
  6
CONTINUOUS
 62
     5
 10
-191.1986400000001
 20
40.015552000000412
 30
0.0
 11
-191.1986400000001
 21
36.411808000000413
 31
0.0
  0
LINE
  8
DETAIL
  6
CONTINUOUS
 62
     5
 10
-191.09853600000011
 20
263.44767999999698
 30
0.0
 11
-191.09853600000011
 21
262.64684799999998
 31
0.0
  0
LINE
  8
DETAIL
  6
CONTINUOUS
 62
     5
 10
-191.09853600000011
 20
262.64684799999998
 30
0.0
 11
-191.09853600000011
 21
261.99379891004668
 31
0.0
  0
LINE
  8
DETAIL
  6
CONTINUOUS
 62
     5
 10
-190.9483800000003
 20
261.9129952014988
 30
0.0
 11
-190.9483800000003
 21
261.52865364354841
 31
0.0
  0
LINE
  8
DETAIL
  6
CONTINUOUS
 62
     5
 10
-190.89832799999979
 20
40.015552000000412
 30
0.0
 11
-190.89832799999979
 21
260.44455999999582
 31
0.0
  0
LINE
  8
DETAIL
  6
CONTINUOUS
 62
     5
 10
-179.48647199999979
 20
247.78877096668251
 30
0.0
 11
-179.48647199999979
 21
43.018671999997991
 31
0.0
  0
LINE
  8
DETAIL
  6
CONTINUOUS
 62
     5
 10
176.84108296668549
 20
250.43415999999669
 30
0.0
 11
-85.746442966184986
 21
250.43415999999669
 31
0.0
  0
LINE
  8
DETAIL
  6
CONTINUOUS
 62
     5
 10
-176.3258290333147
 20
250.43415999999669
 30
0.0
 11
-176.84108296618501
 21
250.43415999999669
 31
0.0
  0
LINE
  8
DETAIL
  6
CONTINUOUS
 62
     5
 10
-171.17784000000009
 20
254.33821599999979
 30
0.0
 11
-171.17784000000009
 21
162.94326399999741
 31
0.0
  0
LINE
  8
DETAIL
  6
CONTINUOUS
 62
     5
 10
-169.62819419221569
 20
175.95678400000139
 30
0.0
 11
-169.62819419221569
 21
163.94430399999661
 31
0.0
  0
LINE
  8
DETAIL
  6
CONTINUOUS
 62
     5
 10
-52.881437527888473
 20
302.137876097098
 30
0.0
 11
-52.910335060098987
 21
302.08782410660888
 31
0.0
  0
LINE
  8
DETAIL
  6
CONTINUOUS
 62
     5
 10
194.1016560000003
 20
212.89515999999969
 30
0.0
 11
192.49999199999999
 21
212.89515999999969
 31
0.0
  0
LINE
  8
DETAIL
  6
CONTINUOUS
 62
     5
 10
-194.1016560000003
 20
212.89515999999969
 30
0.0
 11
-192.49999199999999
 21
212.89515999999969
 31
0.0
  0
LINE
  8
DETAIL
  6
CONTINUOUS
 62
     5
 10
194.1016560000003
 20
209.8920399999985
 30
0.0
 11
192.49999199999999
 21
209.8920399999985
 31
0.0
  0
LINE
  8
DETAIL
  6
CONTINUOUS
 62
     5
 10
-194.1016560000003
 20
209.8920399999985
 30
0.0
 11
-192.49999199999999
 21
209.8920399999985
 31
0.0
  0
LINE
  8
DETAIL
  6
CONTINUOUS
 62
     5
 10
-149.1549600000001
 20
259.44351999999662
 30
0.0
 11
-149.1549600000001
 21
259.14941292642072
 31
0.0
  0
LINE
  8
DETAIL
  6
CONTINUOUS
 62
     5
 10
-60.062400000000252
 20
274.32693185966082
 30
0.0
 11
-59.561880000000201
 21
275.19385793008018
 31
0.0
  0
LINE
  8
DETAIL
  6
CONTINUOUS
 62
     5
 10
-192.49999199999999
 20
196.0776879999971
 30
0.0
 11
-194.1016560000003
 21
196.0776879999971
 31
0.0
  0
LINE
  8
DETAIL
  6
CONTINUOUS
 62
     5
 10
192.49999199999999
 20
196.0776879999971
 30
0.0
 11
194.1016560000003
 21
196.0776879999971
 31
0.0
  0
LINE
  8
DETAIL
  6
CONTINUOUS
 62
     5
 10
-226.73556000000011
 20
194.47602399999931
 30
0.0
 11
-195.7033200000003
 21
194.47602399999931
 31
0.0
  0
LINE
  8
DETAIL
  6
CONTINUOUS
 62
     5
 10
195.70331999999959
 20
194.47602399999931
 30
0.0
 11
226.73556000000011
 21
194.47602399999931
 31
0.0
  0
LINE
  8
DETAIL
  6
CONTINUOUS
 62
     5
 10
-226.73556000000011
 20
192.8743600000013
 30
0.0
 11
-195.7033200000003
 21
192.8743600000013
 31
0.0
  0
LINE
  8
DETAIL
  6
CONTINUOUS
 62
     5
 10
194.90248799999969
 20
192.8743600000013
 30
0.0
 11
226.73556000000011
 21
192.8743600000013
 31
0.0
  0
LINE
  8
DETAIL
  6
CONTINUOUS
 62
     5
 10
229.93888799999971
 20
191.27269599999599
 30
0.0
 11
227.53639200000001
 21
191.27269599999599
 31
0.0
  0
LINE
  8
DETAIL
  6
CONTINUOUS
 62
     5
 10
-229.93888800000011
 20
191.27269599999599
 30
0.0
 11
-228.33722400000011
 21
191.27269599999599
 31
0.0
  0
LINE
  8
DETAIL
  6
CONTINUOUS
 62
     5
 10
-228.33722400000011
 20
188.06936800000011
 30
0.0
 11
-229.93888800000011
 21
188.06936800000011
 31
0.0
  0
LINE
  8
DETAIL
  6
CONTINUOUS
 62
     5
 10
227.53639200000001
 20
188.06936800000011
 30
0.0
 11
229.93888799999971
 21
188.06936800000011
 31
0.0
  0
LINE
  8
DETAIL
  6
CONTINUOUS
 62
     5
 10
14.841917527889111
 20
302.137876097098
 30
0.0
 11
14.8708150605994
 21
302.08782410660888
 31
0.0
  0
LINE
  8
DETAIL
  6
CONTINUOUS
 62
     5
 10
22.02287999999999
 20
274.32693185966082
 30
0.0
 11
21.522359999999939
 21
275.19385793008018
 31
0.0
  0
LINE
  8
DETAIL
  6
CONTINUOUS
 62
     5
 10
-121.6744458077842
 20
163.94430399999661
 30
0.0
 11
-121.6744458077842
 21
175.95678400000139
 31
0.0
  0
LINE
  8
DETAIL
  6
CONTINUOUS
 62
     5
 10
-119.6242800000005
 20
178.77823801815941
 30
0.0
 11
-119.6242800000005
 21
162.94326399999741
 31
0.0
  0
LINE
  8
DETAIL
  6
CONTINUOUS
 62
     5
 10
-113.1175200000002
 20
259.44351999999662
 30
0.0
 11
-113.1175200000002
 21
259.14941292642072
 31
0.0
  0
LINE
  8
DETAIL
  6
CONTINUOUS
 62
     5
 10
-228.33722400000011
 20
185.06624799999881
 30
0.0
 11
-229.93888800000011
 21
185.06624799999881
 31
0.0
  0
LINE
  8
DETAIL
  6
CONTINUOUS
 62
     5
 10
227.53639200000001
 20
185.06624799999881
 30
0.0
 11
229.93888799999971
 21
185.06624799999881
 31
0.0
  0
LINE
  8
DETAIL
  6
CONTINUOUS
 62
     5
 10
-123.62844
 20
177.9107781922136
 30
0.0
 11
-167.67420000000021
 21
177.9107781922136
 31
0.0
  0
LINE
  8
DETAIL
  6
CONTINUOUS
 62
     5
 10
-83.935698336737005
 20
183.8227536409282
 30
0.0
 11
-83.900032293588538
 21
183.8183830492377
 31
0.0
  0
LINE
  8
DETAIL
  6
CONTINUOUS
 62
     5
 10
-91.094640000000254
 20
254.538423999998
 30
0.0
 11
-91.094640000000254
 21
219.30181599999889
 31
0.0
  0
LINE
  8
DETAIL
  6
CONTINUOUS
 62
     5
 10
-167.67420000000021
 20
161.99030980778431
 30
0.0
 11
-123.62844
 21
161.99030980778431
 31
0.0
  0
LINE
  8
DETAIL
  6
CONTINUOUS
 62
     5
 10
-122.62740000000031
 20
159.9401439999962
 30
0.0
 11
-168.17472000000009
 21
159.9401439999962
 31
0.0
  0
LINE
  8
DETAIL
  6
CONTINUOUS
 62
     5
 10
-95.120142516657324
 20
258.56392651715532
 30
0.0
 11
-87.869969483343084
 21
251.31375348334021
 31
0.0
  0
LINE
  8
DETAIL
  6
CONTINUOUS
 62
     5
 10
-60.062400000000252
 20
274.32693185966082
 30
0.0
 11
-60.062400000000252
 21
269.05350399999918
 31
0.0
  0
LINE
  8
DETAIL
  6
CONTINUOUS
 62
     5
 10
-59.561880000000201
 20
296.33184399999641
 30
0.0
 11
-59.561880000000201
 21
275.19385793008018
 31
0.0
  0
LINE
  8
DETAIL
  6
CONTINUOUS
 62
     5
 10
192.49999199999999
 20
98.776600000000712
 30
0.0
 11
193.7012399999999
 21
98.776600000000712
 31
0.0
  0
LINE
  8
DETAIL
  6
CONTINUOUS
 62
     5
 10
-149.1549600000001
 20
259.14941292642072
 30
0.0
 11
-149.44906707358089
 21
259.44351999999662
 31
0.0
  0
LINE
  8
DETAIL
  6
CONTINUOUS
 62
     5
 10
192.49999199999999
 20
73.750599999999054
 30
0.0
 11
193.7012399999999
 21
73.750599999999054
 31
0.0
  0
LINE
  8
DETAIL
  6
CONTINUOUS
 62
     5
 10
-178.96460948334291
 20
251.31375348334021
 30
0.0
 11
-189.49687199999991
 21
261.84601599999928
 31
0.0
  0
LINE
  8
DETAIL
  6
CONTINUOUS
 62
     5
 10
-189.97812292748469
 20
261.45906592851281
 30
0.0
 11
-190.4071051204603
 21
261.88804812149078
 31
0.0
  0
LINE
  8
DETAIL
  6
CONTINUOUS
 62
     5
 10
-29.92257753600143
 20
136.29367858641459
 30
0.0
 11
-29.899476077945561
 21
136.26615602518689
 31
0.0
  0
LINE
  8
DETAIL
  6
CONTINUOUS
 62
     5
 10
189.4968720000002
 20
261.84601599999928
 30
0.0
 11
178.96460948334291
 21
251.31375348334021
 31
0.0
  0
LINE
  8
DETAIL
  6
CONTINUOUS
 62
     5
 10
-190.89832799999979
 20
260.44455999999582
 30
0.0
 11
-180.36606548334251
 21
249.9122974833441
 31
0.0
  0
LINE
  8
DETAIL
  6
CONTINUOUS
 62
     5
 10
2.8126759209280858
 20
153.422590278689
 30
0.0
 11
2.8221172427015522
 21
153.38791997203191
 31
0.0
  0
LINE
  8
DETAIL
  6
CONTINUOUS
 62
     5
 10
21.522359999999939
 20
296.33184399999641
 30
0.0
 11
21.522359999999939
 21
275.19385793008018
 31
0.0
  0
LINE
  8
DETAIL
  6
CONTINUOUS
 62
     5
 10
22.02287999999999
 20
274.32693185966082
 30
0.0
 11
22.02287999999999
 21
269.05350399999918
 31
0.0
  0
LINE
  8
DETAIL
  6
CONTINUOUS
 62
     5
 10
180.36606548334291
 20
249.9122974833441
 30
0.0
 11
190.89832799999979
 21
260.44455999999582
 31
0.0
  0
LINE
  8
DETAIL
  6
CONTINUOUS
 62
     5
 10
192.49999199999999
 20
40.015552000000412
 30
0.0
 11
191.69916000000009
 21
40.015552000000412
 31
0.0
  0
LINE
  8
DETAIL
  6
CONTINUOUS
 62
     5
 10
-192.49999199999999
 20
40.015552000000412
 30
0.0
 11
-191.69916000000001
 21
40.015552000000412
 31
0.0
  0
LINE
  8
DETAIL
  6
CONTINUOUS
 62
     5
 10
-191.65984895949239
 20
40.015552000000412
 30
0.0
 11
-182.4895919999999
 21
40.015552000000412
 31
0.0
  0
LINE
  8
DETAIL
  6
CONTINUOUS
 62
     5
 10
182.4895919999999
 20
40.015552000000412
 30
0.0
 11
191.69916000000009
 21
40.015552000000412
 31
0.0
  0
LINE
  8
DETAIL
  6
CONTINUOUS
 62
     5
 10
191.5260334259219
 20
39.515031999999003
 30
0.0
 11
191.69916000000009
 21
39.515031999999003
 31
0.0
  0
LINE
  8
DETAIL
  6
CONTINUOUS
 62
     5
 10
-191.1986400000001
 20
37.613055999997982
 30
0.0
 11
191.1986400000001
 21
37.613055999997982
 31
0.0
  0
LINE
  8
DETAIL
  6
CONTINUOUS
 62
     5
 10
-191.49895199999969
 20
36.411808000000413
 30
0.0
 11
191.4989520000004
 21
36.411808000000413
 31
0.0
  0
LINE
  8
DETAIL
  6
CONTINUOUS
 62
     5
 10
191.69916000000009
 20
35.010352000000807
 30
0.0
 11
191.48672167918079
 21
35.010352000000807
 31
0.0
  0
LINE
  8
DETAIL
  6
CONTINUOUS
 62
     5
 10
-191.69916000000001
 20
35.010352000000807
 30
0.0
 11
-191.4867216786804
 21
35.010352000000807
 31
0.0
  0
LINE
  8
DETAIL
  6
CONTINUOUS
 62
     5
 10
-191.69916000000001
 20
26.601615999999581
 30
0.0
 11
-192.49999199999999
 21
26.601615999999581
 31
0.0
  0
LINE
  8
DETAIL
  6
CONTINUOUS
 62
     5
 10
191.69916000000009
 20
26.601615999999581
 30
0.0
 11
192.49999199999999
 21
26.601615999999581
 31
0.0
  0
LINE
  8
DETAIL
  6
CONTINUOUS
 62
     5
 10
-217.52599200000009
 20
25.800783999998771
 30
0.0
 11
-193.30082399999989
 21
25.800783999998771
 31
0.0
  0
LINE
  8
DETAIL
  6
CONTINUOUS
 62
     5
 10
193.30082399999949
 20
25.800783999998771
 30
0.0
 11
217.52599200000029
 21
25.800783999998771
 31
0.0
  0
LINE
  8
DETAIL
  6
CONTINUOUS
 62
     5
 10
-217.52599200000009
 20
24.999952000001599
 30
0.0
 11
-193.30082399999989
 21
24.999952000001599
 31
0.0
  0
LINE
  8
DETAIL
  6
CONTINUOUS
 62
     5
 10
193.30082399999949
 20
24.999952000001599
 30
0.0
 11
217.52599200000029
 21
24.999952000001599
 31
0.0
  0
LINE
  8
DETAIL
  6
CONTINUOUS
 62
     5
 10
-212.7210000000002
 20
0.0
 30
0.0
 11
212.721
 21
0.0
 31
0.0
  0
LINE
  8
DETAIL
  6
CONTINUOUS
 62
     5
 10
-212.7210000000002
 20
-9.0093600000000151
 30
0.0
 11
212.721
 21
-9.0093600000000151
 31
0.0
  0
LINE
  8
DETAIL
  6
CONTINUOUS
 62
     5
 10
179.48647199999999
 20
43.018671999997991
 30
0.0
 11
179.48647199999999
 21
247.78877096668251
 31
0.0
  0
LINE
  8
DETAIL
  6
CONTINUOUS
 62
     5
 10
191.4488999999999
 20
36.411808000000413
 30
0.0
 11
191.417450602607
 21
40.015552000000412
 31
0.0
  0
LINE
  8
DETAIL
  6
CONTINUOUS
 62
     5
 10
190.60680460014831
 20
261.8972588802277
 30
0.0
 11
190.60680460014831
 21
260.83244160326979
 31
0.0
  0
LINE
  8
DETAIL
  6
CONTINUOUS
 62
     5
 10
190.89832799999979
 20
260.44455999999582
 30
0.0
 11
190.89832799999979
 21
40.015552000000412
 31
0.0
  0
LINE
  8
DETAIL
  6
CONTINUOUS
 62
     5
 10
190.94837999999979
 20
261.52865364354841
 30
0.0
 11
190.94837999999979
 21
261.9129952014988
 31
0.0
  0
LINE
  8
DETAIL
  6
CONTINUOUS
 62
     5
 10
191.098536
 20
263.44767999999698
 30
0.0
 11
191.098536
 21
262.64684799999998
 31
0.0
  0
LINE
  8
DETAIL
  6
CONTINUOUS
 62
     5
 10
191.098536
 20
262.64684799999998
 30
0.0
 11
191.098536
 21
261.99379891004668
 31
0.0
  0
LINE
  8
DETAIL
  6
CONTINUOUS
 62
     5
 10
191.1986400000001
 20
36.411808000000413
 30
0.0
 11
191.1986400000001
 21
40.015552000000412
 31
0.0
  0
LINE
  8
DETAIL
  6
CONTINUOUS
 62
     5
 10
191.1986400000001
 20
263.44767999999698
 30
0.0
 11
191.1986400000001
 21
268.45287999999692
 31
0.0
  0
LINE
  8
DETAIL
  6
CONTINUOUS
 62
     5
 10
191.69916000000009
 20
40.015552000000412
 30
0.0
 11
191.69916000000009
 21
26.601615999999581
 31
0.0
  0
LINE
  8
DETAIL
  6
CONTINUOUS
 62
     5
 10
192.49999199999999
 20
262.04622399999772
 30
0.0
 11
192.49999199999999
 21
26.601615999999581
 31
0.0
  0
LINE
  8
DETAIL
  6
CONTINUOUS
 62
     5
 10
193.30082399999949
 20
24.999952000001599
 30
0.0
 11
193.30082399999949
 21
25.800783999998771
 31
0.0
  0
LINE
  8
DETAIL
  6
CONTINUOUS
 62
     5
 10
193.7012399999999
 20
101.2792000000005
 30
0.0
 11
193.7012399999999
 21
71.247999999999251
 31
0.0
  0
LINE
  8
DETAIL
  6
CONTINUOUS
 62
     5
 10
194.1016560000003
 20
212.89515999999969
 30
0.0
 11
194.1016560000003
 21
196.0776879999971
 31
0.0
  0
LINE
  8
DETAIL
  6
CONTINUOUS
 62
     5
 10
194.20175999999989
 20
101.2792000000005
 30
0.0
 11
194.20175999999989
 21
71.247999999999251
 31
0.0
  0
LINE
  8
DETAIL
  6
CONTINUOUS
 62
     5
 10
194.90248799999969
 20
192.8743600000013
 30
0.0
 11
194.90248799999969
 21
192.97789969090761
 31
0.0
  0
LINE
  8
DETAIL
  6
CONTINUOUS
 62
     5
 10
195.70331999999959
 20
192.8743600000013
 30
0.0
 11
195.70331999999959
 21
194.47602399999931
 31
0.0
  0
LINE
  8
DETAIL
  6
CONTINUOUS
 62
     5
 10
197.2048799999998
 20
98.276079999999297
 30
0.0
 11
197.2048799999998
 21
74.251119999996831
 31
0.0
  0
LINE
  8
DETAIL
  6
CONTINUOUS
 62
     5
 10
207.5155920000002
 20
25.800783999998771
 30
0.0
 11
207.5155920000002
 21
24.999952000001599
 31
0.0
  0
LINE
  8
DETAIL
  6
CONTINUOUS
 62
     5
 10
191.53040139739281
 20
40.015552000000412
 30
0.0
 11
191.32248593696161
 21
0.0
 31
0.0
  0
LINE
  8
DETAIL
  6
CONTINUOUS
 62
     5
 10
212.721
 20
0.0
 30
0.0
 11
212.721
 21
-9.0093600000000151
 31
0.0
  0
LINE
  8
DETAIL
  6
CONTINUOUS
 62
     5
 10
217.52599200000029
 20
25.800783999998771
 30
0.0
 11
217.52599200000029
 21
24.999952000001599
 31
0.0
  0
LINE
  8
DETAIL
  6
CONTINUOUS
 62
     5
 10
226.73556000000011
 20
194.47602399999931
 30
0.0
 11
226.73556000000011
 21
192.8743600000013
 31
0.0
  0
LINE
  8
DETAIL
  6
CONTINUOUS
 62
     5
 10
227.53639200000001
 20
185.06624799999881
 30
0.0
 11
227.53639200000001
 21
191.27269599999599
 31
0.0
  0
ARC
  8
DETAIL
  6
CONTINUOUS
 62
     5
 10
-54.056160000000091
 20
296.33184399999641
 30
0.0
 40
5.5057200000000401
 50
90.0
 51
180.0
  0
ARC
  8
DETAIL
  6
CONTINUOUS
 62
     5
 10
-51.667741085459063
 20
301.4371479999968
 30
0.0
 40
1.401455999999579
 50
90.0
 51
149.99999541590711
  0
ARC
  8
DETAIL
  6
CONTINUOUS
 62
     5
 10
-53.343798156873618
 20
302.33808399999867
 30
0.0
 40
0.5005200000000502
 50
270.0
 51
330.00001408728502
  0
ARC
  8
DETAIL
  6
CONTINUOUS
 62
     5
 10
-188.1955200000001
 20
259.04310399999622
 30
0.0
 40
3.003119999999869
 50
114.5454545454956
 51
152.8566076252975
  0
ARC
  8
DETAIL
  6
CONTINUOUS
 62
     5
 10
-182.4895919999999
 20
247.78877096668251
 30
0.0
 40
3.0031200000000391
 50
0.0
 51
45.000000000009223
  0
ARC
  8
DETAIL
  6
CONTINUOUS
 62
     5
 10
-176.3258290333147
 20
253.43727999999791
 30
0.0
 40
3.0031200000000111
 50
270.0
 51
315.00000000000921
  0
ARC
  8
DETAIL
  6
CONTINUOUS
 62
     5
 10
-176.84108296618501
 20
253.43727999999791
 30
0.0
 40
3.00311999999952
 50
224.99999999999079
 51
270.0
  0
ARC
  8
DETAIL
  6
CONTINUOUS
 62
     5
 10
-164.82860296618509
 20
256.44039999999927
 30
0.0
 40
3.0031200000000111
 50
90.0
 51
134.99999999999079
  0
ARC
  8
DETAIL
  6
CONTINUOUS
 62
     5
 10
-191.09853600000011
 20
262.04622399999772
 30
0.0
 40
1.4014559999996501
 50
90.0
 51
180.0
  0
ARC
  8
DETAIL
  6
CONTINUOUS
 62
     5
 10
-191.09853600000011
 20
262.04622399999772
 30
0.0
 40
0.6006240000003804
 50
90.0
 51
180.0
  0
ARC
  8
DETAIL
  6
CONTINUOUS
 62
     5
 10
-85.746442966184986
 20
253.43727999999791
 30
0.0
 40
3.00311999999952
 50
224.99999999999079
 51
270.0
  0
ARC
  8
DETAIL
  6
CONTINUOUS
 62
     5
 10
-97.243669033314745
 20
256.44039999999927
 30
0.0
 40
3.0031200000001701
 50
45.000000000009223
 51
90.0
  0
ARC
  8
DETAIL
  6
CONTINUOUS
 62
     5
 10
-61.463856000000312
 20
269.05350399999918
 30
0.0
 40
1.4014560000001091
 50
334.61533808968221
 51
0.0
  0
ARC
  8
DETAIL
  6
CONTINUOUS
 62
     5
 10
16.016639999999821
 20
296.33184399999641
 30
0.0
 40
5.5057199999999904
 50
0.0
 51
90.0
  0
ARC
  8
DETAIL
  6
CONTINUOUS
 62
     5
 10
13.628221085959471
 20
301.4371479999968
 30
0.0
 40
1.40145599999981
 50
30.000004584092888
 51
90.0
  0
ARC
  8
DETAIL
  6
CONTINUOUS
 62
     5
 10
15.30427815687335
 20
302.33808399999867
 30
0.0
 40
0.5005200000002104
 50
209.99998591271489
 51
270.0
  0
ARC
  8
DETAIL
  6
CONTINUOUS
 62
     5
 10
23.424336000000039
 20
269.05350399999918
 30
0.0
 40
1.40145600000009
 50
180.0
 51
205.3846619103179
  0
ARC
  8
DETAIL
  6
CONTINUOUS
 62
     5
 10
188.19551999999979
 20
259.04310399999622
 30
0.0
 40
3.0031199999999791
 50
27.143392374702501
 51
65.454545454504355
  0
ARC
  8
DETAIL
  6
CONTINUOUS
 62
     5
 10
176.84108296668549
 20
253.43727999999791
 30
0.0
 40
3.0031200000000111
 50
270.0
 51
315.00000000000921
  0
ARC
  8
DETAIL
  6
CONTINUOUS
 62
     5
 10
182.4895919999999
 20
247.78877096668251
 30
0.0
 40
3.003120000000528
 50
134.99999999999079
 51
180.0
  0
ARC
  8
DETAIL
  6
CONTINUOUS
 62
     5
 10
191.098536
 20
262.04622399999772
 30
0.0
 40
1.40145600000009
 50
0.0
 51
90.0
  0
ARC
  8
DETAIL
  6
CONTINUOUS
 62
     5
 10
191.098536
 20
262.04622399999772
 30
0.0
 40
0.6006239999999101
 50
0.0
 51
90.0
  0
ARC
  8
DETAIL
  6
CONTINUOUS
 62
     5
 10
-226.73556000000011
 20
191.27269599999599
 30
0.0
 40
3.2033279999998312
 50
90.0
 51
180.0
  0
ARC
  8
DETAIL
  6
CONTINUOUS
 62
     5
 10
-195.7033200000003
 20
196.0776879999971
 30
0.0
 40
3.20332800000075
 50
270.0
 51
0.0
  0
ARC
  8
DETAIL
  6
CONTINUOUS
 62
     5
 10
-168.17472000000009
 20
162.94326399999741
 30
0.0
 40
3.0031200000000391
 50
180.0
 51
270.0
  0
ARC
  8
DETAIL
  6
CONTINUOUS
 62
     5
 10
-167.67420000000021
 20
163.94430399999661
 30
0.0
 40
1.9539941922153801
 50
180.0
 51
270.0
  0
ARC
  8
DETAIL
  6
CONTINUOUS
 62
     5
 10
-167.67420000000021
 20
175.95678400000139
 30
0.0
 40
1.9539941922153501
 50
90.0
 51
180.0
  0
ARC
  8
DETAIL
  6
CONTINUOUS
 62
     5
 10
-195.7033200000003
 20
196.0776879999971
 30
0.0
 40
1.601664000000359
 50
270.0
 51
0.0
  0
ARC
  8
DETAIL
  6
CONTINUOUS
 62
     5
 10
-226.73556000000011
 20
191.27269599999599
 30
0.0
 40
1.60166399999943
 50
90.0
 51
180.0
  0
ARC
  8
DETAIL
  6
CONTINUOUS
 62
     5
 10
-131.1362400000003
 20
219.30181599999889
 30
0.0
 40
40.041600000000173
 50
289.70694060591421
 51
0.0
  0
ARC
  8
DETAIL
  6
CONTINUOUS
 62
     5
 10
-131.1362400000003
 20
220.0025439999952
 30
0.0
 40
38.548699709241227
 50
198.84086796817519
 51
198.631447348313
  0
ARC
  8
DETAIL
  6
CONTINUOUS
 62
     5
 10
-116.6211600000001
 20
178.77823801815941
 30
0.0
 40
3.0031199999997682
 50
109.70694060590149
 51
180.0
  0
ARC
  8
DETAIL
  6
CONTINUOUS
 62
     5
 10
-122.62740000000031
 20
162.94326399999741
 30
0.0
 40
3.0031200000000111
 50
270.0
 51
0.0
  0
ARC
  8
DETAIL
  6
CONTINUOUS
 62
     5
 10
-123.62844
 20
175.95678400000139
 30
0.0
 40
1.9539941922158111
 50
0.0
 51
90.0
  0
ARC
  8
DETAIL
  6
CONTINUOUS
 62
     5
 10
-123.62844
 20
163.94430399999661
 30
0.0
 40
1.9539941922153501
 50
270.0
 51
0.0
  0
CIRCLE
  8
DETAIL
  6
CONTINUOUS
 62
     5
 10
-105.1092000000003
 20
109.3876239999987
 30
0.0
 40
44.089515953414278
  0
ARC
  8
DETAIL
  6
CONTINUOUS
 62
     5
 10
-105.1092000000003
 20
109.3876239999987
 30
0.0
 40
38.548699709240474
 50
221.3685526517049
 51
221.2533662028282
  0
CIRCLE
  8
DETAIL
  6
CONTINUOUS
 62
     5
 10
-105.1092000000003
 20
109.3876239999987
 30
0.0
 40
30.531720000000011
  0
CIRCLE
  8
DETAIL
  6
CONTINUOUS
 62
     5
 10
-105.1092000000003
 20
109.3876239999987
 30
0.0
 40
25.27625999999999
  0
CIRCLE
  8
DETAIL
  6
CONTINUOUS
 62
     5
 10
-105.1092000000003
 20
109.3876239999987
 30
0.0
 40
24.02495503734421
  0
ARC
  8
DETAIL
  6
CONTINUOUS
 62
     5
 10
-40.041600000000017
 20
187.9692639999989
 30
0.0
 40
44.089515953414619
 50
322.39171698128672
 51
135.8552182332154
  0
ARC
  8
DETAIL
  6
CONTINUOUS
 62
     5
 10
-40.041600000000017
 20
187.9692639999989
 30
0.0
 40
44.089515953413851
 50
135.1630084639682
 51
282.27737448834807
  0
ARC
  8
DETAIL
  6
CONTINUOUS
 62
     5
 10
-40.041600000000017
 20
187.9692639999989
 30
0.0
 40
38.548699709240907
 50
18.03787718273524
 51
18.003548976497669
  0
CIRCLE
  8
DETAIL
  6
CONTINUOUS
 62
     5
 10
-40.041600000000017
 20
187.9692639999989
 30
0.0
 40
30.531720000000011
  0
CIRCLE
  8
DETAIL
  6
CONTINUOUS
 62
     5
 10
-40.041600000000017
 20
187.9692639999989
 30
0.0
 40
25.27625999999999
  0
CIRCLE
  8
DETAIL
  6
CONTINUOUS
 62
     5
 10
-40.041600000000017
 20
187.9692639999989
 30
0.0
 40
24.02495503734421
  0
ARC
  8
DETAIL
  6
CONTINUOUS
 62
     5
 10
226.73556000000011
 20
191.27269599999599
 30
0.0
 40
3.2033279999998312
 50
0.0
 51
90.0
  0
ARC
  8
DETAIL
  6
CONTINUOUS
 62
     5
 10
194.90248799999969
 20
196.0776879999971
 30
0.0
 40
3.2033280000002602
 50
221.2824016546042
 51
270.0
  0
ARC
  8
DETAIL
  6
CONTINUOUS
 62
     5
 10
195.70331999999959
 20
196.0776879999971
 30
0.0
 40
3.2033279999998201
 50
180.0
 51
270.0
  0
ARC
  8
DETAIL
  6
CONTINUOUS
 62
     5
 10
195.70331999999959
 20
196.0776879999971
 30
0.0
 40
1.60166399999991
 50
180.0
 51
270.0
  0
ARC
  8
DETAIL
  6
CONTINUOUS
 62
     5
 10
225.93472799999969
 20
191.27269599999599
 30
0.0
 40
1.601664000000369
 50
0.0
 51
90.0
  0
ARC
  8
DETAIL
  6
CONTINUOUS
 62
     5
 10
226.73556000000011
 20
191.27269599999599
 30
0.0
 40
1.60166399999991
 50
0.0
 51
90.0
  0
ARC
  8
DETAIL
  6
CONTINUOUS
 62
     5
 10
5.0052000000000589
 20
109.3876239999987
 30
0.0
 40
44.089515953414242
 50
93.027917362017263
 51
102.369137091895
  0
ARC
  8
DETAIL
  6
CONTINUOUS
 62
     5
 10
5.0052000000000589
 20
109.3876239999987
 30
0.0
 40
38.548699709241014
 50
339.84060045711573
 51
339.80663335949117
  0
CIRCLE
  8
DETAIL
  6
CONTINUOUS
 62
     5
 10
5.0052000000000589
 20
109.3876239999987
 30
0.0
 40
30.531720000000011
  0
CIRCLE
  8
DETAIL
  6
CONTINUOUS
 62
     5
 10
5.0052000000000589
 20
109.3876239999987
 30
0.0
 40
25.276260000000001
  0
CIRCLE
  8
DETAIL
  6
CONTINUOUS
 62
     5
 10
5.0052000000000589
 20
109.3876239999987
 30
0.0
 40
24.024955037344231
  0
ARC
  8
DETAIL
  6
CONTINUOUS
 62
     5
 10
194.20175999999989
 20
98.276079999999297
 30
0.0
 40
3.00312
 50
0.0
 51
90.0
  0
ARC
  8
DETAIL
  6
CONTINUOUS
 62
     5
 10
194.20175999999989
 20
74.251119999996831
 30
0.0
 40
3.003119999999988
 50
270.0
 51
0.0
  0
ARC
  8
DETAIL
  6
CONTINUOUS
 62
     5
 10
-182.4895919999999
 20
43.018671999997991
 30
0.0
 40
3.0031200000000111
 50
270.0
 51
0.0
  0
ARC
  8
DETAIL
  6
CONTINUOUS
 62
     5
 10
-193.30082399999989
 20
26.601615999999581
 30
0.0
 40
1.601664000000369
 50
270.0
 51
0.0
  0
ARC
  8
DETAIL
  6
CONTINUOUS
 62
     5
 10
-193.30082399999989
 20
35.711079999996969
 30
0.0
 40
0.8008319999996997
 50
0.0
 51
90.0
  0
ARC
  8
DETAIL
  6
CONTINUOUS
 62
     5
 10
-193.30082399999989
 20
42.117735999999809
 30
0.0
 40
0.8008320000001802
 50
270.0
 51
0.0
  0
ARC
  8
DETAIL
  6
CONTINUOUS
 62
     5
 10
-193.30082399999989
 20
26.601615999999581
 30
0.0
 40
0.8008320000002003
 50
270.0
 51
0.0
  0
ARC
  8
DETAIL
  6
CONTINUOUS
 62
     5
 10
182.4895919999999
 20
43.018671999997991
 30
0.0
 40
3.00312
 50
180.0
 51
270.0
  0
ARC
  8
DETAIL
  6
CONTINUOUS
 62
     5
 10
193.30082399999949
 20
26.601615999999581
 30
0.0
 40
1.60166399999991
 50
180.0
 51
270.0
  0
ARC
  8
DETAIL
  6
CONTINUOUS
 62
     5
 10
193.30082399999949
 20
26.601615999999581
 30
0.0
 40
0.8008319999997295
 50
180.0
 51
270.0
  0
LINE
  8
DETAIL
  6
CONTINUOUS
 62
     5
 10
-104.2154542676094
 20
220.64266149606161
 30
0.0
 11
-104.15688396177531
 21
220.70270627825789
 31
0.0
  0
LINE
  8
DETAIL
  6
CONTINUOUS
 62
     5
 10
-190.96612603069801
 20
261.91381193451838
 30
0.0
 11
-190.89832799999979
 21
260.44455999999582
 31
0.0
  0
LINE
  8
DETAIL
  6
CONTINUOUS
 62
     5
 10
190.9661239345194
 20
261.9138140311984
 30
0.0
 11
189.4968720000002
 21
261.84601599999928
 31
0.0
  0
LINE
  8
DETAIL
  6
CONTINUOUS
 62
     5
 10
-190.96612393401981
 20
261.9138140311984
 30
0.0
 11
-189.49687199999991
 21
261.84601599999928
 31
0.0
  0
LINE
  8
DETAIL
  6
CONTINUOUS
 62
     5
 10
190.96612603119769
 20
261.91381193451838
 30
0.0
 11
190.89832799999979
 21
260.44455999999582
 31
0.0
  0
LINE
  8
DETAIL
  6
CONTINUOUS
 62
     5
 10
191.0461109100504
 20
262.04622399999772
 30
0.0
 11
191.04176783244199
 21
261.99902542047113
 31
0.0
  0
LINE
  8
DETAIL
  6
CONTINUOUS
 62
     5
 10
191.04176783244199
 20
261.99902542047113
 30
0.0
 11
191.03502359472171
 21
261.92575489179183
 31
0.0
  0
LINE
  8
DETAIL
  6
CONTINUOUS
 62
     5
 10
191.03502359472171
 20
261.92575489179183
 30
0.0
 11
190.89832799999979
 21
260.44455999999582
 31
0.0
  0
LINE
  8
DETAIL
  6
CONTINUOUS
 62
     5
 10
-191.09853600000011
 20
261.99379891004668
 30
0.0
 11
-191.05133742047431
 21
261.98945583294301
 31
0.0
  0
LINE
  8
DETAIL
  6
CONTINUOUS
 62
     5
 10
-191.05133742047431
 20
261.98945583294301
 30
0.0
 11
-190.97806689129121
 21
261.98271159472228
 31
0.0
  0
LINE
  8
DETAIL
  6
CONTINUOUS
 62
     5
 10
-190.97806689129121
 20
261.98271159472228
 30
0.0
 11
-189.49687199999991
 21
261.84601599999928
 31
0.0
  0
LINE
  8
DETAIL
  6
CONTINUOUS
 62
     5
 10
-191.04611090955021
 20
262.04622399999772
 30
0.0
 11
-191.0417678324425
 21
261.99902542047113
 31
0.0
  0
LINE
  8
DETAIL
  6
CONTINUOUS
 62
     5
 10
-191.0417678324425
 20
261.99902542047113
 30
0.0
 11
-191.03502359422191
 21
261.92575489179183
 31
0.0
  0
LINE
  8
DETAIL
  6
CONTINUOUS
 62
     5
 10
-191.03502359422191
 20
261.92575489179183
 30
0.0
 11
-190.89832799999979
 21
260.44455999999582
 31
0.0
  0
LINE
  8
DETAIL
  6
CONTINUOUS
 62
     5
 10
191.098536
 20
261.99379891004668
 30
0.0
 11
191.0513374204738
 21
261.98945583294301
 31
0.0
  0
LINE
  8
DETAIL
  6
CONTINUOUS
 62
     5
 10
191.0513374204738
 20
261.98945583294301
 30
0.0
 11
190.97806689179109
 21
261.98271159472228
 31
0.0
  0
LINE
  8
DETAIL
  6
CONTINUOUS
 62
     5
 10
190.97806689179109
 20
261.98271159472228
 30
0.0
 11
189.4968720000002
 21
261.84601599999928
 31
0.0
  0
CIRCLE
  8
DETAIL
  6
CONTINUOUS
 62
     5
 10
-131.1362400000003
 20
219.30181599999889
 30
0.0
 40
25.276260000000011
  0
CIRCLE
  8
DETAIL
  6
CONTINUOUS
 62
     5
 10
-131.1362400000003
 20
219.30181599999889
 30
0.0
 40
24.024955037344249
  0
CIRCLE
  8
DETAIL
  6
CONTINUOUS
 62
     5
 10
-131.1362400000003
 20
219.30181599999889
 30
0.0
 40
30.531720000000011
  0
ARC
  8
DETAIL
  6
CONTINUOUS
 62
     5
 10
-40.041600000000017
 20
187.9692639999989
 30
0.0
 40
44.089515953414249
 50
317.32262551165007
 51
325.45927317673511
  0
ARC
  8
DETAIL
  6
CONTINUOUS
 62
     5
 10
5.0052000000000589
 20
109.3876239999987
 30
0.0
 40
44.089515953414299
 50
137.23086290809789
 51
92.850432984899143
  0
ARC
  8
DETAIL
  6
CONTINUOUS
 62
     5
 10
70.072799999999916
 20
187.9692639999989
 30
0.0
 40
44.089515953413851
 50
135.1630084639682
 51
282.27737448834807
  0
ARC
  8
DETAIL
  6
CONTINUOUS
 62
     5
 10
70.072799999999916
 20
187.9692639999989
 30
0.0
 40
38.548699709240893
 50
18.03787718273524
 51
18.003548976497669
  0
CIRCLE
  8
DETAIL
  6
CONTINUOUS
 62
     5
 10
70.072799999999916
 20
187.9692639999989
 30
0.0
 40
24.02495503734421
  0
CIRCLE
  8
DETAIL
  6
CONTINUOUS
 62
     5
 10
70.072799999999916
 20
187.9692639999989
 30
0.0
 40
25.276260000000001
  0
CIRCLE
  8
DETAIL
  6
CONTINUOUS
 62
     5
 10
70.072799999999916
 20
187.9692639999989
 30
0.0
 40
30.531720000000011
  0
ARC
  8
DETAIL
  6
CONTINUOUS
 62
     5
 10
70.072799999999916
 20
187.9692639999989
 30
0.0
 40
44.089515953414619
 50
322.39171698128672
 51
135.8552182332154
  0
ARC
  8
DETAIL
  6
CONTINUOUS
 62
     5
 10
70.072799999999916
 20
187.9692639999989
 30
0.0
 40
44.089515953414278
 50
317.32262551165007
 51
325.45927317673511
  0
LINE
  8
DETAIL
  6
CONTINUOUS
 62
     5
 10
78.968518058954032
 20
137.15865315795199
 30
0.0
 11
82.753673919291487
 21
139.3264323587897
 31
0.0
  0
LINE
  8
DETAIL
  6
CONTINUOUS
 62
     5
 10
105.6752199546554
 20
152.4537255482642
 30
0.0
 11
109.3718955893664
 21
154.5708316460983
 31
0.0
  0
LINE
  8
DETAIL
  6
CONTINUOUS
 62
     5
 10
82.753673919291487
 20
139.3264323587897
 30
0.0
 11
105.6752199546554
 21
152.4537255482642
 31
0.0
  0
ARC
  8
DETAIL
  6
CONTINUOUS
 62
     5
 10
115.11959999999949
 20
109.3876239999987
 30
0.0
 40
45.547319999996127
 50
142.35040631769741
 51
97.249593682297146
  0
LINE
  8
DETAIL
  6
CONTINUOUS
 62
     5
 10
5.0051999999996042
 20
109.3876239999987
 30
0.0
 11
93.597240000003239
 21
109.3876239999987
 31
0.0
  0
LINE
  8
NOTE
  6
DASHDOT
 62
     4
 10
-157.41354000000001
 20
219.30181599999889
 30
0.0
 11
-104.8589400000001
 21
219.30181599999889
 31
0.0
  0
LINE
  8
NOTE
  6
DASHDOT
 62
     4
 10
133.21381069027171
 20
187.9692639999989
 30
0.0
 11
-93.069619276500362
 21
187.9692639999989
 31
0.0
  0
LINE
  8
NOTE
  6
DASHDOT
 62
     4
 10
-131.1362400000003
 20
245.57911600000051
 30
0.0
 11
-131.1362400000003
 21
193.024516000001
 31
0.0
  0
LINE
  8
NOTE
  6
DASHDOT
 62
     4
 10
-105.1092000000003
 20
160.25744773697559
 30
0.0
 11
-105.1092000000003
 21
66.34290399999702
 31
0.0
  0
LINE
  8
NOTE
  6
DASHDOT
 62
     4
 10
-163.0855694752122
 20
109.3876239999987
 30
0.0
 11
158.16431999999989
 21
109.3876239999987
 31
0.0
  0
LINE
  8
DETAIL
  6
CONTINUOUS
 62
     5
 10
193.7012399999999
 20
101.2792000000005
 30
0.0
 11
194.20175999999989
 21
101.2792000000005
 31
0.0
  0
LINE
  8
NOTE
  6
DASHDOT
 62
     4
 10
-40.041600000000017
 20
240.40248182805331
 30
0.0
 11
-40.041600000000017
 21
144.92454400000099
 31
0.0
  0
LINE
  8
NOTE
  6
DASHDOT
 62
     4
 10
0.0
 20
313.0257355750465
 30
0.0
 11
0.0
 21
-38.626768258436641
 31
0.0
  0
LINE
  8
DETAIL
  6
CONTINUOUS
 62
     5
 10
193.7012399999999
 20
71.247999999999251
 30
0.0
 11
194.20175999999989
 21
71.247999999999251
 31
0.0
  0
LINE
  8
NOTE
  6
DASHDOT
 62
     4
 10
5.0052000000000589
 20
161.27194220400051
 30
0.0
 11
5.0052000000000589
 21
66.34290399999702
 31
0.0
  0
LINE
  8
NOTE
  6
DASHDOT
 62
     4
 10
70.072799999999916
 20
242.43147076210391
 30
0.0
 11
70.072799999999916
 21
144.92454400000099
 31
0.0
  0
LINE
  8
NOTE
  6
DASHDOT
 62
     4
 10
115.11960000000001
 20
163.80817631414141
 30
0.0
 11
115.11960000000001
 21
66.34290399999702
 31
0.0
  0
CIRCLE
  8
DETAIL
  6
CONTINUOUS
 62
     5
 10
-105.1092000000003
 20
109.3876239999987
 30
0.0
 40
45.54732000000002
  0
ARC
  8
DETAIL
  6
CONTINUOUS
 62
     5
 10
-40.041600000000017
 20
187.9692639999989
 30
0.0
 40
45.547319999999992
 50
322.41986494805133
 51
277.18013505195842
  0
LINE
  8
NOTE
  6
DASHDOT
 62
     4
 10
-211.61985600000031
 20
207.31592964284539
 30
0.0
 11
-211.61985600000031
 21
180.6116707605139
 31
0.0
  0
LINE
  8
NOTE
  6
DASHDOT
 62
     4
 10
211.61985600000031
 20
207.31592964284539
 30
0.0
 11
211.61985600000031
 21
180.6116707605139
 31
0.0
  0
LINE
  8
DETAIL
  6
CONTINUOUS
 62
     5
 10
-34.348674579433009
 20
142.77912171942771
 30
0.0
 11
-3.9452970490178809
 21
160.19130020757399
 31
0.0
  0
LINE
  8
DETAIL
  6
CONTINUOUS
 62
     5
 10
-31.145881941050451
 20
137.15865315795199
 30
0.0
 11
-27.360726080709359
 21
139.3264323587897
 31
0.0
  0
LINE
  8
DETAIL
  6
CONTINUOUS
 62
     5
 10
-4.439180045345438
 20
152.4537255482642
 30
0.0
 11
-0.7425044106353198
 21
154.5708316460983
 31
0.0
  0
LINE
  8
DETAIL
  6
CONTINUOUS
 62
     5
 10
-27.360726080709359
 20
139.3264323587897
 30
0.0
 11
-4.439180045345438
 21
152.4537255482642
 31
0.0
  0
ARC
  8
DETAIL
  6
CONTINUOUS
 62
     5
 10
5.0052000000000589
 20
109.3876239999987
 30
0.0
 40
45.547319999999999
 50
142.35040631769741
 51
97.249593682297146
  0
ARC
  8
DETAIL
  6
CONTINUOUS
 62
     5
 10
70.072799999999916
 20
187.9692639999989
 30
0.0
 40
45.547319999999999
 50
322.41986494805133
 51
277.18013505195842
  0
LINE
  8
DETAIL
  6
CONTINUOUS
 62
     5
 10
75.765725420567378
 20
142.77912171942771
 30
0.0
 11
106.16910295098209
 21
160.19130020757399
 31
0.0
  0
LINE
  8
OUTLINE
  6
CONTINUOUS
 62
     3
 10
-51.667656428507136
 20
302.83860399999651
 30
0.0
 11
13.628136429007551
 21
302.83860399999651
 31
0.0
  0
LINE
  8
OUTLINE
  6
CONTINUOUS
 62
     3
 10
16.01653158086128
 20
301.83756399999709
 30
0.0
 11
14.971257178877069
 21
301.83756399999709
 31
0.0
  0
LINE
  8
OUTLINE
  6
CONTINUOUS
 62
     3
 10
-217.52599200000009
 20
25.800783999998771
 30
0.0
 11
-217.52599200000009
 21
24.999952000001599
 31
0.0
  0
LINE
  8
OUTLINE
  6
CONTINUOUS
 62
     3
 10
-212.7210000000002
 20
-9.0093600000000151
 30
0.0
 11
-212.7210000000002
 21
0.0
 31
0.0
  0
LINE
  8
OUTLINE
  6
CONTINUOUS
 62
     3
 10
-191.1986400000001
 20
268.45287999999692
 30
0.0
 11
-60.19762942842749
 21
268.45287999999653
 31
0.0
  0
LINE
  8
OUTLINE
  6
CONTINUOUS
 62
     3
 10
-191.3993622413436
 20
24.999952000001599
 30
0.0
 11
-191.32248593646139
 21
0.0
 31
0.0
  0
LINE
  8
OUTLINE
  6
CONTINUOUS
 62
     3
 10
-192.49999199999999
 20
262.04622399999772
 30
0.0
 11
-192.49999199999999
 21
26.601615999999581
 31
0.0
  0
LINE
  8
OUTLINE
  6
CONTINUOUS
 62
     3
 10
-191.1986400000001
 20
263.44410028534838
 30
0.0
 11
-191.1986400000001
 21
268.45287999999692
 31
0.0
  0
LINE
  8
OUTLINE
  6
CONTINUOUS
 62
     3
 10
-52.881437527888473
 20
302.137876097098
 30
0.0
 11
-52.910335060098987
 21
302.08782410660888
 31
0.0
  0
LINE
  8
OUTLINE
  6
CONTINUOUS
 62
     3
 10
-60.062400000000252
 20
274.32693185966082
 30
0.0
 11
-59.561880000000201
 21
275.19385793008018
 31
0.0
  0
LINE
  8
OUTLINE
  6
CONTINUOUS
 62
     3
 10
14.841917527889111
 20
302.137876097098
 30
0.0
 11
14.8708150605994
 21
302.08782410660888
 31
0.0
  0
LINE
  8
OUTLINE
  6
CONTINUOUS
 62
     3
 10
22.02287999999999
 20
274.32693185966082
 30
0.0
 11
21.522359999999939
 21
275.19385793008018
 31
0.0
  0
LINE
  8
OUTLINE
  6
CONTINUOUS
 62
     3
 10
-60.062400000000252
 20
274.32693185966082
 30
0.0
 11
-60.062400000000252
 21
269.05350399999918
 31
0.0
  0
LINE
  8
OUTLINE
  6
CONTINUOUS
 62
     3
 10
-59.561880000000201
 20
296.33184399999641
 30
0.0
 11
-59.561880000000201
 21
275.19385793008018
 31
0.0
  0
LINE
  8
OUTLINE
  6
CONTINUOUS
 62
     3
 10
21.522359999999939
 20
296.33184399999641
 30
0.0
 11
21.522359999999939
 21
275.19385793008018
 31
0.0
  0
LINE
  8
OUTLINE
  6
CONTINUOUS
 62
     3
 10
22.02287999999999
 20
274.32693185966082
 30
0.0
 11
22.02287999999999
 21
269.05350399999918
 31
0.0
  0
LINE
  8
OUTLINE
  6
CONTINUOUS
 62
     3
 10
-217.52599200000009
 20
25.800783999998771
 30
0.0
 11
-193.30082399999989
 21
25.800783999998771
 31
0.0
  0
LINE
  8
OUTLINE
  6
CONTINUOUS
 62
     3
 10
193.30082399999949
 20
25.800783999998771
 30
0.0
 11
217.52599200000029
 21
25.800783999998771
 31
0.0
  0
LINE
  8
OUTLINE
  6
CONTINUOUS
 62
     3
 10
-217.52599200000009
 20
24.999952000001599
 30
0.0
 11
-191.3993622413436
 21
24.999952000001599
 31
0.0
  0
LINE
  8
OUTLINE
  6
CONTINUOUS
 62
     3
 10
191.39936224165879
 20
24.999952000001599
 30
0.0
 11
217.52599200000029
 21
24.999952000001599
 31
0.0
  0
LINE
  8
OUTLINE
  6
CONTINUOUS
 62
     3
 10
-212.7210000000002
 20
0.0
 30
0.0
 11
-191.32248593646139
 21
0.0
 31
0.0
  0
LINE
  8
OUTLINE
  6
CONTINUOUS
 62
     3
 10
-212.7210000000002
 20
-9.0093600000000151
 30
0.0
 11
212.721
 21
-9.0093600000000151
 31
0.0
  0
LINE
  8
OUTLINE
  6
CONTINUOUS
 62
     3
 10
191.1986400000001
 20
263.44410028534838
 30
0.0
 11
191.1986400000001
 21
268.45287999999692
 31
0.0
  0
LINE
  8
OUTLINE
  6
CONTINUOUS
 62
     3
 10
192.49999199999999
 20
262.04622399999772
 30
0.0
 11
192.49999199999999
 21
26.601615999999581
 31
0.0
  0
LINE
  8
OUTLINE
  6
CONTINUOUS
 62
     3
 10
191.39936224165879
 20
24.999952000001599
 30
0.0
 11
191.32248593696161
 21
0.0
 31
0.0
  0
LINE
  8
OUTLINE
  6
CONTINUOUS
 62
     3
 10
212.721
 20
0.0
 30
0.0
 11
212.721
 21
-9.0093600000000151
 31
0.0
  0
LINE
  8
OUTLINE
  6
CONTINUOUS
 62
     3
 10
217.52599200000029
 20
25.800783999998771
 30
0.0
 11
217.52599200000029
 21
24.999952000001599
 31
0.0
  0
ARC
  8
OUTLINE
  6
CONTINUOUS
 62
     3
 10
-54.056160000000091
 20
296.33184399999641
 30
0.0
 40
5.5057200000000401
 50
90.0
 51
180.0
  0
ARC
  8
OUTLINE
  6
CONTINUOUS
 62
     3
 10
-51.667741085459063
 20
301.4371479999968
 30
0.0
 40
1.401455999999579
 50
90.0
 51
149.99999541590711
  0
ARC
  8
OUTLINE
  6
CONTINUOUS
 62
     3
 10
-53.343798156873618
 20
302.33808399999867
 30
0.0
 40
0.5005200000000502
 50
270.0
 51
330.00001408728502
  0
ARC
  8
OUTLINE
  6
CONTINUOUS
 62
     3
 10
-191.09853600000011
 20
262.04622399999772
 30
0.0
 40
1.4014559999996501
 50
94.096043758118697
 51
180.0
  0
ARC
  8
OUTLINE
  6
CONTINUOUS
 62
     3
 10
-61.463856000000312
 20
269.05350399999918
 30
0.0
 40
1.4014560000001091
 50
334.61533808968221
 51
0.0
  0
ARC
  8
OUTLINE
  6
CONTINUOUS
 62
     3
 10
16.016639999999821
 20
296.33184399999641
 30
0.0
 40
5.5057199999999904
 50
0.0
 51
90.0
  0
ARC
  8
OUTLINE
  6
CONTINUOUS
 62
     3
 10
13.628221085959471
 20
301.4371479999968
 30
0.0
 40
1.40145599999981
 50
30.000004584092888
 51
90.0
  0
ARC
  8
OUTLINE
  6
CONTINUOUS
 62
     3
 10
15.30427815687335
 20
302.33808399999867
 30
0.0
 40
0.5005200000002104
 50
209.99998591271489
 51
270.0
  0
ARC
  8
OUTLINE
  6
CONTINUOUS
 62
     3
 10
23.424336000000039
 20
269.05350399999918
 30
0.0
 40
1.40145600000009
 50
180.0
 51
205.3846619103179
  0
ARC
  8
OUTLINE
  6
CONTINUOUS
 62
     3
 10
191.098536
 20
262.04622399999772
 30
0.0
 40
1.40145600000009
 50
0.0
 51
85.9039562418683
  0
ARC
  8
OUTLINE
  6
CONTINUOUS
 62
     3
 10
-193.30082399999989
 20
26.601615999999581
 30
0.0
 40
0.8008320000002003
 50
270.0
 51
0.0
  0
ARC
  8
OUTLINE
  6
CONTINUOUS
 62
     3
 10
193.30082399999949
 20
26.601615999999581
 30
0.0
 40
0.8008319999997295
 50
180.0
 51
270.0
  0
LINE
  8
OUTLINE
  6
CONTINUOUS
 62
     3
 10
-53.010777178376323
 20
301.83756399999709
 30
0.0
 11
-54.056051580360872
 21
301.83756399999709
 31
0.0
  0
LINE
  8
OUTLINE
  6
CONTINUOUS
 62
     3
 10
22.15810942842722
 20
268.45287999999653
 30
0.0
 11
191.1986400000001
 21
268.45287999999692
 31
0.0
  0
LINE
  8
OUTLINE
  6
CONTINUOUS
 62
     3
 10
191.32248593696161
 20
0.0
 30
0.0
 11
212.721
 21
0.0
 31
0.0
  0
LINE
  8
NOTE
  6
DASHDOT
 62
     4
 10
205.5
 20
41.020291346650197
 30
0.0
 11
205.5
 21
17.769672253395239
 31
0.0
  0
LINE
  8
NOTE
  6
DASHDOT
 62
     4
 10
-205.5
 20
41.020291346650197
 30
0.0
 11
-205.5
 21
17.769672253395239
 31
0.0
  0
CIRCLE
  8
FIX
  6
CONTINUOUS
 62
    11
 10
211.61985600000031
 20
192.8743600000013
 30
0.0
 40
3.0
  0
CIRCLE
  8
FIX
  6
CONTINUOUS
 62
    11
 10
205.5
 20
24.999952000001599
 30
0.0
 40
3.0
  0
CIRCLE
  8
FIX
  6
CONTINUOUS
 62
    11
 10
-205.5
 20
24.999952000001599
 30
0.0
 40
3.0
  0
CIRCLE
  8
FIX
  6
CONTINUOUS
 62
    11
 10
-211.61985600000031
 20
192.8743600000013
 30
0.0
 40
3.0
  0
LINE
  8
NOTE
  6
DASHDOT
 62
     4
 10
171.61876430700269
 20
85.999952000001599
 30
0.0
 11
217.52599200000029
 21
85.999952000001599
 31
0.0
  0
CIRCLE
  8
ARRANGE
  6
CONTINUOUS
 62
     1
 10
0.0
 20
0.0
 30
0.0
 40
40.0
  0
POINT
  8
ARRANGE
  6
CONTINUOUS
 62
     1
 10
0.0
 20
0.0
 30
0.0
 50
180.0
  0
LINE
  8
BASIS
  6
DASHDOT
 62
     6
 10
0.0
 20
-97.41331649139471
 30
0.0
 11
0.0
 21
137.34828553723369
 31
0.0
  0
LINE
  8
BASIS
  6
DASHDOT
 62
     6
 10
-128.789675687467
 20
0.0
 30
0.0
 11
122.12257372271419
 21
0.0
 31
0.0
  0
LINE
  8
NOTE
  6
CONTINUOUS
 62
     4
 10
392.97252600000002
 20
348.56747426329588
 30
0.0
 11
518.19375199999968
 21
348.56747426329588
 31
0.0
  0
LINE
  8
NOTE
  6
CONTINUOUS
 62
     4
 10
197.2048799999998
 20
85.999952000001599
 30
0.0
 11
392.97252600000002
 21
348.56747426329588
 31
0.0
  0
TEXT
  8
NOTE
  6
CONTINUOUS
 62
     4
 10
-243.47194749158459
 20
187.9692639999989
 30
0.0
 40
64.0
  1
RA2
 41
0.9
  0
TEXT
  8
NOTE
  6
CONTINUOUS
 62
     4
 10
16.376742857142968
 20
163.80817631414141
 30
0.0
 40
64.0
  1
SA
 41
0.9
  0
TEXT
  8
NOTE
  6
CONTINUOUS
 62
     4
 10
428.36994199999981
 20
365.34709926329612
 30
0.0
 40
64.0
  1
EL
 41
0.9
  0
LINE
  8
NOTE
  6
CONTINUOUS
 62
     4
 10
-211.61985600000031
 20
192.8743600000013
 30
0.0
 11
-421.66674114320449
 21
435.50002203391381
 31
0.0
  0
TEXT
  8
NOTE
  6
CONTINUOUS
 62
     4
 10
-643.47885692456396
 20
453.15225233317449
 30
0.0
 40
64.0
  1
AH 4
 41
0.9
  0
LINE
  8
NOTE
  6
CONTINUOUS
 62
     4
 10
-666.34804904384043
 20
435.50002203391381
 30
0.0
 11
-421.66674114320449
 21
435.50002203391381
 31
0.0
  0
LINE
  8
NOTE
  6
CONTINUOUS
 62
     4
 10
209.78009714701329
 20
125.6108562648202
 30
0.0
 11
197.2048799999998
 21
85.999952000001599
 31
0.0
  0
LINE
  8
NOTE
  6
CONTINUOUS
 62
     4
 10
197.2048799999998
 20
85.999952000001599
 30
0.0
 11
228.0894847349355
 21
110.408196184631
 31
0.0
  0
LINE
  8
NOTE
  6
CONTINUOUS
 62
     4
 10
-244.51262578510429
 20
212.32771499230009
 30
0.0
 11
-211.61985600000031
 21
192.8743600000013
 31
0.0
  0
LINE
  8
NOTE
  6
CONTINUOUS
 62
     4
 10
-211.61985600000031
 20
192.8743600000013
 30
0.0
 11
-228.45729297142589
 21
225.98873312033609
 31
0.0
  0
TEXT
  8
NOTE
  6
CONTINUOUS
 62
     4
 10
-93.666454851509002
 20
160.9129611710612
 30
0.0
 40
64.0
  1
SA
 41
0.9
  0
TEXT
  8
NOTE
  6
CONTINUOUS
 62
     4
 10
60.538822432323293
 20
75.50402588363761
 30
0.0
 40
64.0
  1
SA
 41
0.9
  0
TEXT
  8
NOTE
  6
CONTINUOUS
 62
     4
 10
-45.884542152509198
 20
76.227829669407242
 30
0.0
 40
64.0
  1
SA
 41
0.9
  0
TEXT
  8
NOTE
  6
CONTINUOUS
 62
     4
 10
-153.7558320237965
 20
79.846861250621828
 30
0.0
 40
64.0
  1
SA
 41
0.9
  0
TEXT
  8
NOTE
  6
CONTINUOUS
 62
     4
 10
-83.682453571381302
 20
-111.51193818473079
 30
0.0
 40
64.0
  1
RA1
 41
0.9
  0
LINE
  8
NOTE
  6
CONTINUOUS
 62
     4
 10
-205.5
 20
24.999952000001599
 30
0.0
 11
-394.58228687231008
 21
315.04095506164651
 31
0.0
  0
LINE
  8
NOTE
  6
CONTINUOUS
 62
     4
 10
-1018.533643789494
 20
315.04095506164651
 30
0.0
 11
-394.58228687231008
 21
315.04095506164651
 31
0.0
  0
LINE
  8
NOTE
  6
CONTINUOUS
 62
     4
 10
-237.555369304685
 20
47.65627535756505
 30
0.0
 11
-205.5
 21
24.999952000001599
 31
0.0
  0
LINE
  8
NOTE
  6
CONTINUOUS
 62
     4
 10
-205.5
 20
24.999952000001599
 30
0.0
 11
-215.23368385522011
 21
60.624047776430977
 31
0.0
  0
LINE
  8
SIZE
  6
CONTINUOUS
 62
    30
 10
-212.7210000000002
 20
-29.009360000000019
 30
0.0
 11
-212.7210000000002
 21
-415.45446367460721
 31
0.0
  0
LINE
  8
SIZE
  6
CONTINUOUS
 62
    30
 10
212.721
 20
-29.009360000000019
 30
0.0
 11
212.721
 21
-415.45446367460721
 31
0.0
  0
LINE
  8
SIZE
  6
CONTINUOUS
 62
    30
 10
-200.7210000000002
 20
-395.45446367460721
 30
0.0
 11
200.721
 21
-395.45446367460721
 31
0.0
  0
CIRCLE
  8
SIZE
  6
CONTINUOUS
 62
    30
 10
-212.7210000000002
 20
-395.45446367460721
 30
0.0
 40
6.0
  0
LINE
  8
SIZE
  6
CONTINUOUS
 62
    30
 10
-212.7210000000002
 20
-395.45446367460721
 30
0.0
 11
-200.7210000000002
 21
-395.45446367460721
 31
0.0
  0
CIRCLE
  8
SIZE
  6
CONTINUOUS
 62
    30
 10
212.721
 20
-395.45446367460721
 30
0.0
 40
6.0
  0
LINE
  8
SIZE
  6
CONTINUOUS
 62
    30
 10
212.721
 20
-395.45446367460721
 30
0.0
 11
200.721
 21
-395.45446367460721
 31
0.0
  0
TEXT
  8
SIZE
  6
CONTINUOUS
 62
    30
 10
-74.057142857142964
 20
-370.45446367460721
 30
0.0
 40
64.0
  1
425
 41
0.9
 72
     1
 11
-0.0000000000001137
 21
-370.45446367460721
 31
0.0
  0
POINT
  8
DEFPOINTS
  6
CONTINUOUS
 62
    30
 10
-212.7210000000002
 20
-9.0093600000000151
 30
0.0
  0
POINT
  8
DEFPOINTS
  6
CONTINUOUS
 62
    30
 10
212.721
 20
-9.0093600000000151
 30
0.0
  0
POINT
  8
DEFPOINTS
  6
CONTINUOUS
 62
    30
 10
212.721
 20
-395.45446367460721
 30
0.0
  0
LINE
  8
SIZE
  6
CONTINUOUS
 62
    30
 10
-217.52599200000009
 20
-10.3900160000012
 30
0.0
 11
-217.52599200000009
 21
-529.48834546738124
 31
0.0
  0
LINE
  8
SIZE
  6
CONTINUOUS
 62
    30
 10
217.52599200000029
 20
-10.3900160000012
 30
0.0
 11
217.52599200000029
 21
-529.48834546738124
 31
0.0
  0
LINE
  8
SIZE
  6
CONTINUOUS
 62
    30
 10
-205.52599200000009
 20
-509.48834546738118
 30
0.0
 11
205.52599200000029
 21
-509.48834546738118
 31
0.0
  0
CIRCLE
  8
SIZE
  6
CONTINUOUS
 62
    30
 10
-217.52599200000009
 20
-509.48834546738118
 30
0.0
 40
6.0
  0
LINE
  8
SIZE
  6
CONTINUOUS
 62
    30
 10
-217.52599200000009
 20
-509.48834546738118
 30
0.0
 11
-205.52599200000009
 21
-509.48834546738118
 31
0.0
  0
CIRCLE
  8
SIZE
  6
CONTINUOUS
 62
    30
 10
217.52599200000029
 20
-509.48834546738118
 30
0.0
 40
6.0
  0
LINE
  8
SIZE
  6
CONTINUOUS
 62
    30
 10
217.52599200000029
 20
-509.48834546738118
 30
0.0
 11
205.52599200000029
 21
-509.48834546738118
 31
0.0
  0
TEXT
  8
SIZE
  6
CONTINUOUS
 62
    30
 10
-74.05714285714285
 20
-484.48834546738118
 30
0.0
 40
64.0
  1
435
 41
0.9
 72
     1
 11
0.0
 21
-484.48834546738118
 31
0.0
  0
POINT
  8
DEFPOINTS
  6
CONTINUOUS
 62
    30
 10
-217.52599200000009
 20
25.800783999998771
 30
0.0
  0
POINT
  8
DEFPOINTS
  6
CONTINUOUS
 62
    30
 10
217.52599200000029
 20
25.800783999998771
 30
0.0
  0
POINT
  8
DEFPOINTS
  6
CONTINUOUS
 62
    30
 10
217.52599200000029
 20
-509.48834546738118
 30
0.0
  0
LINE
  8
SIZE
  6
CONTINUOUS
 62
    30
 10
-205.5
 20
-18.421127746604721
 30
0.0
 11
-205.5
 21
-314.23558599768239
 31
0.0
  0
LINE
  8
SIZE
  6
CONTINUOUS
 62
    30
 10
205.5
 20
-18.421127746604721
 30
0.0
 11
205.5
 21
-314.23558599768239
 31
0.0
  0
LINE
  8
SIZE
  6
CONTINUOUS
 62
    30
 10
-193.5
 20
-294.23558599768239
 30
0.0
 11
193.5
 21
-294.23558599768239
 31
0.0
  0
CIRCLE
  8
SIZE
  6
CONTINUOUS
 62
    30
 10
-205.5
 20
-294.23558599768239
 30
0.0
 40
6.0
  0
LINE
  8
SIZE
  6
CONTINUOUS
 62
    30
 10
-205.5
 20
-294.23558599768239
 30
0.0
 11
-193.5
 21
-294.23558599768239
 31
0.0
  0
CIRCLE
  8
SIZE
  6
CONTINUOUS
 62
    30
 10
205.5
 20
-294.23558599768239
 30
0.0
 40
6.0
  0
LINE
  8
SIZE
  6
CONTINUOUS
 62
    30
 10
205.5
 20
-294.23558599768239
 30
0.0
 11
193.5
 21
-294.23558599768239
 31
0.0
  0
TEXT
  8
SIZE
  6
CONTINUOUS
 62
    30
 10
-56.228571428571414
 20
-269.23558599768239
 30
0.0
 40
64.0
  1
411
 41
0.9
 72
     1
 11
0.0
 21
-269.23558599768239
 31
0.0
  0
POINT
  8
DEFPOINTS
  6
CONTINUOUS
 62
    30
 10
-205.5
 20
17.769672253395239
 30
0.0
  0
POINT
  8
DEFPOINTS
  6
CONTINUOUS
 62
    30
 10
205.5
 20
17.769672253395239
 30
0.0
  0
POINT
  8
DEFPOINTS
  6
CONTINUOUS
 62
    30
 10
205.5
 20
-294.23558599768239
 30
0.0
  0
LINE
  8
SIZE
  6
CONTINUOUS
 62
    30
 10
-211.61985600000031
 20
227.31592964284539
 30
0.0
 11
-211.61985600000031
 21
928.93089613138181
 31
0.0
  0
LINE
  8
SIZE
  6
CONTINUOUS
 62
    30
 10
211.61985600000031
 20
227.31592964284539
 30
0.0
 11
211.61985600000031
 21
928.93089613138181
 31
0.0
  0
LINE
  8
SIZE
  6
CONTINUOUS
 62
    30
 10
-199.61985600000031
 20
908.93089613138159
 30
0.0
 11
199.61985600000031
 21
908.93089613138159
 31
0.0
  0
CIRCLE
  8
SIZE
  6
CONTINUOUS
 62
    30
 10
-211.61985600000031
 20
908.93089613138159
 30
0.0
 40
6.0
  0
LINE
  8
SIZE
  6
CONTINUOUS
 62
    30
 10
-211.61985600000031
 20
908.93089613138159
 30
0.0
 11
-199.61985600000031
 21
908.93089613138159
 31
0.0
  0
CIRCLE
  8
SIZE
  6
CONTINUOUS
 62
    30
 10
211.61985600000031
 20
908.93089613138159
 30
0.0
 40
6.0
  0
LINE
  8
SIZE
  6
CONTINUOUS
 62
    30
 10
211.61985600000031
 20
908.93089613138159
 30
0.0
 11
199.61985600000031
 21
908.93089613138159
 31
0.0
  0
TEXT
  8
SIZE
  6
CONTINUOUS
 62
    30
 10
-74.057142857142836
 20
933.93089613138181
 30
0.0
 40
64.0
  1
423
 41
0.9
 72
     1
 11
0.0
 21
933.93089613138181
 31
0.0
  0
POINT
  8
DEFPOINTS
  6
CONTINUOUS
 62
    30
 10
-211.61985600000031
 20
207.31592964284539
 30
0.0
  0
POINT
  8
DEFPOINTS
  6
CONTINUOUS
 62
    30
 10
211.61985600000031
 20
207.31592964284539
 30
0.0
  0
POINT
  8
DEFPOINTS
  6
CONTINUOUS
 62
    30
 10
211.61985600000031
 20
908.93089613138159
 30
0.0
  0
LINE
  8
SIZE
  6
CONTINUOUS
 62
    30
 10
-192.49999199999971
 20
282.04622399999772
 30
0.0
 11
-192.49999199999971
 21
806.01458016414517
 31
0.0
  0
LINE
  8
SIZE
  6
CONTINUOUS
 62
    30
 10
192.49999199999999
 20
282.04622399999772
 30
0.0
 11
192.49999199999999
 21
806.01458016414517
 31
0.0
  0
LINE
  8
SIZE
  6
CONTINUOUS
 62
    30
 10
-180.49999199999971
 20
786.01458016414563
 30
0.0
 11
180.49999199999999
 21
786.01458016414563
 31
0.0
  0
CIRCLE
  8
SIZE
  6
CONTINUOUS
 62
    30
 10
-192.49999199999971
 20
786.01458016414563
 30
0.0
 40
6.0
  0
LINE
  8
SIZE
  6
CONTINUOUS
 62
    30
 10
-192.49999199999971
 20
786.01458016414563
 30
0.0
 11
-180.49999199999971
 21
786.01458016414563
 31
0.0
  0
CIRCLE
  8
SIZE
  6
CONTINUOUS
 62
    30
 10
192.49999199999999
 20
786.01458016414563
 30
0.0
 40
6.0
  0
LINE
  8
SIZE
  6
CONTINUOUS
 62
    30
 10
192.49999199999999
 20
786.01458016414563
 30
0.0
 11
180.49999199999999
 21
786.01458016414563
 31
0.0
  0
TEXT
  8
SIZE
  6
CONTINUOUS
 62
    30
 10
-74.057142857142708
 20
811.01458016414563
 30
0.0
 40
64.0
  1
385
 41
0.9
 72
     1
 11
0.0000000000001137
 21
811.01458016414563
 31
0.0
  0
POINT
  8
DEFPOINTS
  6
CONTINUOUS
 62
    30
 10
-192.49999199999971
 20
262.04622399999772
 30
0.0
  0
POINT
  8
DEFPOINTS
  6
CONTINUOUS
 62
    30
 10
192.49999199999999
 20
262.04622399999772
 30
0.0
  0
POINT
  8
DEFPOINTS
  6
CONTINUOUS
 62
    30
 10
192.49999199999999
 20
786.01458016414563
 30
0.0
  0
LINE
  8
SIZE
  6
CONTINUOUS
 62
    30
 10
5.0052000000000589
 20
181.2719422040004
 30
0.0
 11
5.0052000000000589
 21
486.65920789777329
 31
0.0
  0
LINE
  8
SIZE
  6
CONTINUOUS
 62
    30
 10
0.0
 20
333.0257355750465
 30
0.0
 11
0.0
 21
486.65920789777329
 31
0.0
  0
LINE
  8
SIZE
  6
CONTINUOUS
 62
    30
 10
-12.0
 20
466.65920789777329
 30
0.0
 11
-24.0
 21
466.65920789777329
 31
0.0
  0
LINE
  8
SIZE
  6
CONTINUOUS
 62
    30
 10
17.005200000000059
 20
466.65920789777329
 30
0.0
 11
353.60383934948032
 21
466.65920789777329
 31
0.0
  0
LINE
  8
SIZE
  6
CONTINUOUS
 62
    30
 10
0.0
 20
466.65920789777329
 30
0.0
 11
5.0052000000000589
 21
466.65920789777329
 31
0.0
  0
CIRCLE
  8
SIZE
  6
CONTINUOUS
 62
    30
 10
0.0
 20
466.65920789777329
 30
0.0
 40
6.0
  0
LINE
  8
SIZE
  6
CONTINUOUS
 62
    30
 10
0.0
 20
466.65920789777329
 30
0.0
 11
-12.0
 21
466.65920789777329
 31
0.0
  0
CIRCLE
  8
SIZE
  6
CONTINUOUS
 62
    30
 10
5.0052000000000589
 20
466.65920789777329
 30
0.0
 40
6.0
  0
LINE
  8
SIZE
  6
CONTINUOUS
 62
    30
 10
5.0052000000000589
 20
466.65920789777329
 30
0.0
 11
17.005200000000059
 21
466.65920789777329
 31
0.0
  0
TEXT
  8
SIZE
  6
CONTINUOUS
 62
    30
 10
290.20383934948018
 20
491.65920789777329
 30
0.0
 40
64.0
  1
5
 41
0.9
 72
     1
 11
309.40383934948022
 21
491.65920789777329
 31
0.0
  0
POINT
  8
DEFPOINTS
  6
CONTINUOUS
 62
    30
 10
5.0052000000000589
 20
161.27194220400051
 30
0.0
  0
POINT
  8
DEFPOINTS
  6
CONTINUOUS
 62
    30
 10
0.0
 20
313.0257355750465
 30
0.0
  0
POINT
  8
DEFPOINTS
  6
CONTINUOUS
 62
    30
 10
0.0
 20
466.65920789777329
 30
0.0
  0
LINE
  8
SIZE
  6
CONTINUOUS
 62
    30
 10
-40.041600000000017
 20
260.40248182805328
 30
0.0
 11
-40.041600000000017
 21
592.08505753016061
 31
0.0
  0
LINE
  8
SIZE
  6
CONTINUOUS
 62
    30
 10
5.0052000000000589
 20
181.2719422040004
 30
0.0
 11
5.0052000000000589
 21
592.08505753016061
 31
0.0
  0
LINE
  8
SIZE
  6
CONTINUOUS
 62
    30
 10
17.005200000000059
 20
572.08505753016061
 30
0.0
 11
29.005200000000059
 21
572.08505753016061
 31
0.0
  0
LINE
  8
SIZE
  6
CONTINUOUS
 62
    30
 10
-52.041600000000017
 20
572.08505753016061
 30
0.0
 11
-405.35977642857188
 21
572.08505753016061
 31
0.0
  0
LINE
  8
SIZE
  6
CONTINUOUS
 62
    30
 10
5.0052000000000589
 20
572.08505753016061
 30
0.0
 11
-40.041600000000017
 21
572.08505753016061
 31
0.0
  0
CIRCLE
  8
SIZE
  6
CONTINUOUS
 62
    30
 10
5.0052000000000589
 20
572.08505753016061
 30
0.0
 40
6.0
  0
LINE
  8
SIZE
  6
CONTINUOUS
 62
    30
 10
5.0052000000000589
 20
572.08505753016061
 30
0.0
 11
17.005200000000059
 21
572.08505753016061
 31
0.0
  0
CIRCLE
  8
SIZE
  6
CONTINUOUS
 62
    30
 10
-40.041600000000017
 20
572.08505753016061
 30
0.0
 40
6.0
  0
LINE
  8
SIZE
  6
CONTINUOUS
 62
    30
 10
-40.041600000000017
 20
572.08505753016061
 30
0.0
 11
-52.041600000000017
 21
572.08505753016061
 31
0.0
  0
TEXT
  8
SIZE
  6
CONTINUOUS
 62
    30
 10
-380.35977642857188
 20
597.08505753016061
 30
0.0
 40
64.0
  1
45
 41
0.9
 72
     1
 11
-333.7312050000005
 21
597.08505753016061
 31
0.0
  0
POINT
  8
DEFPOINTS
  6
CONTINUOUS
 62
    30
 10
-40.041600000000017
 20
240.40248182805331
 30
0.0
  0
POINT
  8
DEFPOINTS
  6
CONTINUOUS
 62
    30
 10
5.0052000000000589
 20
161.27194220400051
 30
0.0
  0
POINT
  8
DEFPOINTS
  6
CONTINUOUS
 62
    30
 10
5.0052000000000589
 20
572.08505753016061
 30
0.0
  0
LINE
  8
SIZE
  6
CONTINUOUS
 62
    30
 10
5.0052000000000589
 20
181.2719422040004
 30
0.0
 11
5.0052000000000589
 21
592.08505753016061
 31
0.0
  0
LINE
  8
SIZE
  6
CONTINUOUS
 62
    30
 10
70.072799999999916
 20
262.43147076210391
 30
0.0
 11
70.072799999999916
 21
592.08505753016061
 31
0.0
  0
LINE
  8
SIZE
  6
CONTINUOUS
 62
    30
 10
-6.9947999999999411
 20
572.08505753016061
 30
0.0
 11
-18.994799999999941
 21
572.08505753016061
 31
0.0
  0
LINE
  8
SIZE
  6
CONTINUOUS
 62
    30
 10
82.072799999999916
 20
572.08505753016061
 30
0.0
 11
368.88977916659042
 21
572.08505753016061
 31
0.0
  0
LINE
  8
SIZE
  6
CONTINUOUS
 62
    30
 10
5.0052000000000589
 20
572.08505753016061
 30
0.0
 11
70.072799999999916
 21
572.08505753016061
 31
0.0
  0
CIRCLE
  8
SIZE
  6
CONTINUOUS
 62
    30
 10
5.0052000000000589
 20
572.08505753016061
 30
0.0
 40
6.0
  0
LINE
  8
SIZE
  6
CONTINUOUS
 62
    30
 10
5.0052000000000589
 20
572.08505753016061
 30
0.0
 11
-6.9947999999999411
 21
572.08505753016061
 31
0.0
  0
CIRCLE
  8
SIZE
  6
CONTINUOUS
 62
    30
 10
70.072799999999916
 20
572.08505753016061
 30
0.0
 40
6.0
  0
LINE
  8
SIZE
  6
CONTINUOUS
 62
    30
 10
70.072799999999916
 20
572.08505753016061
 30
0.0
 11
82.072799999999916
 21
572.08505753016061
 31
0.0
  0
TEXT
  8
SIZE
  6
CONTINUOUS
 62
    30
 10
250.63263630944741
 20
597.08505753016061
 30
0.0
 40
64.0
  1
65
 41
0.9
 72
     1
 11
297.26120773801881
 21
597.08505753016061
 31
0.0
  0
POINT
  8
DEFPOINTS
  6
CONTINUOUS
 62
    30
 10
5.0052000000000589
 20
161.27194220400051
 30
0.0
  0
POINT
  8
DEFPOINTS
  6
CONTINUOUS
 62
    30
 10
70.072799999999916
 20
242.43147076210391
 30
0.0
  0
POINT
  8
DEFPOINTS
  6
CONTINUOUS
 62
    30
 10
70.072799999999916
 20
572.08505753016061
 30
0.0
  0
LINE
  8
SIZE
  6
CONTINUOUS
 62
    30
 10
5.0052000000000589
 20
181.2719422040004
 30
0.0
 11
5.0052000000000589
 21
703.09826859235773
 31
0.0
  0
LINE
  8
SIZE
  6
CONTINUOUS
 62
    30
 10
115.11960000000001
 20
183.80817631414141
 30
0.0
 11
115.11960000000001
 21
703.09826859235773
 31
0.0
  0
LINE
  8
SIZE
  6
CONTINUOUS
 62
    30
 10
17.005200000000059
 20
683.09826859235773
 30
0.0
 11
103.11960000000001
 21
683.09826859235773
 31
0.0
  0
LINE
  8
SIZE
  6
CONTINUOUS
 62
    30
 10
115.11960000000001
 20
683.09826859235773
 30
0.0
 11
399.00737739966121
 21
683.09826859235773
 31
0.0
  0
CIRCLE
  8
SIZE
  6
CONTINUOUS
 62
    30
 10
5.0052000000000589
 20
683.09826859235773
 30
0.0
 40
6.0
  0
LINE
  8
SIZE
  6
CONTINUOUS
 62
    30
 10
5.0052000000000589
 20
683.09826859235773
 30
0.0
 11
17.005200000000059
 21
683.09826859235773
 31
0.0
  0
CIRCLE
  8
SIZE
  6
CONTINUOUS
 62
    30
 10
115.11960000000001
 20
683.09826859235773
 30
0.0
 40
6.0
  0
LINE
  8
SIZE
  6
CONTINUOUS
 62
    30
 10
115.11960000000001
 20
683.09826859235773
 30
0.0
 11
103.11960000000001
 21
683.09826859235773
 31
0.0
  0
TEXT
  8
SIZE
  6
CONTINUOUS
 62
    30
 10
247.83594882823269
 20
708.09826859235773
 30
0.0
 40
64.0
  1
110
 41
0.9
 72
     1
 11
310.92166311394698
 21
708.09826859235773
 31
0.0
  0
POINT
  8
DEFPOINTS
  6
CONTINUOUS
 62
    30
 10
5.0052000000000589
 20
161.27194220400051
 30
0.0
  0
POINT
  8
DEFPOINTS
  6
CONTINUOUS
 62
    30
 10
115.11960000000001
 20
163.80817631414141
 30
0.0
  0
POINT
  8
DEFPOINTS
  6
CONTINUOUS
 62
    30
 10
115.11960000000001
 20
683.09826859235773
 30
0.0
  0
LINE
  8
SIZE
  6
CONTINUOUS
 62
    30
 10
-105.1092000000003
 20
180.25744773697559
 30
0.0
 11
-105.1092000000003
 21
703.09826859235773
 31
0.0
  0
LINE
  8
SIZE
  6
CONTINUOUS
 62
    30
 10
5.0052000000000589
 20
181.2719422040004
 30
0.0
 11
5.0052000000000589
 21
703.09826859235773
 31
0.0
  0
LINE
  8
SIZE
  6
CONTINUOUS
 62
    30
 10
-6.9947999999999411
 20
683.09826859235773
 30
0.0
 11
-93.109200000000328
 21
683.09826859235773
 31
0.0
  0
LINE
  8
SIZE
  6
CONTINUOUS
 62
    30
 10
-105.1092000000003
 20
683.09826859235773
 30
0.0
 11
-402.50960682583661
 21
683.09826859235773
 31
0.0
  0
CIRCLE
  8
SIZE
  6
CONTINUOUS
 62
    30
 10
5.0052000000000589
 20
683.09826859235773
 30
0.0
 40
6.0
  0
LINE
  8
SIZE
  6
CONTINUOUS
 62
    30
 10
5.0052000000000589
 20
683.09826859235773
 30
0.0
 11
-6.9947999999999411
 21
683.09826859235773
 31
0.0
  0
CIRCLE
  8
SIZE
  6
CONTINUOUS
 62
    30
 10
-105.1092000000003
 20
683.09826859235773
 30
0.0
 40
6.0
  0
LINE
  8
SIZE
  6
CONTINUOUS
 62
    30
 10
-105.1092000000003
 20
683.09826859235773
 30
0.0
 11
-93.109200000000328
 21
683.09826859235773
 31
0.0
  0
TEXT
  8
SIZE
  6
CONTINUOUS
 62
    30
 10
-377.50960682583661
 20
708.09826859235773
 30
0.0
 40
64.0
  1
110
 41
0.9
 72
     1
 11
-314.42389254012232
 21
708.09826859235773
 31
0.0
  0
POINT
  8
DEFPOINTS
  6
CONTINUOUS
 62
    30
 10
-105.1092000000003
 20
160.25744773697559
 30
0.0
  0
POINT
  8
DEFPOINTS
  6
CONTINUOUS
 62
    30
 10
5.0052000000000589
 20
161.27194220400051
 30
0.0
  0
POINT
  8
DEFPOINTS
  6
CONTINUOUS
 62
    30
 10
5.0052000000000589
 20
683.09826859235773
 30
0.0
  0
LINE
  8
SIZE
  6
CONTINUOUS
 62
    30
 10
237.52599200000029
 20
24.999952000001599
 30
0.0
 11
659.3028452760791
 21
24.999952000001489
 31
0.0
  0
LINE
  8
SIZE
  6
CONTINUOUS
 62
    30
 10
237.52599200000029
 20
85.999952000001599
 30
0.0
 11
659.3028452760791
 21
85.999952000001485
 31
0.0
  0
LINE
  8
SIZE
  6
CONTINUOUS
 62
    30
 10
639.30284527607887
 20
97.999952000001485
 30
0.0
 11
639.30284527607887
 21
109.9999520000015
 31
0.0
  0
LINE
  8
SIZE
  6
CONTINUOUS
 62
    30
 10
639.30284527607887
 20
12.999952000001491
 30
0.0
 11
639.30284527607887
 21
-117.5714765714271
 31
0.0
  0
LINE
  8
SIZE
  6
CONTINUOUS
 62
    30
 10
639.30284527607887
 20
85.999952000001485
 30
0.0
 11
639.30284527607887
 21
24.999952000001489
 31
0.0
  0
CIRCLE
  8
SIZE
  6
CONTINUOUS
 62
    30
 10
639.30284527607887
 20
85.999952000001485
 30
0.0
 40
6.0
  0
LINE
  8
SIZE
  6
CONTINUOUS
 62
    30
 10
639.30284527607887
 20
85.999952000001485
 30
0.0
 11
639.30284527607887
 21
97.999952000001485
 31
0.0
  0
CIRCLE
  8
SIZE
  6
CONTINUOUS
 62
    30
 10
639.30284527607887
 20
24.999952000001489
 30
0.0
 40
6.0
  0
LINE
  8
SIZE
  6
CONTINUOUS
 62
    30
 10
639.30284527607887
 20
24.999952000001489
 30
0.0
 11
639.30284527607887
 21
12.999952000001491
 31
0.0
  0
TEXT
  8
SIZE
  6
CONTINUOUS
 62
    30
 10
614.30284527607887
 20
-92.571476571426899
 30
0.0
 40
64.0
  1
61
 50
90.0
 41
0.9
 72
     1
 11
614.30284527607887
 21
-58.285762285712622
 31
0.0
  0
POINT
  8
DEFPOINTS
  6
CONTINUOUS
 62
    30
 10
217.52599200000029
 20
24.999952000001599
 30
0.0
  0
POINT
  8
DEFPOINTS
  6
CONTINUOUS
 62
    30
 10
217.52599200000029
 20
85.999952000001599
 30
0.0
  0
POINT
  8
DEFPOINTS
  6
CONTINUOUS
 62
    30
 10
639.30284527607887
 20
85.999952000001485
 30
0.0
  0
LINE
  8
SIZE
  6
CONTINUOUS
 62
    30
 10
237.52599200000029
 20
24.999952000001599
 30
0.0
 11
556.06279578633166
 21
24.999952000001489
 31
0.0
  0
LINE
  8
SIZE
  6
CONTINUOUS
 62
    30
 10
232.721
 20
0.0
 30
0.0
 11
556.06279578633166
 21
-0.0000000000001137
 31
0.0
  0
LINE
  8
SIZE
  6
CONTINUOUS
 62
    30
 10
536.06279578633166
 20
36.999952000001493
 30
0.0
 11
536.06279578633166
 21
48.999952000001493
 31
0.0
  0
LINE
  8
SIZE
  6
CONTINUOUS
 62
    30
 10
536.06279578633166
 20
-12.00000000000011
 30
0.0
 11
536.06279578633166
 21
-291.23428571428587
 31
0.0
  0
LINE
  8
SIZE
  6
CONTINUOUS
 62
    30
 10
536.06279578633166
 20
24.999952000001489
 30
0.0
 11
536.06279578633166
 21
-0.0000000000001137
 31
0.0
  0
CIRCLE
  8
SIZE
  6
CONTINUOUS
 62
    30
 10
536.06279578633166
 20
24.999952000001489
 30
0.0
 40
6.0
  0
LINE
  8
SIZE
  6
CONTINUOUS
 62
    30
 10
536.06279578633166
 20
24.999952000001489
 30
0.0
 11
536.06279578633166
 21
36.999952000001493
 31
0.0
  0
CIRCLE
  8
SIZE
  6
CONTINUOUS
 62
    30
 10
536.06279578633166
 20
-0.0000000000001137
 30
0.0
 40
6.0
  0
LINE
  8
SIZE
  6
CONTINUOUS
 62
    30
 10
536.06279578633166
 20
-0.0000000000001137
 30
0.0
 11
536.06279578633166
 21
-12.00000000000011
 31
0.0
  0
TEXT
  8
SIZE
  6
CONTINUOUS
 62
    30
 10
511.06279578633172
 20
-266.23428571428582
 30
0.0
 40
64.0
  1
9～25
 50
90.0
 41
0.9
 72
     1
 11
511.06279578633172
 21
-157.61714285714291
 31
0.0
  0
POINT
  8
DEFPOINTS
  6
CONTINUOUS
 62
    30
 10
217.52599200000029
 20
24.999952000001599
 30
0.0
  0
POINT
  8
DEFPOINTS
  6
CONTINUOUS
 62
    30
 10
212.721
 20
0.0
 30
0.0
  0
POINT
  8
DEFPOINTS
  6
CONTINUOUS
 62
    30
 10
536.06279578633166
 20
-0.0000000000001137
 30
0.0
  0
LINE
  8
SIZE
  6
CONTINUOUS
 62
    30
 10
232.721
 20
0.0
 30
0.0
 11
420.2481854815187
 21
-0.0000000000001137
 31
0.0
  0
LINE
  8
SIZE
  6
CONTINUOUS
 62
    30
 10
232.721
 20
-9.0093600000000151
 30
0.0
 11
420.2481854815187
 21
-9.0093600000001288
 31
0.0
  0
LINE
  8
SIZE
  6
CONTINUOUS
 62
    30
 10
400.2481854815187
 20
28.190799999999971
 30
0.0
 11
400.2481854815187
 21
40.190799999999967
 31
0.0
  0
LINE
  8
SIZE
  6
CONTINUOUS
 62
    30
 10
400.2481854815187
 20
-21.009360000000019
 30
0.0
 11
400.2481854815187
 21
-118.6665028571429
 31
0.0
  0
LINE
  8
SIZE
  6
CONTINUOUS
 62
    30
 10
400.2481854815187
 20
0.0
 30
0.0
 11
400.2481854815187
 21
-9.0093600000000151
 31
0.0
  0
CIRCLE
  8
SIZE
  6
CONTINUOUS
 62
    30
 10
400.2481854815187
 20
0.0
 30
0.0
 40
6.0
  0
LINE
  8
SIZE
  6
CONTINUOUS
 62
    30
 10
400.2481854815187
 20
0.0
 30
0.0
 11
400.2481854815187
 21
28.19079999999985
 31
0.0
  0
CIRCLE
  8
SIZE
  6
CONTINUOUS
 62
    30
 10
400.2481854815187
 20
-9.0093600000000151
 30
0.0
 40
6.0
  0
LINE
  8
SIZE
  6
CONTINUOUS
 62
    30
 10
400.2481854815187
 20
-9.0093600000000151
 30
0.0
 11
400.2481854815187
 21
-21.009360000000019
 31
0.0
  0
TEXT
  8
SIZE
  6
CONTINUOUS
 62
    30
 10
375.2481854815187
 20
-93.666502857142859
 30
0.0
 40
64.0
  1
9
 50
90.0
 41
0.9
 72
     1
 11
375.2481854815187
 21
-75.837931428571437
 31
0.0
  0
POINT
  8
DEFPOINTS
  6
CONTINUOUS
 62
    30
 10
212.721
 20
0.0
 30
0.0
  0
POINT
  8
DEFPOINTS
  6
CONTINUOUS
 62
    30
 10
212.721
 20
-9.0093600000000151
 30
0.0
  0
POINT
  8
DEFPOINTS
  6
CONTINUOUS
 62
    30
 10
400.2481854815187
 20
-9.0093600000000151
 30
0.0
  0
LINE
  8
SIZE
  6
CONTINUOUS
 62
    30
 10
237.52599200000029
 20
24.999952000001599
 30
0.0
 11
787.47682987299595
 21
24.999952000001489
 31
0.0
  0
LINE
  8
SIZE
  6
CONTINUOUS
 62
    30
 10
246.73556000000011
 20
192.8743600000013
 30
0.0
 11
787.47682987299595
 21
192.87436000000119
 31
0.0
  0
LINE
  8
SIZE
  6
CONTINUOUS
 62
    30
 10
767.47682987299595
 20
12.999952000001491
 30
0.0
 11
767.47682987299595
 21
0.9999520000014854
 31
0.0
  0
LINE
  8
SIZE
  6
CONTINUOUS
 62
    30
 10
767.47682987299595
 20
204.87436000000119
 30
0.0
 11
767.47682987299595
 21
216.87436000000119
 31
0.0
  0
LINE
  8
SIZE
  6
CONTINUOUS
 62
    30
 10
767.47682987299595
 20
24.999952000001489
 30
0.0
 11
767.47682987299595
 21
192.87436000000119
 31
0.0
  0
CIRCLE
  8
SIZE
  6
CONTINUOUS
 62
    30
 10
767.47682987299595
 20
24.999952000001489
 30
0.0
 40
6.0
  0
LINE
  8
SIZE
  6
CONTINUOUS
 62
    30
 10
767.47682987299595
 20
24.999952000001489
 30
0.0
 11
767.47682987299595
 21
12.999952000001491
 31
0.0
  0
CIRCLE
  8
SIZE
  6
CONTINUOUS
 62
    30
 10
767.47682987299595
 20
192.87436000000119
 30
0.0
 40
6.0
  0
LINE
  8
SIZE
  6
CONTINUOUS
 62
    30
 10
767.47682987299595
 20
192.87436000000119
 30
0.0
 11
767.47682987299595
 21
204.87436000000119
 31
0.0
  0
TEXT
  8
SIZE
  6
CONTINUOUS
 62
    30
 10
742.47682987299595
 20
40.365727428572882
 30
0.0
 40
64.0
  1
168
 50
90.0
 41
0.9
 72
     1
 11
742.47682987299595
 21
108.93715600000139
 31
0.0
  0
POINT
  8
DEFPOINTS
  6
CONTINUOUS
 62
    30
 10
217.52599200000029
 20
24.999952000001599
 30
0.0
  0
POINT
  8
DEFPOINTS
  6
CONTINUOUS
 62
    30
 10
226.73556000000011
 20
192.8743600000013
 30
0.0
  0
POINT
  8
DEFPOINTS
  6
CONTINUOUS
 62
    30
 10
767.47682987299595
 20
192.87436000000119
 30
0.0
  0
LINE
  8
DETAIL
  6
CONTINUOUS
 62
     5
 10
229.93888799999971
 20
185.06624799999881
 30
0.0
 11
229.93888799999971
 21
191.27269599999599
 31
0.0
  0
LINE
  8
SIZE
  6
CONTINUOUS
 62
    30
 10
237.52599200000029
 20
24.999952000001599
 30
0.0
 11
898.35749815468444
 21
24.999952000001372
 31
0.0
  0
LINE
  8
SIZE
  6
CONTINUOUS
 62
    30
 10
211.098536
 20
263.4476799999976
 30
0.0
 11
898.35749815468444
 21
263.44767999999738
 31
0.0
  0
LINE
  8
SIZE
  6
CONTINUOUS
 62
    30
 10
878.35749815468444
 20
36.999952000001372
 30
0.0
 11
878.35749815468444
 21
251.44767999999749
 31
0.0
  0
CIRCLE
  8
SIZE
  6
CONTINUOUS
 62
    30
 10
878.35749815468444
 20
24.999952000001372
 30
0.0
 40
6.0
  0
LINE
  8
SIZE
  6
CONTINUOUS
 62
    30
 10
878.35749815468444
 20
24.999952000001372
 30
0.0
 11
878.35749815468444
 21
36.999952000001372
 31
0.0
  0
CIRCLE
  8
SIZE
  6
CONTINUOUS
 62
    30
 10
878.35749815468444
 20
263.44767999999749
 30
0.0
 40
6.0
  0
LINE
  8
SIZE
  6
CONTINUOUS
 62
    30
 10
878.35749815468444
 20
263.44767999999749
 30
0.0
 11
878.35749815468444
 21
251.44767999999749
 31
0.0
  0
TEXT
  8
SIZE
  6
CONTINUOUS
 62
    30
 10
853.35749815468444
 20
70.166673142856752
 30
0.0
 40
64.0
  1
238
 50
90.0
 41
0.9
 72
     1
 11
853.35749815468444
 21
144.2238159999996
 31
0.0
  0
POINT
  8
DEFPOINTS
  6
CONTINUOUS
 62
    30
 10
217.52599200000029
 20
24.999952000001599
 30
0.0
  0
POINT
  8
DEFPOINTS
  6
CONTINUOUS
 62
    30
 10
191.098536
 20
263.4476799999976
 30
0.0
  0
POINT
  8
DEFPOINTS
  6
CONTINUOUS
 62
    30
 10
878.35749815468444
 20
263.44767999999749
 30
0.0
  0
LINE
  8
SIZE
  6
CONTINUOUS
 62
    30
 10
211.098536
 20
263.44767999999698
 30
0.0
 11
787.47682987299595
 21
263.44767999999681
 31
0.0
  0
LINE
  8
SIZE
  6
CONTINUOUS
 62
    30
 10
211.1986400000001
 20
268.45287999999692
 30
0.0
 11
787.47682987299595
 21
268.45287999999653
 31
0.0
  0
LINE
  8
SIZE
  6
CONTINUOUS
 62
    30
 10
767.47682987299595
 20
251.44767999999681
 30
0.0
 11
767.47682987299595
 21
239.44767999999681
 31
0.0
  0
LINE
  8
SIZE
  6
CONTINUOUS
 62
    30
 10
767.47682987299595
 20
280.45287999999653
 30
0.0
 11
767.47682987299595
 21
380.85287999999662
 31
0.0
  0
LINE
  8
SIZE
  6
CONTINUOUS
 62
    30
 10
767.47682987299595
 20
263.44767999999681
 30
0.0
 11
767.47682987299595
 21
268.45287999999653
 31
0.0
  0
CIRCLE
  8
SIZE
  6
CONTINUOUS
 62
    30
 10
767.47682987299595
 20
263.44767999999681
 30
0.0
 40
6.0
  0
LINE
  8
SIZE
  6
CONTINUOUS
 62
    30
 10
767.47682987299595
 20
263.44767999999681
 30
0.0
 11
767.47682987299595
 21
251.44767999999681
 31
0.0
  0
CIRCLE
  8
SIZE
  6
CONTINUOUS
 62
    30
 10
767.47682987299595
 20
268.45287999999653
 30
0.0
 40
6.0
  0
LINE
  8
SIZE
  6
CONTINUOUS
 62
    30
 10
767.47682987299595
 20
268.45287999999653
 30
0.0
 11
767.47682987299595
 21
280.45287999999653
 31
0.0
  0
TEXT
  8
SIZE
  6
CONTINUOUS
 62
    30
 10
742.47682987299595
 20
317.45287999999681
 30
0.0
 40
64.0
  1
5
 50
90.0
 41
0.9
 72
     1
 11
742.47682987299595
 21
336.6528799999968
 31
0.0
  0
POINT
  8
DEFPOINTS
  6
CONTINUOUS
 62
    30
 10
191.098536
 20
263.44767999999698
 30
0.0
  0
POINT
  8
DEFPOINTS
  6
CONTINUOUS
 62
    30
 10
191.1986400000001
 20
268.45287999999692
 30
0.0
  0
POINT
  8
DEFPOINTS
  6
CONTINUOUS
 62
    30
 10
767.47682987299595
 20
268.45287999999653
 30
0.0
  0
LINE
  8
SIZE
  6
CONTINUOUS
 62
    30
 10
211.098536
 20
263.44767999999698
 30
0.0
 11
898.35749815468444
 21
263.44767999999681
 31
0.0
  0
LINE
  8
SIZE
  6
CONTINUOUS
 62
    30
 10
33.628136429007547
 20
302.83860399999651
 30
0.0
 11
898.35749815468444
 21
302.83860399999628
 31
0.0
  0
LINE
  8
SIZE
  6
CONTINUOUS
 62
    30
 10
878.35749815468444
 20
251.44767999999681
 30
0.0
 11
878.35749815468444
 21
239.44767999999681
 31
0.0
  0
LINE
  8
SIZE
  6
CONTINUOUS
 62
    30
 10
878.35749815468444
 20
314.83860399999628
 30
0.0
 11
878.35749815468444
 21
467.35288971428258
 31
0.0
  0
LINE
  8
SIZE
  6
CONTINUOUS
 62
    30
 10
878.35749815468444
 20
263.44767999999681
 30
0.0
 11
878.35749815468444
 21
302.83860399999628
 31
0.0
  0
CIRCLE
  8
SIZE
  6
CONTINUOUS
 62
    30
 10
878.35749815468444
 20
263.44767999999681
 30
0.0
 40
6.0
  0
LINE
  8
SIZE
  6
CONTINUOUS
 62
    30
 10
878.35749815468444
 20
263.44767999999681
 30
0.0
 11
878.35749815468444
 21
251.44767999999681
 31
0.0
  0
CIRCLE
  8
SIZE
  6
CONTINUOUS
 62
    30
 10
878.35749815468444
 20
302.83860399999628
 30
0.0
 40
6.0
  0
LINE
  8
SIZE
  6
CONTINUOUS
 62
    30
 10
878.35749815468444
 20
302.83860399999628
 30
0.0
 11
878.35749815468444
 21
314.83860399999628
 31
0.0
  0
TEXT
  8
SIZE
  6
CONTINUOUS
 62
    30
 10
853.35749815468444
 20
351.83860399999668
 30
0.0
 40
64.0
  1
39
 50
90.0
 41
0.9
 72
     1
 11
853.35749815468444
 21
397.0957468571396
 31
0.0
  0
POINT
  8
DEFPOINTS
  6
CONTINUOUS
 62
    30
 10
191.098536
 20
263.44767999999698
 30
0.0
  0
POINT
  8
DEFPOINTS
  6
CONTINUOUS
 62
    30
 10
13.628136429007551
 20
302.83860399999651
 30
0.0
  0
POINT
  8
DEFPOINTS
  6
CONTINUOUS
 62
    30
 10
878.35749815468444
 20
302.83860399999628
 30
0.0
  0
LINE
  8
SIZE
  6
CONTINUOUS
 62
    30
 10
-175.16119503734461
 20
219.30181599999889
 30
0.0
 11
-485.38958467948652
 21
219.30181599999901
 31
0.0
  0
LINE
  8
SIZE
  6
CONTINUOUS
 62
    30
 10
-237.52599200000009
 20
24.999952000001599
 30
0.0
 11
-485.38958467948652
 21
24.999952000001709
 31
0.0
  0
LINE
  8
SIZE
  6
CONTINUOUS
 62
    30
 10
-465.38958467948652
 20
207.30181599999901
 30
0.0
 11
-465.38958467948652
 21
36.999952000001713
 31
0.0
  0
CIRCLE
  8
SIZE
  6
CONTINUOUS
 62
    30
 10
-465.38958467948652
 20
219.30181599999901
 30
0.0
 40
6.0
  0
LINE
  8
SIZE
  6
CONTINUOUS
 62
    30
 10
-465.38958467948652
 20
219.30181599999901
 30
0.0
 11
-465.38958467948652
 21
207.30181599999901
 31
0.0
  0
CIRCLE
  8
SIZE
  6
CONTINUOUS
 62
    30
 10
-465.38958467948652
 20
24.999952000001709
 30
0.0
 40
6.0
  0
LINE
  8
SIZE
  6
CONTINUOUS
 62
    30
 10
-465.38958467948652
 20
24.999952000001709
 30
0.0
 11
-465.38958467948652
 21
36.999952000001713
 31
0.0
  0
TEXT
  8
SIZE
  6
CONTINUOUS
 62
    30
 10
-490.38958467948652
 20
52.208026857142997
 30
0.0
 40
64.0
  1
194
 50
90.0
 41
0.9
 72
     1
 11
-490.38958467948652
 21
122.1508840000001
 31
0.0
  0
POINT
  8
DEFPOINTS
  6
CONTINUOUS
 62
    30
 10
-155.16119503734441
 20
219.30181599999889
 30
0.0
  0
POINT
  8
DEFPOINTS
  6
CONTINUOUS
 62
    30
 10
-217.52599200000009
 20
24.999952000001599
 30
0.0
  0
POINT
  8
DEFPOINTS
  6
CONTINUOUS
 62
    30
 10
-465.38958467948652
 20
24.999952000001709
 30
0.0
  0
LINE
  8
SIZE
  6
CONTINUOUS
 62
    30
 10
-113.0696192765004
 20
187.9692639999989
 30
0.0
 11
-371.41525784335141
 21
187.96926399999921
 31
0.0
  0
LINE
  8
SIZE
  6
CONTINUOUS
 62
    30
 10
-183.08556947521211
 20
109.3876239999987
 30
0.0
 11
-371.41525784335141
 21
109.38762399999879
 31
0.0
  0
LINE
  8
SIZE
  6
CONTINUOUS
 62
    30
 10
-351.41525784335141
 20
199.96926399999921
 30
0.0
 11
-351.41525784335141
 21
211.96926399999921
 31
0.0
  0
LINE
  8
SIZE
  6
CONTINUOUS
 62
    30
 10
-351.41525784335141
 20
97.387623999998709
 30
0.0
 11
-351.41525784335141
 21
85.387623999998709
 31
0.0
  0
LINE
  8
SIZE
  6
CONTINUOUS
 62
    30
 10
-351.41525784335141
 20
187.96926399999921
 30
0.0
 11
-351.41525784335141
 21
109.3876239999987
 31
0.0
  0
CIRCLE
  8
SIZE
  6
CONTINUOUS
 62
    30
 10
-351.41525784335141
 20
187.96926399999921
 30
0.0
 40
6.0
  0
LINE
  8
SIZE
  6
CONTINUOUS
 62
    30
 10
-351.41525784335141
 20
187.96926399999921
 30
0.0
 11
-351.41525784335141
 21
199.96926399999921
 31
0.0
  0
CIRCLE
  8
SIZE
  6
CONTINUOUS
 62
    30
 10
-351.41525784335141
 20
109.3876239999987
 30
0.0
 40
6.0
  0
LINE
  8
SIZE
  6
CONTINUOUS
 62
    30
 10
-351.41525784335141
 20
109.3876239999987
 30
0.0
 11
-351.41525784335141
 21
97.387623999998709
 31
0.0
  0
TEXT
  8
SIZE
  6
CONTINUOUS
 62
    30
 10
-376.41525784335141
 20
103.421301142856
 30
0.0
 40
64.0
  1
79
 50
90.0
 41
0.9
 72
     1
 11
-376.41525784335141
 21
148.6784439999989
 31
0.0
  0
POINT
  8
DEFPOINTS
  6
CONTINUOUS
 62
    30
 10
-93.069619276500362
 20
187.9692639999989
 30
0.0
  0
POINT
  8
DEFPOINTS
  6
CONTINUOUS
 62
    30
 10
-163.0855694752122
 20
109.3876239999987
 30
0.0
  0
POINT
  8
DEFPOINTS
  6
CONTINUOUS
 62
    30
 10
-351.41525784335141
 20
109.3876239999987
 30
0.0
  0
LINE
  8
SIZE
  6
CONTINUOUS
 62
    30
 10
-183.08556947521211
 20
109.3876239999987
 30
0.0
 11
-371.41525784335141
 21
109.38762399999879
 31
0.0
  0
LINE
  8
SIZE
  6
CONTINUOUS
 62
    30
 10
-237.52599200000009
 20
24.999952000001599
 30
0.0
 11
-371.41525784335141
 21
24.999952000001599
 31
0.0
  0
LINE
  8
SIZE
  6
CONTINUOUS
 62
    30
 10
-351.41525784335141
 20
97.387623999998709
 30
0.0
 11
-351.41525784335141
 21
36.999952000001599
 31
0.0
  0
LINE
  8
SIZE
  6
CONTINUOUS
 62
    30
 10
-351.41525784335141
 20
24.999952000001599
 30
0.0
 11
-351.41525784335141
 21
-133.0000479999984
 31
0.0
  0
CIRCLE
  8
SIZE
  6
CONTINUOUS
 62
    30
 10
-351.41525784335141
 20
109.3876239999987
 30
0.0
 40
6.0
  0
LINE
  8
SIZE
  6
CONTINUOUS
 62
    30
 10
-351.41525784335141
 20
109.3876239999987
 30
0.0
 11
-351.41525784335141
 21
97.387623999998709
 31
0.0
  0
CIRCLE
  8
SIZE
  6
CONTINUOUS
 62
    30
 10
-351.41525784335141
 20
24.999952000001599
 30
0.0
 40
6.0
  0
LINE
  8
SIZE
  6
CONTINUOUS
 62
    30
 10
-351.41525784335141
 20
24.999952000001599
 30
0.0
 11
-351.41525784335141
 21
36.999952000001599
 31
0.0
  0
TEXT
  8
SIZE
  6
CONTINUOUS
 62
    30
 10
-376.41525784335141
 20
-108.0000479999984
 30
0.0
 40
64.0
  1
84
 50
90.0
 41
0.9
 72
     1
 11
-376.41525784335141
 21
-60.000047999998401
 31
0.0
  0
POINT
  8
DEFPOINTS
  6
CONTINUOUS
 62
    30
 10
-163.0855694752122
 20
109.3876239999987
 30
0.0
  0
POINT
  8
DEFPOINTS
  6
CONTINUOUS
 62
    30
 10
-217.52599200000009
 20
24.999952000001599
 30
0.0
  0
POINT
  8
DEFPOINTS
  6
CONTINUOUS
 62
    30
 10
-351.41525784335141
 20
24.999952000001599
 30
0.0
  0
LINE
  8
SIZE
  6
CONTINUOUS
 62
    30
 10
422.80241147846249
 20
402.0507849390151
 30
0.0
 11
100.8694150968297
 21
206.66059578830101
 31
0.0
  0
LINE
  8
SIZE
  6
CONTINUOUS
 62
    30
 10
39.276184903170133
 20
169.27793221169699
 30
0.0
 11
29.017757632994059
 21
163.0518042060655
 31
0.0
  0
TEXT
  8
SIZE
  6
CONTINUOUS
 62
    30
 10
245.2864678086292
 20
336.03316152633499
 30
0.0
 40
64.0
  1
φ49
 50
31.254741234314679
 41
0.9
 72
     1
 11
318.44370914108458
 21
380.43434867506699
 31
0.0
  0
LINE
  8
SIZE
  6
CONTINUOUS
 62
    30
 10
49.534612173346197
 20
175.50406021732849
 30
0.0
 11
90.610987826653627
 21
200.43446778266949
 31
0.0
  0
CIRCLE
  8
SIZE
  6
CONTINUOUS
 62
    30
 10
49.534612173346197
 20
175.50406021732849
 30
0.0
 40
6.0
  0
LINE
  8
SIZE
  6
CONTINUOUS
 62
    30
 10
49.534612173346197
 20
175.50406021732849
 30
0.0
 11
39.276184903170133
 21
169.27793221169699
 31
0.0
  0
CIRCLE
  8
SIZE
  6
CONTINUOUS
 62
    30
 10
90.610987826653627
 20
200.43446778266949
 30
0.0
 40
6.0
  0
LINE
  8
SIZE
  6
CONTINUOUS
 62
    30
 10
90.610987826653627
 20
200.43446778266949
 30
0.0
 11
100.8694150968297
 21
206.66059578830101
 31
0.0
  0
POINT
  8
DEFPOINTS
  6
CONTINUOUS
 62
    30
 10
90.610987826653627
 20
200.43446778266949
 30
0.0
  0
POINT
  8
DEFPOINTS
  6
CONTINUOUS
 62
    30
 10
49.534612173346197
 20
175.50406021732849
 30
0.0
  0
TEXT
  8
NOTE
  6
CONTINUOUS
 62
     4
 10
-1009.3859646849839
 20
336.60578968506678
 30
0.0
 40
64.0
  1
野縁ネジ（6ヵ所）
 41
0.9
  0
TEXT
  8
ETC
  6
CONTINUOUS
 62
    61
 10
930.9433748885649
 20
521.96978900576278
 30
0.0
 40
40.0
  1
VL-11ZFH2
 41
0.9
  0
TEXT
  8
ETC
  6
CONTINUOUS
 62
    61
 10
935.76319493308324
 20
449.7114052140837
 30
0.0
 40
40.0
  1
VL-08ZFH2
 41
0.9
  0
TEXT
  8
ETC
  6
CONTINUOUS
 62
    61
 10
938.17309857051168
 20
372.63579201707921
 30
0.0
 40
40.0
  1
VL-08ZF2
 41
0.9
  0
TEXT
  8
ETC
  6
CONTINUOUS
 62
    61
 10
940.58300859277097
 20
295.56017882007359
 30
0.0
 40
40.0
  1
VL-11ZF2
 41
0.9
  0
ENDSEC
  0
EOF
