  0
SECTION
  2
HEADER
  9
$ACADVER
  1
AC1009
  9
$DWGCODEPAGE
  3
dos932
  9
$INSBASE
 10
0.0
 20
0.0
 30
0.0
  9
$EXTMIN
 10
-1321.9436488020531
 20
-650.16173169734247
 30
-0.0015258207003583
  9
$EXTMAX
 10
1540.8325316976191
 20
857.80335305934204
 30
0.0000000349246037
  9
$LIMMIN
 10
-2970.0
 20
-2100.0
  9
$LIMMAX
 10
2970.0
 20
2100.0
  9
$ORTHOMODE
 70
     1
  9
$REGENMODE
 70
     1
  9
$FILLMODE
 70
     1
  9
$QTEXTMODE
 70
     0
  9
$MIRRTEXT
 70
     0
  9
$LTSCALE
 40
20.0
  9
$ATTMODE
 70
     1
  9
$TEXTSIZE
 40
64.0
  9
$TRACEWID
 40
0.05
  9
$TEXTSTYLE
  7
STANDARD
  9
$CLAYER
  8
SIZE
  9
$CELTYPE
  6
CONTINUOUS
  9
$CECOLOR
 62
     7
  9
$DIMSCALE
 40
1.0
  9
$DIMASZ
 40
12.0
  9
$DIMEXO
 40
20.0
  9
$DIMDLI
 40
200.0
  9
$DIMRND
 40
0.0
  9
$DIMDLE
 40
0.0
  9
$DIMEXE
 40
20.0
  9
$DIMTP
 40
0.0
  9
$DIMTM
 40
0.0
  9
$DIMTXT
 40
64.0
  9
$DIMCEN
 40
0.09
  9
$DIMTSZ
 40
0.0
  9
$DIMTOL
 70
     0
  9
$DIMLIM
 70
     0
  9
$DIMTIH
 70
     0
  9
$DIMTOH
 70
     0
  9
$DIMSE1
 70
     0
  9
$DIMSE2
 70
     0
  9
$DIMTAD
 70
     1
  9
$DIMZIN
 70
     8
  9
$DIMBLK
  1

  9
$DIMASO
 70
     1
  9
$DIMSHO
 70
     0
  9
$DIMPOST
  1

  9
$DIMAPOST
  1

  9
$DIMALT
 70
     0
  9
$DIMALTD
 70
     2
  9
$DIMALTF
 40
25.399999999999999
  9
$DIMLFAC
 40
1.0
  9
$DIMTOFL
 70
     1
  9
$DIMTVP
 40
0.0
  9
$DIMTIX
 70
     1
  9
$DIMSOXD
 70
     0
  9
$DIMSAH
 70
     0
  9
$DIMBLK1
  1

  9
$DIMBLK2
  1

  9
$DIMSTYLE
  2
STANDARD
  9
$DIMCLRD
 70
     7
  9
$DIMCLRE
 70
     7
  9
$DIMCLRT
 70
     7
  9
$DIMTFAC
 40
1.0
  9
$DIMGAP
 40
25.0
  9
$LUNITS
 70
     2
  9
$LUPREC
 70
     4
  9
$SKETCHINC
 40
0.1
  9
$FILLETRAD
 40
3.0
  9
$AUNITS
 70
     1
  9
$AUPREC
 70
     3
  9
$MENU
  1
ACAD
  9
$ELEVATION
 40
0.0
  9
$PELEVATION
 40
0.0
  9
$THICKNESS
 40
0.0
  9
$LIMCHECK
 70
     0
  9
$CHAMFERA
 40
0.0
  9
$CHAMFERB
 40
0.0
  9
$SKPOLY
 70
     0
  9
$TDCREATE
 40
2453019.62301037
  9
$TDUPDATE
 40
2459019.505420289
  9
$TDINDWG
 40
1.7137544097
  9
$TDUSRTIMER
 40
1.7137544097
  9
$USRTIMER
 70
     1
  9
$ANGBASE
 50
0.0
  9
$ANGDIR
 70
     0
  9
$PDMODE
 70
     3
  9
$PDSIZE
 40
-2.0
  9
$PLINEWID
 40
0.0
  9
$SPLFRAME
 70
     0
  9
$SPLINETYPE
 70
     6
  9
$SPLINESEGS
 70
     8
  9
$SURFTAB1
 70
     6
  9
$SURFTAB2
 70
     6
  9
$SURFTYPE
 70
     6
  9
$SURFU
 70
     6
  9
$SURFV
 70
     6
  9
$UCSNAME
  2

  9
$UCSORG
 10
0.0
 20
0.0
 30
0.0
  9
$UCSXDIR
 10
1.0
 20
0.0
 30
0.0
  9
$UCSYDIR
 10
0.0
 20
1.0
 30
0.0
  9
$PUCSNAME
  2

  9
$PUCSORG
 10
0.0
 20
0.0
 30
0.0
  9
$PUCSXDIR
 10
1.0
 20
0.0
 30
0.0
  9
$PUCSYDIR
 10
0.0
 20
1.0
 30
0.0
  9
$USERI1
 70
     0
  9
$USERI2
 70
     0
  9
$USERI3
 70
     0
  9
$USERI4
 70
     0
  9
$USERI5
 70
     0
  9
$USERR1
 40
20.0
  9
$USERR2
 40
0.0
  9
$USERR3
 40
0.0
  9
$USERR4
 40
0.0
  9
$USERR5
 40
0.0
  9
$WORLDVIEW
 70
     1
  9
$SHADEDGE
 70
     3
  9
$SHADEDIF
 70
    70
  9
$TILEMODE
 70
     1
  9
$MAXACTVP
 70
    48
  9
$PINSBASE
 10
0.0
 20
0.0
 30
0.0
  9
$PLIMCHECK
 70
     0
  9
$PEXTMIN
 10
-100000000000000000000.0
 20
-100000000000000000000.0
 30
-100000000000000000000.0
  9
$PEXTMAX
 10
100000000000000000000.0
 20
100000000000000000000.0
 30
100000000000000000000.0
  9
$PLIMMIN
 10
0.0
 20
0.0
  9
$PLIMMAX
 10
12.0
 20
9.0
  9
$UNITMODE
 70
     0
  9
$VISRETAIN
 70
     0
  9
$PLINEGEN
 70
     0
  9
$PSLTSCALE
 70
     0
  9
$TREEDEPTH
 70
  3020
  9
$ATTDIA
 70
     0
  9
$ATTREQ
 70
     1
  9
$BLIPMODE
 70
     1
  9
$COORDS
 70
     1
  9
$DRAGMODE
 70
     2
  9
$OSMODE
 70
     0
  9
$HANDLING
 70
     0
  9
$HANDSEED
  5
10A38
  0
ENDSEC
  0
SECTION
  2
TABLES
  0
TABLE
  2
LTYPE
 70
     2
  0
LTYPE
  2
CONTINUOUS
 70
     0
  3
実線
 72
    65
 73
     0
 40
0.0
  0
LTYPE
  2
DASHDOT
 70
     0
  3
____ _ ____ _ ____ _ ____ _ ____ _ ____ _ ____
 72
    65
 73
     4
 40
5.5
 49
4.0
 49
-0.6
 49
0.3
 49
-0.6
  0
ENDTAB
  0
TABLE
  2
LAYER
 70
    12
  0
LAYER
  2
0
 70
     0
 62
     7
  6
CONTINUOUS
  0
LAYER
  2
BASIS
 70
     0
 62
     6
  6
DASHDOT
  0
LAYER
  2
OUTLINE
 70
     0
 62
     3
  6
CONTINUOUS
  0
LAYER
  2
DETAIL
 70
     0
 62
     5
  6
CONTINUOUS
  0
LAYER
  2
SIZE
 70
     0
 62
    30
  6
CONTINUOUS
  0
LAYER
  2
ARRANGE
 70
     0
 62
     1
  6
CONTINUOUS
  0
LAYER
  2
DEFPOINTS
 70
     0
 62
     7
  6
CONTINUOUS
  0
LAYER
  2
ETC
 70
     0
 62
    61
  6
CONTINUOUS
  0
LAYER
  2
FIX
 70
     0
 62
    11
  6
CONTINUOUS
  0
LAYER
  2
NOTE
 70
     0
 62
     4
  6
CONTINUOUS
  0
LAYER
  2
SERVICESPACE
 70
    64
 62
     2
  6
DASHDOT
  0
LAYER
  2
SYMBOLLINE
 70
    64
 62
    15
  6
CONTINUOUS
  0
ENDTAB
  0
TABLE
  2
STYLE
 70
     1
  0
STYLE
  2
STANDARD
 70
     0
 40
64.0
 41
0.9
 50
0.0
 71
     0
 42
64.0
  3
SIMPLEX.shx
  4
BIGFONT.shx
  0
ENDTAB
  0
TABLE
  2
APPID
 70
    19
  0
APPID
  2
ACAD
 70
     0
  0
APPID
  2
AUTOCAD_POSTSCRIPT_FIGURE
 70
     0
  0
APPID
  2
ACAD_EXEMPT_FROM_CAD_STANDARDS
 70
     0
  0
APPID
  2
ACAD_PSEXT
 70
     0
  0
APPID
  2
ACAUTHENVIRON
 70
     0
  0
APPID
  2
GENIUS_GENOENT_13
 70
     0
  0
APPID
  2
GENIUS_GENCFG_13
 70
     0
  0
APPID
  2
GENIUS_GENCFG0_13
 70
     0
  0
APPID
  2
GENIUS_GENCFG1_13
 70
     0
  0
APPID
  2
GENIUS_GENCFG2_13
 70
     0
  0
APPID
  2
GENIUS_GENCFG3_13
 70
     0
  0
APPID
  2
GENIUS_GENCFG4_13
 70
     0
  0
APPID
  2
GENIUS_GEVCFG0_13
 70
     0
  0
APPID
  2
CONTENTBLOCKICON
 70
     0
  0
APPID
  2
CONTENTBLOCKDESCRIPTION
 70
     0
  0
APPID
  2
ACAD_NAV_VCDISPLAY
 70
     0
  0
APPID
  2
ACAD_MLEADERVER
 70
     0
  0
APPID
  2
ACDBDYNAMICBLOCKTRUENAME
 70
     0
  0
APPID
  2
ACDBDYNAMICBLOCKGUID
 70
     0
  0
ENDTAB
  0
TABLE
  2
DIMSTYLE
 70
     1
  0
DIMSTYLE
  2
STANDARD
 70
     0
  3

  4

  5
_ORIGIN
  6

  7

 40
1.0
 41
12.0
 42
20.0
 43
200.0
 44
20.0
 45
0.0
 46
0.0
 47
0.0
 48
0.0
140
64.0
141
0.09
142
0.0
143
25.399999999999999
144
1.0
145
0.0
146
1.0
147
25.0
 71
     0
 72
     0
 73
     0
 74
     0
 75
     0
 76
     0
 77
     1
 78
     8
170
     0
171
     2
172
     1
173
     0
174
     1
175
     0
176
     7
177
     7
178
     7
  0
ENDTAB
  0
TABLE
  2
VIEW
 70
     1
  0
VIEW
  2
ALL
 70
     0
 40
4282.6198079999986
 10
0.0
 20
41.309904000000003
 41
5940.0
 11
0.0
 21
0.0
 31
1.0
 12
0.0
 22
0.0
 32
0.0
 42
50.0
 43
0.0
 44
0.0
 50
0.0
 71
     0
  0
ENDTAB
  0
TABLE
  2
UCS
 70
     0
  0
ENDTAB
  0
TABLE
  2
VPORT
 70
     1
  0
VPORT
  2
*ACTIVE
 70
     0
 10
0.0
 20
0.0
 11
1.0
 21
1.0
 12
109.44444144778301
 22
103.8208106809998
 13
0.0
 23
0.0
 14
1.0
 24
1.0
 15
0.0
 25
0.0
 16
0.0
 26
0.0
 36
1.0
 17
0.0
 27
0.0
 37
0.0
 40
1644.155990408977
 41
1.747787610619469
 42
50.0
 43
0.0
 44
0.0
 50
0.0
 51
0.0
 71
     0
 72
  1000
 73
     1
 74
     3
 75
     0
 76
     0
 77
     0
 78
     0
  0
ENDTAB
  0
ENDSEC
  0
SECTION
  2
BLOCKS
  0
BLOCK
  8
0
  2
_ORIGIN
 70
     0
 10
0.0
 20
0.0
 30
0.0
  3
_ORIGIN
  1
_ORIGIN
  0
CIRCLE
  8
0
  6
CONTINUOUS
 62
     7
 10
0.0
 20
0.0
 30
0.0
 40
0.5
  0
LINE
  8
0
  6
CONTINUOUS
 62
     7
 10
0.0
 20
0.0
 30
0.0
 11
-1.0
 21
0.0
 31
0.0
  0
ENDBLK
  8
0
  0
ENDSEC
  0
SECTION
  2
ENTITIES
  0
TEXT
  8
ETC
  6
CONTINUOUS
 62
    61
 10
956.16553538312291
 20
793.60490568161458
 30
0.0
 40
64.0
  1
VL-11ZFHV2_5
 41
0.9
  0
TEXT
  8
ETC
  6
CONTINUOUS
 62
    61
 10
973.55367574656793
 20
675.64959566678363
 30
0.0
 40
64.0
  1
換気扇
 41
0.9
  0
TEXT
  8
ETC
  6
CONTINUOUS
 62
    61
 10
1031.4464556764431
 20
563.90706318607863
 30
0.0
 40
40.0
  1
VL-11ZFHV2
 41
0.9
  0
LINE
  8
DETAIL
  6
CONTINUOUS
 62
     5
 10
461.71180775475108
 20
211.71368327331831
 30
0.0
 11
461.71180775475108
 21
163.73611963018331
 31
0.0
  0
LINE
  8
DETAIL
  6
CONTINUOUS
 62
     5
 10
461.71180775475108
 20
133.25005483700059
 30
0.0
 11
461.71180775475108
 21
85.272208277000232
 31
0.0
  0
LINE
  8
DETAIL
  6
CONTINUOUS
 62
     5
 10
461.21210641640027
 20
212.22183080219881
 30
0.0
 11
461.21210641640027
 21
163.22797210180269
 31
0.0
  0
LINE
  8
DETAIL
  6
CONTINUOUS
 62
     5
 10
461.21210640090612
 20
133.758060907198
 30
0.0
 11
461.21210640090612
 21
84.764202206301547
 31
0.0
  0
LINE
  8
DETAIL
  6
CONTINUOUS
 62
     5
 10
426.22819206975151
 20
73.873505176600361
 30
0.0
 11
426.22819206975151
 21
144.64875793939859
 31
0.0
  0
LINE
  8
DETAIL
  6
CONTINUOUS
 62
     5
 10
461.71180342724978
 20
211.7138204839616
 30
0.0
 11
461.21210199094281
 21
212.22182645520519
 31
0.0
  0
LINE
  8
DETAIL
  6
CONTINUOUS
 62
     5
 10
416.23280736975153
 20
157.2389781170001
 30
0.0
 11
416.23280736975153
 21
218.21082478700069
 31
0.0
  0
LINE
  8
DETAIL
  6
CONTINUOUS
 62
     5
 10
414.23373042975072
 20
71.769765147559724
 30
0.0
 11
414.23373042975072
 21
89.723096962007389
 31
0.0
  0
LINE
  8
DETAIL
  6
CONTINUOUS
 62
     5
 10
414.23373042975072
 20
89.723096962007389
 30
0.0
 11
414.23373042975072
 21
146.75249865762149
 31
0.0
  0
LINE
  8
DETAIL
  6
CONTINUOUS
 62
     5
 10
414.23373042975072
 20
150.23354786763841
 30
0.0
 11
414.23373042975072
 21
257.20148607636168
 31
0.0
  0
LINE
  8
DETAIL
  6
CONTINUOUS
 62
     5
 10
383.24803785975018
 20
230.71374035690189
 30
0.0
 11
383.24803785975018
 21
209.2721955575804
 31
0.0
  0
LINE
  8
DETAIL
  6
CONTINUOUS
 62
     5
 10
383.24803785975018
 20
209.2721955575804
 30
0.0
 11
383.24803785975018
 21
152.38203695725011
 31
0.0
  0
LINE
  8
DETAIL
  6
CONTINUOUS
 62
     5
 10
383.24803785975018
 20
159.87857548224989
 30
0.0
 11
383.24803785975018
 21
89.723096962007389
 31
0.0
  0
LINE
  8
DETAIL
  6
CONTINUOUS
 62
     5
 10
383.24803785975018
 20
89.723096962007389
 30
0.0
 11
383.24803785975018
 21
66.272300019195995
 31
0.0
  0
LINE
  8
DETAIL
  6
CONTINUOUS
 62
     5
 10
378.99999936224958
 20
25.799669311999988
 30
0.0
 11
378.99999936224958
 21
25.00003853600003
 31
0.0
  0
LINE
  8
DETAIL
  6
CONTINUOUS
 62
     5
 10
378.99999936224958
 20
25.799669311999988
 30
0.0
 11
378.99999936224958
 21
263.09010209000053
 31
0.0
  0
LINE
  8
DETAIL
  6
CONTINUOUS
 62
     5
 10
461.71180343174638
 20
133.25005058446331
 30
0.0
 11
461.21210198644621
 21
133.75805656470371
 31
0.0
  0
LINE
  8
DETAIL
  6
CONTINUOUS
 62
     5
 10
461.71180343174638
 20
85.272212529536432
 30
0.0
 11
461.21210198644621
 21
84.764206548797688
 31
0.0
  0
LINE
  8
DETAIL
  6
CONTINUOUS
 62
     5
 10
461.71180342724978
 20
163.7359824195388
 30
0.0
 11
461.21210199094281
 21
163.22797644829421
 31
0.0
  0
LINE
  8
DETAIL
  6
CONTINUOUS
 62
     5
 10
239.81426741475121
 20
187.8248552990004
 30
0.0
 11
239.81426741475121
 21
209.6147939450008
 31
0.0
  0
LINE
  8
DETAIL
  6
CONTINUOUS
 62
     5
 10
220.32326724975059
 20
187.8248552990004
 30
0.0
 11
220.32326724975059
 21
194.2219015070001
 31
0.0
  0
LINE
  8
DETAIL
  6
CONTINUOUS
 62
     5
 10
209.3283440797513
 20
187.8248552990004
 30
0.0
 11
209.3283440797513
 21
194.2219015070001
 31
0.0
  0
LINE
  8
DETAIL
  6
CONTINUOUS
 62
     5
 10
189.83734391475079
 20
187.8248552990004
 30
0.0
 11
189.83734391475079
 21
209.6147939450008
 31
0.0
  0
LINE
  8
DETAIL
  6
CONTINUOUS
 62
     5
 10
55.399419699750069
 20
-8.9958462299996427
 30
0.0
 11
-399.3905841502492
 21
-8.9958462299996427
 31
0.0
  0
LINE
  8
DETAIL
  6
CONTINUOUS
 62
     5
 10
55.399419699750069
 20
0.0
 30
0.0
 11
55.399419699750069
 21
-8.9958462299996427
 31
0.0
  0
LINE
  8
DETAIL
  6
CONTINUOUS
 62
     5
 10
-402.38919956024978
 20
81.17482806807368
 30
0.0
 11
-431.77563057824932
 21
84.273461746327143
 31
0.0
  0
LINE
  8
DETAIL
  6
CONTINUOUS
 62
     5
 10
55.399419699750069
 20
0.0
 30
0.0
 11
-399.3905841502492
 21
-0.0000000000003411
 31
0.0
  0
LINE
  8
DETAIL
  6
CONTINUOUS
 62
     5
 10
-378.06079251503968
 20
3.4983846449999869
 30
0.0
 11
-382.05285103702948
 21
3.4983846449999869
 31
0.0
  0
LINE
  8
DETAIL
  6
CONTINUOUS
 62
     5
 10
-175.42628962825069
 20
22.201330820000411
 30
0.0
 11
-168.5648748222502
 21
22.201330820000411
 31
0.0
  0
LINE
  8
DETAIL
  6
CONTINUOUS
 62
     5
 10
378.99999936224958
 20
25.00003853600003
 30
0.0
 11
-378.99999936224958
 21
25.00003853600003
 31
0.0
  0
LINE
  8
DETAIL
  6
CONTINUOUS
 62
     5
 10
378.99999936224958
 20
25.799669311999988
 30
0.0
 11
-378.99999936224958
 21
25.799669311999988
 31
0.0
  0
LINE
  8
DETAIL
  6
CONTINUOUS
 62
     5
 10
-378.99999936224958
 20
33.696023224999983
 30
0.0
 11
-382.17497079807077
 21
33.696023224999983
 31
0.0
  0
LINE
  8
DETAIL
  6
CONTINUOUS
 62
     5
 10
-377.40073781024881
 20
34.995423236000192
 30
0.0
 11
-378.99999936224958
 21
34.995423236000192
 31
0.0
  0
LINE
  8
DETAIL
  6
CONTINUOUS
 62
     5
 10
377.40073781025058
 20
39.993115586000037
 30
0.0
 11
378.99999936224958
 21
39.993115586000037
 31
0.0
  0
LINE
  8
DETAIL
  6
CONTINUOUS
 62
     5
 10
34.109763758660847
 20
25.00003853600003
 30
0.0
 11
34.033002766018399
 21
0.0
 31
0.0
  0
LINE
  8
DETAIL
  6
CONTINUOUS
 62
     5
 10
22.26471941924865
 20
263.09010209000053
 30
0.0
 11
22.26471941924865
 21
268.08779444000038
 31
0.0
  0
LINE
  8
DETAIL
  6
CONTINUOUS
 62
     5
 10
-431.77563057824932
 20
84.273461746327143
 30
0.0
 11
-440.7720857000968
 21
84.58762488166451
 31
0.0
  0
LINE
  8
DETAIL
  6
CONTINUOUS
 62
     5
 10
-379.38236973436523
 20
63.399609223873647
 30
0.0
 11
-401.39838359819259
 21
63.591740065781437
 31
0.0
  0
LINE
  8
DETAIL
  6
CONTINUOUS
 62
     5
 10
378.99999936224958
 20
65.244366806273888
 30
0.0
 11
382.25722189769289
 21
65.272792157063691
 31
0.0
  0
LINE
  8
DETAIL
  6
CONTINUOUS
 62
     5
 10
384.23885382180919
 20
70.51713913948754
 30
0.0
 11
413.24291446769172
 21
70.770253742063346
 31
0.0
  0
LINE
  8
DETAIL
  6
CONTINUOUS
 62
     5
 10
414.23373042975072
 20
72.777977402000602
 30
0.0
 11
425.23737610769223
 21
72.874004763028665
 31
0.0
  0
LINE
  8
DETAIL
  6
CONTINUOUS
 62
     5
 10
461.21210640090612
 20
84.764202206301547
 30
0.0
 11
426.22819206975151
 21
84.187544277626898
 31
0.0
  0
LINE
  8
DETAIL
  6
CONTINUOUS
 62
     5
 10
-143.98201931486261
 20
301.72226403446302
 30
0.0
 11
-143.95316518405889
 21
301.67228721841428
 31
0.0
  0
LINE
  8
DETAIL
  6
CONTINUOUS
 62
     5
 10
-136.8118280812505
 20
273.9530353979095
 30
0.0
 11
-137.31159731624939
 21
274.81866110470457
 31
0.0
  0
LINE
  8
DETAIL
  6
CONTINUOUS
 62
     5
 10
-384.40622960819201
 20
88.931682769373424
 30
0.0
 11
-378.99999936224958
 21
88.884503313162554
 31
0.0
  0
LINE
  8
DETAIL
  6
CONTINUOUS
 62
     5
 10
-384.40622960819201
 20
108.8001801681272
 30
0.0
 11
-378.99999936224958
 21
108.8473596248374
 31
0.0
  0
LINE
  8
DETAIL
  6
CONTINUOUS
 62
     5
 10
461.21210640090612
 20
133.758060907198
 30
0.0
 11
426.22819206975151
 21
134.33471883587359
 31
0.0
  0
LINE
  8
DETAIL
  6
CONTINUOUS
 62
     5
 10
414.23373042975072
 20
145.74428571200019
 30
0.0
 11
425.23737610769223
 21
145.64825835097199
 31
0.0
  0
LINE
  8
DETAIL
  6
CONTINUOUS
 62
     5
 10
384.23885382180919
 20
148.00512397451419
 30
0.0
 11
413.24291446769172
 21
147.75200937193651
 31
0.0
  0
LINE
  8
DETAIL
  6
CONTINUOUS
 62
     5
 10
378.99999936224958
 20
153.27789630722759
 30
0.0
 11
382.25722189769289
 21
153.2494709569369
 31
0.0
  0
LINE
  8
DETAIL
  6
CONTINUOUS
 62
     5
 10
384.23885382180919
 20
148.9809090344867
 30
0.0
 11
413.24291446769172
 21
149.2340236370633
 31
0.0
  0
LINE
  8
DETAIL
  6
CONTINUOUS
 62
     5
 10
416.23280736975153
 20
157.2389781170001
 30
0.0
 11
414.23373042975072
 21
157.2389781170001
 31
0.0
  0
LINE
  8
DETAIL
  6
CONTINUOUS
 62
     5
 10
461.21210641040079
 20
163.2279721013025
 30
0.0
 11
416.23280736975153
 21
162.48655508450031
 31
0.0
  0
LINE
  8
DETAIL
  6
CONTINUOUS
 62
     5
 10
-293.93927556524801
 20
184.8262398890007
 30
0.0
 11
-280.44550622024872
 21
184.8262398890007
 31
0.0
  0
LINE
  8
DETAIL
  6
CONTINUOUS
 62
     5
 10
-263.45335223024807
 20
184.8262398890007
 30
0.0
 11
-249.95958288524889
 21
184.8262398890007
 31
0.0
  0
LINE
  8
DETAIL
  6
CONTINUOUS
 62
     5
 10
192.83595932474961
 20
184.8262398890007
 30
0.0
 11
206.32972866975069
 21
184.8262398890007
 31
0.0
  0
LINE
  8
DETAIL
  6
CONTINUOUS
 62
     5
 10
223.32188265974949
 20
184.8262398890007
 30
0.0
 11
236.81565200475049
 21
184.8262398890007
 31
0.0
  0
LINE
  8
DETAIL
  6
CONTINUOUS
 62
     5
 10
-277.4468908102499
 20
192.62263995500021
 30
0.0
 11
-266.45196764024882
 21
192.62263995500021
 31
0.0
  0
LINE
  8
DETAIL
  6
CONTINUOUS
 62
     5
 10
209.3283440797513
 20
192.62263995500021
 30
0.0
 11
220.32326724975059
 21
192.62263995500021
 31
0.0
  0
LINE
  8
DETAIL
  6
CONTINUOUS
 62
     5
 10
239.81426741475121
 20
194.2219015070001
 30
0.0
 11
189.83734391475079
 21
194.2219015070001
 31
0.0
  0
LINE
  8
DETAIL
  6
CONTINUOUS
 62
     5
 10
-246.9609674752501
 20
194.2219015070001
 30
0.0
 11
-296.93789097525041
 21
194.2219015070001
 31
0.0
  0
LINE
  8
DETAIL
  6
CONTINUOUS
 62
     5
 10
236.81565200475049
 20
212.6134093550005
 30
0.0
 11
192.83595932474961
 21
212.6134093550005
 31
0.0
  0
LINE
  8
DETAIL
  6
CONTINUOUS
 62
     5
 10
-249.95958288524889
 20
212.6134093550005
 30
0.0
 11
-293.93927556524801
 21
212.6134093550005
 31
0.0
  0
LINE
  8
DETAIL
  6
CONTINUOUS
 62
     5
 10
416.23280736975153
 20
218.21082478700069
 30
0.0
 11
414.23373042975072
 21
218.21082478700069
 31
0.0
  0
LINE
  8
DETAIL
  6
CONTINUOUS
 62
     5
 10
-136.8118280812505
 20
273.9530353979095
 30
0.0
 11
-136.8118280812505
 21
268.08779444000038
 31
0.0
  0
LINE
  8
DETAIL
  6
CONTINUOUS
 62
     5
 10
-137.31159731624939
 20
295.92494082950037
 30
0.0
 11
-137.31159731624939
 21
274.81866110470457
 31
0.0
  0
LINE
  8
DETAIL
  6
CONTINUOUS
 62
     5
 10
-158.0020436452487
 20
25.00003853600003
 30
0.0
 11
-158.0020436452487
 21
0.0
 31
0.0
  0
LINE
  8
DETAIL
  6
CONTINUOUS
 62
     5
 10
-144.349518611094
 20
0.0
 30
0.0
 11
-144.4262796037365
 21
25.00003853600003
 31
0.0
  0
LINE
  8
DETAIL
  6
CONTINUOUS
 62
     5
 10
461.21210641040079
 20
212.22183080219881
 30
0.0
 11
416.23280736975153
 21
212.96324781950051
 31
0.0
  0
LINE
  8
DETAIL
  6
CONTINUOUS
 62
     5
 10
384.23885382180919
 20
226.46889386951321
 30
0.0
 11
413.24291446769172
 21
226.21577926693649
 31
0.0
  0
LINE
  8
DETAIL
  6
CONTINUOUS
 62
     5
 10
378.99999936224958
 20
231.74166620222749
 30
0.0
 11
382.25722189769289
 21
231.71324085193609
 31
0.0
  0
LINE
  8
DETAIL
  6
CONTINUOUS
 62
     5
 10
-199.6416458399033
 20
0.0
 30
0.0
 11
-199.5648848472629
 21
25.00003853600003
 31
0.0
  0
LINE
  8
DETAIL
  6
CONTINUOUS
 62
     5
 10
-185.9891208052486
 20
25.00003853600003
 30
0.0
 11
-185.9891208052486
 21
0.0
 31
0.0
  0
LINE
  8
DETAIL
  6
CONTINUOUS
 62
     5
 10
378.99999936224958
 20
258.49984369967729
 30
0.0
 11
413.24291446769172
 21
258.20101030693661
 31
0.0
  0
LINE
  8
DETAIL
  6
CONTINUOUS
 62
     5
 10
378.99999936224958
 20
263.09010209000053
 30
0.0
 11
22.26471941924865
 21
263.09010209000053
 31
0.0
  0
LINE
  8
DETAIL
  6
CONTINUOUS
 62
     5
 10
22.26471941924865
 20
263.09010209000053
 30
0.0
 11
-377.85053012175001
 21
263.09010209000053
 31
0.0
  0
LINE
  8
DETAIL
  6
CONTINUOUS
 62
     5
 10
-377.85053012175001
 20
263.09010209000053
 30
0.0
 11
-378.99999936224958
 21
263.09010209000053
 31
0.0
  0
LINE
  8
DETAIL
  6
CONTINUOUS
 62
     5
 10
22.26471941924865
 20
268.08779444000038
 30
0.0
 11
-377.85053012175001
 21
268.08779444000038
 31
0.0
  0
LINE
  8
DETAIL
  6
CONTINUOUS
 62
     5
 10
-218.77398262125101
 20
273.9530353979095
 30
0.0
 11
-149.3226253018529
 21
273.9530353979095
 31
0.0
  0
LINE
  8
DETAIL
  6
CONTINUOUS
 62
     5
 10
-149.3226253018529
 20
273.9530353979095
 30
0.0
 11
-136.8118280812505
 21
273.9530353979095
 31
0.0
  0
LINE
  8
DETAIL
  6
CONTINUOUS
 62
     5
 10
-137.31159731624939
 20
274.81866110470457
 30
0.0
 11
-149.62568397010361
 21
274.81866110470457
 31
0.0
  0
LINE
  8
DETAIL
  6
CONTINUOUS
 62
     5
 10
-149.62568397010361
 20
274.81866110470457
 30
0.0
 11
-218.27421338624839
 21
274.81866110470457
 31
0.0
  0
LINE
  8
DETAIL
  6
CONTINUOUS
 62
     5
 10
-378.99999936224958
 20
257.27882241983809
 30
0.0
 11
-410.79404521619108
 21
257.00135998520511
 31
0.0
  0
LINE
  8
DETAIL
  6
CONTINUOUS
 62
     5
 10
-218.27421338624839
 20
295.92494082950037
 30
0.0
 11
-218.27421338624839
 21
274.81866110470457
 31
0.0
  0
LINE
  8
DETAIL
  6
CONTINUOUS
 62
     5
 10
-218.77398262125101
 20
273.9530353979095
 30
0.0
 11
-218.77398262125101
 21
268.08779444000038
 31
0.0
  0
LINE
  8
DETAIL
  6
CONTINUOUS
 62
     5
 10
-212.77664283756349
 20
301.4224024145002
 30
0.0
 11
-142.8091678649362
 21
301.4224024145002
 31
0.0
  0
LINE
  8
DETAIL
  6
CONTINUOUS
 62
     5
 10
-145.1939919393553
 20
302.42194088450071
 30
0.0
 11
-210.39181876314251
 21
302.42194088450071
 31
0.0
  0
LINE
  8
DETAIL
  6
CONTINUOUS
 62
     5
 10
-412.66857243166851
 20
251.19244849755131
 30
0.0
 11
-440.88730402532929
 21
247.9002631449498
 31
0.0
  0
LINE
  8
DETAIL
  6
CONTINUOUS
 62
     5
 10
-246.9609674752501
 20
187.8248552990004
 30
0.0
 11
-246.9609674752501
 21
209.6147939450008
 31
0.0
  0
LINE
  8
DETAIL
  6
CONTINUOUS
 62
     5
 10
-266.45196764024882
 20
187.8248552990004
 30
0.0
 11
-266.45196764024882
 21
194.2219015070001
 31
0.0
  0
LINE
  8
DETAIL
  6
CONTINUOUS
 62
     5
 10
-277.4468908102499
 20
187.8248552990004
 30
0.0
 11
-277.4468908102499
 21
194.2219015070001
 31
0.0
  0
LINE
  8
DETAIL
  6
CONTINUOUS
 62
     5
 10
-296.93789097525041
 20
187.8248552990004
 30
0.0
 11
-296.93789097525041
 21
209.6147939450008
 31
0.0
  0
LINE
  8
DETAIL
  6
CONTINUOUS
 62
     5
 10
-218.77398262125101
 20
273.9530353979095
 30
0.0
 11
-218.27421338624839
 21
274.81866110470457
 31
0.0
  0
LINE
  8
DETAIL
  6
CONTINUOUS
 62
     5
 10
-211.6037913876371
 20
301.72226403446302
 30
0.0
 11
-211.63264551844259
 21
301.67228721841428
 31
0.0
  0
LINE
  8
DETAIL
  6
CONTINUOUS
 62
     5
 10
-440.7720857000968
 20
84.58762488166451
 30
0.0
 11
-441.77101527824931
 21
85.622046741500185
 31
0.0
  0
LINE
  8
DETAIL
  6
CONTINUOUS
 62
     5
 10
-377.85053012175001
 20
263.09010209000053
 30
0.0
 11
-377.85053012175001
 21
268.08779444000038
 31
0.0
  0
LINE
  8
DETAIL
  6
CONTINUOUS
 62
     5
 10
-378.99999936224958
 20
25.799669311999988
 30
0.0
 11
-378.99999936224958
 21
25.00003853600003
 31
0.0
  0
LINE
  8
DETAIL
  6
CONTINUOUS
 62
     5
 10
-378.99999936224958
 20
25.799669311999988
 30
0.0
 11
-378.99999936224958
 21
263.09010209000053
 31
0.0
  0
LINE
  8
DETAIL
  6
CONTINUOUS
 62
     5
 10
-385.39704557024919
 20
107.8006797575532
 30
0.0
 11
-385.39704557024919
 21
89.931183180446737
 31
0.0
  0
LINE
  8
DETAIL
  6
CONTINUOUS
 62
     5
 10
-399.3905841502492
 20
-8.9958462299996427
 30
0.0
 11
-399.3905841502492
 21
-0.0000000000003411
 31
0.0
  0
LINE
  8
DETAIL
  6
CONTINUOUS
 62
     5
 10
-402.38919956024978
 20
201.40883659564449
 30
0.0
 11
-402.38919956024978
 21
64.591240478353598
 31
0.0
  0
LINE
  8
DETAIL
  6
CONTINUOUS
 62
     5
 10
-382.17497079807077
 20
33.696023224999983
 30
0.0
 11
-382.05285103702948
 21
3.4983846449999869
 31
0.0
  0
LINE
  8
DETAIL
  6
CONTINUOUS
 62
     5
 10
-377.99972798416479
 20
-0.0000000000003411
 30
0.0
 11
-378.06079251503968
 21
3.4983846449999869
 31
0.0
  0
LINE
  8
DETAIL
  6
CONTINUOUS
 62
     5
 10
-411.78486117824991
 20
256.00185957463111
 30
0.0
 11
-411.78486117824991
 21
183.834529392512
 31
0.0
  0
LINE
  8
DETAIL
  6
CONTINUOUS
 62
     5
 10
-431.77563057824932
 20
181.72661532567301
 30
0.0
 11
-431.77563057824932
 21
84.273461746327143
 31
0.0
  0
LINE
  8
DETAIL
  6
CONTINUOUS
 62
     5
 10
-440.77208570009691
 20
181.41245219033539
 30
0.0
 11
-440.7720857000968
 21
84.58762488166451
 31
0.0
  0
LINE
  8
DETAIL
  6
CONTINUOUS
 62
     5
 10
-441.77101527824931
 20
246.90745842668619
 30
0.0
 11
-441.77101527824931
 21
85.622046741500185
 31
0.0
  0
ARC
  8
DETAIL
  6
CONTINUOUS
 62
     5
 10
413.2341919597493
 20
150.23352404763659
 30
0.0
 40
0.9995384699999398
 50
270.49999999996538
 51
0.0
  0
ARC
  8
DETAIL
  6
CONTINUOUS
 62
     5
 10
384.24757632975161
 20
147.9814086234135
 30
0.0
 40
0.9995384699999398
 50
90.500000000069718
 51
180.0
  0
ARC
  8
DETAIL
  6
CONTINUOUS
 62
     5
 10
425.22865359974998
 20
73.873505173601757
 30
0.0
 40
0.9995384699999398
 50
270.49999999996538
 51
0.0
  0
ARC
  8
DETAIL
  6
CONTINUOUS
 62
     5
 10
425.22865359974998
 20
144.64875794039901
 30
0.0
 40
0.9995384700001798
 50
0.0
 51
89.500000000034504
  0
ARC
  8
DETAIL
  6
CONTINUOUS
 62
     5
 10
413.2341919597493
 20
71.769754152637347
 30
0.0
 40
0.9995384699999398
 50
270.49999999996538
 51
0.0
  0
ARC
  8
DETAIL
  6
CONTINUOUS
 62
     5
 10
413.2341919597493
 20
146.75250896136319
 30
0.0
 40
0.9995384700001698
 50
0.0
 51
89.500000000034504
  0
ARC
  8
DETAIL
  6
CONTINUOUS
 62
     5
 10
384.24757632975161
 20
149.00462438508731
 30
0.0
 40
0.9995384700001798
 50
180.0
 51
269.49999999993031
  0
ARC
  8
DETAIL
  6
CONTINUOUS
 62
     5
 10
384.24757632975161
 20
69.517638728413317
 30
0.0
 40
0.9995384699999398
 50
90.500000000069718
 51
180.0
  0
ARC
  8
DETAIL
  6
CONTINUOUS
 62
     5
 10
382.24849938975058
 20
66.272292567637692
 30
0.0
 40
0.9995384700002296
 50
270.49999999996538
 51
0.0
  0
ARC
  8
DETAIL
  6
CONTINUOUS
 62
     5
 10
382.24849938975058
 20
152.2499705463639
 30
0.0
 40
0.9995384700001798
 50
0.0
 51
89.500000000034504
  0
ARC
  8
DETAIL
  6
CONTINUOUS
 62
     5
 10
413.2341919597493
 20
257.20150989636358
 30
0.0
 40
0.9995384700001698
 50
0.0
 51
89.500000000034504
  0
ARC
  8
DETAIL
  6
CONTINUOUS
 62
     5
 10
413.2341919597493
 20
225.2162788563634
 30
0.0
 40
0.9995384700001698
 50
0.0
 51
89.500000000034504
  0
ARC
  8
DETAIL
  6
CONTINUOUS
 62
     5
 10
384.24757632975161
 20
227.46839428008639
 30
0.0
 40
0.9995384700001798
 50
180.0
 51
269.49999999993031
  0
ARC
  8
DETAIL
  6
CONTINUOUS
 62
     5
 10
382.24849938975058
 20
230.71374044136309
 30
0.0
 40
0.9995384700001798
 50
0.0
 51
89.500000000034504
  0
ARC
  8
DETAIL
  6
CONTINUOUS
 62
     5
 10
236.81565200475049
 20
209.6147939450008
 30
0.0
 40
2.99861540999997
 50
0.0
 51
90.0
  0
ARC
  8
DETAIL
  6
CONTINUOUS
 62
     5
 10
192.83595932474961
 20
209.6147939450008
 30
0.0
 40
2.998615410000109
 50
90.0
 51
180.0
  0
ARC
  8
DETAIL
  6
CONTINUOUS
 62
     5
 10
206.32972866975069
 20
187.8248552990004
 30
0.0
 40
2.998615410000109
 50
270.0
 51
0.0
  0
ARC
  8
DETAIL
  6
CONTINUOUS
 62
     5
 10
192.83595932474961
 20
187.8248552990004
 30
0.0
 40
2.998615410000109
 50
180.0
 51
270.0
  0
ARC
  8
DETAIL
  6
CONTINUOUS
 62
     5
 10
223.32188265974949
 20
187.8248552990004
 30
0.0
 40
2.998615410000109
 50
180.0
 51
270.0
  0
ARC
  8
DETAIL
  6
CONTINUOUS
 62
     5
 10
236.81565200475049
 20
187.8248552990004
 30
0.0
 40
2.998615409999549
 50
270.0
 51
0.0
  0
CIRCLE
  8
DETAIL
  6
CONTINUOUS
 62
     5
 10
232.31772888974959
 20
206.21636314700001
 30
0.0
 40
1.5992615519999691
  0
CIRCLE
  8
DETAIL
  6
CONTINUOUS
 62
     5
 10
197.3338824397506
 20
206.21636314700001
 30
0.0
 40
1.5992615519999691
  0
ARC
  8
DETAIL
  6
CONTINUOUS
 62
     5
 10
-171.9955822252505
 20
21.201792349999891
 30
0.0
 40
3.5733500302496202
 50
163.75648915700091
 51
16.24351084299915
  0
ARC
  8
DETAIL
  6
CONTINUOUS
 62
     5
 10
-376.4011993402512
 20
-4.9976923500003068
 30
0.0
 40
6.9967692900004792
 50
103.47400830313561
 51
134.39976187485649
  0
ARC
  8
DETAIL
  6
CONTINUOUS
 62
     5
 10
-379.39981475024979
 20
61.400608402226339
 30
0.0
 40
1.9990769400001991
 50
78.454081188474149
 51
89.500000000451394
  0
ARC
  8
DETAIL
  6
CONTINUOUS
 62
     5
 10
-401.38966109025
 20
64.591240476355438
 30
0.0
 40
0.9995384700003296
 50
179.99999988822361
 51
269.49999999899222
  0
ARC
  8
DETAIL
  6
CONTINUOUS
 62
     5
 10
-384.39750710024958
 20
89.931188118167142
 30
0.0
 40
0.9995384699999801
 50
180.0002830608255
 51
269.50000247015242
  0
ARC
  8
DETAIL
  6
CONTINUOUS
 62
     5
 10
-384.39750710024958
 20
107.8006797575532
 30
0.0
 40
0.9995384699999398
 50
90.499999999965482
 51
180.0
  0
ARC
  8
DETAIL
  6
CONTINUOUS
 62
     5
 10
-249.95958288524889
 20
209.6147939450008
 30
0.0
 40
2.99861540999997
 50
0.0
 51
90.0
  0
ARC
  8
DETAIL
  6
CONTINUOUS
 62
     5
 10
-263.45335223024807
 20
187.8248552990004
 30
0.0
 40
2.998615410000109
 50
180.0
 51
270.0
  0
ARC
  8
DETAIL
  6
CONTINUOUS
 62
     5
 10
-249.95958288524889
 20
187.8248552990004
 30
0.0
 40
2.998615410000109
 50
270.0
 51
0.0
  0
CIRCLE
  8
DETAIL
  6
CONTINUOUS
 62
     5
 10
-254.45750600024991
 20
206.21636314700001
 30
0.0
 40
1.5992615519999691
  0
ARC
  8
DETAIL
  6
CONTINUOUS
 62
     5
 10
-142.80905890125001
 20
295.92494082950037
 30
0.0
 40
5.497461584999968
 50
0.0
 51
90.0
  0
ARC
  8
DETAIL
  6
CONTINUOUS
 62
     5
 10
-145.19389525899709
 20
301.02258702649999
 30
0.0
 40
1.39935385800001
 50
30.0000037488266
 51
90.0
  0
ARC
  8
DETAIL
  6
CONTINUOUS
 62
     5
 10
-143.52035222296041
 20
301.9221716495
 30
0.0
 40
0.4997692349999799
 50
209.99997532890029
 51
270.0
  0
ARC
  8
DETAIL
  6
CONTINUOUS
 62
     5
 10
-191.5349323914688
 20
260.09127780244808
 30
0.0
 40
187.4650669657824
 50
179.59260822902621
 51
179.99993615988851
  0
ARC
  8
DETAIL
  6
CONTINUOUS
 62
     5
 10
-212.7767518012497
 20
295.92494082950037
 30
0.0
 40
5.497461584999968
 50
90.0
 51
180.0
  0
ARC
  8
DETAIL
  6
CONTINUOUS
 62
     5
 10
-210.39191544350251
 20
301.02258702649999
 30
0.0
 40
1.399353857999728
 50
90.0
 51
149.9999962511734
  0
ARC
  8
DETAIL
  6
CONTINUOUS
 62
     5
 10
-212.0654584795393
 20
301.9221716495
 30
0.0
 40
0.49976923499966
 50
270.0
 51
330.00002467109971
  0
ARC
  8
DETAIL
  6
CONTINUOUS
 62
     5
 10
-293.93927556524801
 20
209.6147939450008
 30
0.0
 40
2.998615410000538
 50
90.0
 51
180.0
  0
ARC
  8
DETAIL
  6
CONTINUOUS
 62
     5
 10
-280.44550622024872
 20
187.8248552990004
 30
0.0
 40
2.9986154100003981
 50
270.0
 51
0.0
  0
ARC
  8
DETAIL
  6
CONTINUOUS
 62
     5
 10
-293.93927556524801
 20
187.8248552990004
 30
0.0
 40
2.998615410000109
 50
180.0
 51
270.0
  0
CIRCLE
  8
DETAIL
  6
CONTINUOUS
 62
     5
 10
-289.44135245025058
 20
206.21636314700001
 30
0.0
 40
1.5992615519999691
  0
ARC
  8
DETAIL
  6
CONTINUOUS
 62
     5
 10
-377.40073781024881
 20
261.49084053799982
 30
0.0
 40
1.59926155200025
 50
174.89673925129571
 51
180.0
  0
ARC
  8
DETAIL
  6
CONTINUOUS
 62
     5
 10
-377.40073781024881
 20
261.49084053799982
 30
0.0
 40
1.5992615520001101
 50
172.80988495100331
 51
174.705882353031
  0
ARC
  8
DETAIL
  6
CONTINUOUS
 62
     5
 10
-440.7714768082476
 20
246.90745842668619
 30
0.0
 40
0.9995384699999398
 50
96.654425047201002
 51
180.0
  0
ARC
  8
DETAIL
  6
CONTINUOUS
 62
     5
 10
-412.78439964824952
 20
252.1852532158141
 30
0.0
 40
0.99953847000009
 50
276.65442502432683
 51
0.0
  0
ARC
  8
DETAIL
  6
CONTINUOUS
 62
     5
 10
-410.78532270824871
 20
256.00185957463111
 30
0.0
 40
0.9995384699999398
 50
90.499999999965482
 51
180.0
  0
LINE
  8
DETAIL
  6
CONTINUOUS
 62
     5
 10
-378.99361616564761
 20
261.63840522202418
 30
0.0
 11
-378.99477557029968
 21
261.49079969186062
 31
0.0
  0
LINE
  8
DETAIL
  6
CONTINUOUS
 62
     5
 10
-378.99477557029968
 20
261.49079969186062
 30
0.0
 11
-378.99526071178838
 21
261.42420463966721
 31
0.0
  0
LINE
  8
DETAIL
  6
CONTINUOUS
 62
     5
 10
378.99477557029968
 20
261.49079969186062
 30
0.0
 11
378.99526071179031
 21
261.42420463966721
 31
0.0
  0
LINE
  8
DETAIL
  6
CONTINUOUS
 62
     5
 10
-277.4468908102499
 20
192.62263995500021
 30
0.0
 11
-296.93789097525041
 21
192.62263995500021
 31
0.0
  0
LINE
  8
DETAIL
  6
CONTINUOUS
 62
     5
 10
-266.45196764024882
 20
192.62263995500021
 30
0.0
 11
-246.9609674752501
 21
192.62263995500021
 31
0.0
  0
LINE
  8
DETAIL
  6
CONTINUOUS
 62
     5
 10
209.3283440797513
 20
192.62263995500021
 30
0.0
 11
189.83734391475079
 21
192.62263995500021
 31
0.0
  0
LINE
  8
DETAIL
  6
CONTINUOUS
 62
     5
 10
220.32326724975059
 20
192.62263995500021
 30
0.0
 11
239.81426741475121
 21
192.62263995500021
 31
0.0
  0
LINE
  8
DETAIL
  6
CONTINUOUS
 62
     5
 10
461.21210641040079
 20
244.2070618421981
 30
0.0
 11
416.23280736975153
 21
244.9484788595006
 31
0.0
  0
LINE
  8
DETAIL
  6
CONTINUOUS
 62
     5
 10
416.23280736975153
 20
189.22420915700039
 30
0.0
 11
416.23280736975153
 21
250.19605582700081
 31
0.0
  0
LINE
  8
DETAIL
  6
CONTINUOUS
 62
     5
 10
461.71180342724978
 20
243.69905152396171
 30
0.0
 11
461.21210199094281
 21
244.2070574952055
 31
0.0
  0
LINE
  8
DETAIL
  6
CONTINUOUS
 62
     5
 10
461.21210641640027
 20
244.2070618421981
 30
0.0
 11
461.21210641640027
 21
195.21320314180181
 31
0.0
  0
LINE
  8
DETAIL
  6
CONTINUOUS
 62
     5
 10
461.71180775475108
 20
243.6989143133184
 30
0.0
 11
461.71180775475108
 21
195.7213506701834
 31
0.0
  0
LINE
  8
DETAIL
  6
CONTINUOUS
 62
     5
 10
416.23280736975153
 20
250.19605582700081
 30
0.0
 11
414.23373042975072
 21
250.19605582700081
 31
0.0
  0
LINE
  8
DETAIL
  6
CONTINUOUS
 62
     5
 10
461.21210641040079
 20
193.81384928330289
 30
0.0
 11
416.23280736975153
 21
193.07243226600039
 31
0.0
  0
LINE
  8
NOTE
  6
DASHDOT
 62
     4
 10
214.82580566475011
 20
159.83777813899971
 30
0.0
 11
214.82580566475011
 21
237.6018711050007
 31
0.0
  0
LINE
  8
NOTE
  6
DASHDOT
 62
     4
 10
-271.94942922524928
 20
159.83777813899971
 30
0.0
 11
-271.94942922524928
 21
237.6018711050007
 31
0.0
  0
CIRCLE
  8
DETAIL
  6
CONTINUOUS
 62
     5
 10
197.3338824397506
 20
206.21636314700001
 30
0.0
 40
2.4988461750000002
  0
CIRCLE
  8
DETAIL
  6
CONTINUOUS
 62
     5
 10
232.31772888974959
 20
206.21636314700001
 30
0.0
 40
2.4988461750000002
  0
CIRCLE
  8
DETAIL
  6
CONTINUOUS
 62
     5
 10
-254.45750600024991
 20
206.21636314700001
 30
0.0
 40
2.4988461750000002
  0
CIRCLE
  8
DETAIL
  6
CONTINUOUS
 62
     5
 10
-289.44135245025058
 20
206.21636314700001
 30
0.0
 40
2.4988461750000002
  0
LINE
  8
NOTE
  6
DASHDOT
 62
     4
 10
0.0
 20
-16.19252321399961
 30
0.0
 11
0.0
 21
293.87588696600028
 31
0.0
  0
LINE
  8
NOTE
  6
DASHDOT
 62
     4
 10
232.0
 20
41.020377882648631
 30
0.0
 11
232.0
 21
17.769758789393681
 31
0.0
  0
CIRCLE
  8
FIX
  6
CONTINUOUS
 62
    11
 10
232.0
 20
25.00003853600003
 30
0.0
 40
3.0
  0
LINE
  8
NOTE
  6
DASHDOT
 62
     4
 10
-48.0
 20
41.020377882648631
 30
0.0
 11
-48.0
 21
17.769758789393681
 31
0.0
  0
CIRCLE
  8
FIX
  6
CONTINUOUS
 62
    11
 10
-48.0
 20
25.00003853600003
 30
0.0
 40
3.0
  0
LINE
  8
NOTE
  6
DASHDOT
 62
     4
 10
-328.0
 20
41.020377882648631
 30
0.0
 11
-328.0
 21
17.769758789393681
 31
0.0
  0
CIRCLE
  8
FIX
  6
CONTINUOUS
 62
    11
 10
-328.0
 20
25.00003853600003
 30
0.0
 40
3.0
  0
LINE
  8
OUTLINE
  6
CONTINUOUS
 62
     3
 10
378.99999936224958
 20
25.799669311999988
 30
0.0
 11
378.99999936224958
 21
25.00003853600003
 31
0.0
  0
LINE
  8
OUTLINE
  6
CONTINUOUS
 62
     3
 10
378.99999936224958
 20
25.799669311999988
 30
0.0
 11
378.99999936224958
 21
263.09010209000053
 31
0.0
  0
LINE
  8
OUTLINE
  6
CONTINUOUS
 62
     3
 10
55.399419699750069
 20
-8.9958462299996427
 30
0.0
 11
-399.3905841502492
 21
-8.9958462299996427
 31
0.0
  0
LINE
  8
OUTLINE
  6
CONTINUOUS
 62
     3
 10
55.399419699750069
 20
0.0
 30
0.0
 11
55.399419699750069
 21
-8.9958462299996427
 31
0.0
  0
LINE
  8
OUTLINE
  6
CONTINUOUS
 62
     3
 10
55.399419699750069
 20
0.0
 30
0.0
 11
34.033002766018399
 21
0.0000000000005684
 31
0.0
  0
LINE
  8
OUTLINE
  6
CONTINUOUS
 62
     3
 10
-381.29791779981628
 20
-0.0000000000003411
 30
0.0
 11
-399.3905841502492
 21
-0.0000000000003411
 31
0.0
  0
LINE
  8
OUTLINE
  6
CONTINUOUS
 62
     3
 10
-378.06079251503968
 20
3.4983846449999869
 30
0.0
 11
-382.05285103702948
 21
3.4983846449999869
 31
0.0
  0
LINE
  8
OUTLINE
  6
CONTINUOUS
 62
     3
 10
378.99999936224958
 20
25.00003853600003
 30
0.0
 11
34.109763758660847
 21
25.00003853600003
 31
0.0
  0
LINE
  8
OUTLINE
  6
CONTINUOUS
 62
     3
 10
-378.99999936224958
 20
33.696023224999983
 30
0.0
 11
-382.17497079807077
 21
33.696023224999983
 31
0.0
  0
LINE
  8
OUTLINE
  6
CONTINUOUS
 62
     3
 10
34.109763758660847
 20
25.00003853600003
 30
0.0
 11
34.033002766018399
 21
0.0
 31
0.0
  0
LINE
  8
OUTLINE
  6
CONTINUOUS
 62
     3
 10
22.26471941924865
 20
263.09010209000053
 30
0.0
 11
22.26471941924865
 21
268.08779444000038
 31
0.0
  0
LINE
  8
OUTLINE
  6
CONTINUOUS
 62
     3
 10
-143.98201931486261
 20
301.72226403446302
 30
0.0
 11
-143.95316518405889
 21
301.67228721841428
 31
0.0
  0
LINE
  8
OUTLINE
  6
CONTINUOUS
 62
     3
 10
-136.8118280812505
 20
273.9530353979095
 30
0.0
 11
-137.31159731624939
 21
274.81866110470457
 31
0.0
  0
LINE
  8
OUTLINE
  6
CONTINUOUS
 62
     3
 10
-136.8118280812505
 20
273.9530353979095
 30
0.0
 11
-136.8118280812505
 21
268.08779444000038
 31
0.0
  0
LINE
  8
OUTLINE
  6
CONTINUOUS
 62
     3
 10
-137.31159731624939
 20
295.92494082950037
 30
0.0
 11
-137.31159731624939
 21
274.81866110470457
 31
0.0
  0
LINE
  8
OUTLINE
  6
CONTINUOUS
 62
     3
 10
378.99999936224958
 20
263.09010209000053
 30
0.0
 11
22.26471941924865
 21
263.09010209000053
 31
0.0
  0
LINE
  8
OUTLINE
  6
CONTINUOUS
 62
     3
 10
-377.85053012175001
 20
263.09010209000053
 30
0.0
 11
-378.99999936224958
 21
263.09010209000053
 31
0.0
  0
LINE
  8
OUTLINE
  6
CONTINUOUS
 62
     3
 10
22.26471941924865
 20
268.08779444000038
 30
0.0
 11
-377.85053012175001
 21
268.08779444000038
 31
0.0
  0
LINE
  8
OUTLINE
  6
CONTINUOUS
 62
     3
 10
-218.77398262125101
 20
273.9530353979095
 30
0.0
 11
-149.3226253018529
 21
273.9530353979095
 31
0.0
  0
LINE
  8
OUTLINE
  6
CONTINUOUS
 62
     3
 10
-149.3226253018529
 20
273.9530353979095
 30
0.0
 11
-136.8118280812505
 21
273.9530353979095
 31
0.0
  0
LINE
  8
OUTLINE
  6
CONTINUOUS
 62
     3
 10
-137.31159731624939
 20
274.81866110470457
 30
0.0
 11
-149.62568397010361
 21
274.81866110470457
 31
0.0
  0
LINE
  8
OUTLINE
  6
CONTINUOUS
 62
     3
 10
-149.62568397010361
 20
274.81866110470457
 30
0.0
 11
-218.27421338624839
 21
274.81866110470457
 31
0.0
  0
LINE
  8
OUTLINE
  6
CONTINUOUS
 62
     3
 10
-218.27421338624839
 20
295.92494082950037
 30
0.0
 11
-218.27421338624839
 21
274.81866110470457
 31
0.0
  0
LINE
  8
OUTLINE
  6
CONTINUOUS
 62
     3
 10
-218.77398262125101
 20
273.9530353979095
 30
0.0
 11
-218.77398262125101
 21
268.08779444000038
 31
0.0
  0
LINE
  8
OUTLINE
  6
CONTINUOUS
 62
     3
 10
-212.77664283756349
 20
301.4224024145002
 30
0.0
 11
-142.8091678649362
 21
301.4224024145002
 31
0.0
  0
LINE
  8
OUTLINE
  6
CONTINUOUS
 62
     3
 10
-145.1939919393553
 20
302.42194088450071
 30
0.0
 11
-210.39181876314251
 21
302.42194088450071
 31
0.0
  0
LINE
  8
OUTLINE
  6
CONTINUOUS
 62
     3
 10
-218.77398262125101
 20
273.9530353979095
 30
0.0
 11
-218.27421338624839
 21
274.81866110470457
 31
0.0
  0
LINE
  8
OUTLINE
  6
CONTINUOUS
 62
     3
 10
-211.6037913876371
 20
301.72226403446302
 30
0.0
 11
-211.63264551844259
 21
301.67228721841428
 31
0.0
  0
LINE
  8
OUTLINE
  6
CONTINUOUS
 62
     3
 10
-377.85053012175001
 20
263.09010209000053
 30
0.0
 11
-377.85053012175001
 21
268.08779444000038
 31
0.0
  0
LINE
  8
OUTLINE
  6
CONTINUOUS
 62
     3
 10
-378.99999936224958
 20
33.696023224999983
 30
0.0
 11
-378.99999936224958
 21
263.09010209000053
 31
0.0
  0
LINE
  8
OUTLINE
  6
CONTINUOUS
 62
     3
 10
-399.3905841502492
 20
-8.9958462299996427
 30
0.0
 11
-399.3905841502492
 21
-0.0000000000003411
 31
0.0
  0
LINE
  8
OUTLINE
  6
CONTINUOUS
 62
     3
 10
-382.17497079807077
 20
33.696023224999983
 30
0.0
 11
-382.05285103702948
 21
3.4983846449999869
 31
0.0
  0
LINE
  8
OUTLINE
  6
CONTINUOUS
 62
     3
 10
-378.03126138575021
 20
1.806547374275397
 30
0.0
 11
-378.06079251503968
 21
3.4983846449999869
 31
0.0
  0
ARC
  8
OUTLINE
  6
CONTINUOUS
 62
     3
 10
-376.4011993402512
 20
-4.9976923500003068
 30
0.0
 40
6.9967692900004792
 50
103.4721993962567
 51
134.39976187485649
  0
ARC
  8
OUTLINE
  6
CONTINUOUS
 62
     3
 10
-142.80905890125001
 20
295.92494082950037
 30
0.0
 40
5.497461584999968
 50
0.0
 51
90.0
  0
ARC
  8
OUTLINE
  6
CONTINUOUS
 62
     3
 10
-145.19389525899709
 20
301.02258702649999
 30
0.0
 40
1.39935385800001
 50
30.0000037488266
 51
90.0
  0
ARC
  8
OUTLINE
  6
CONTINUOUS
 62
     3
 10
-143.52035222296041
 20
301.9221716495
 30
0.0
 40
0.4997692349999799
 50
209.99997532890029
 51
270.0
  0
ARC
  8
OUTLINE
  6
CONTINUOUS
 62
     3
 10
-212.7767518012497
 20
295.92494082950037
 30
0.0
 40
5.497461584999968
 50
90.0
 51
180.0
  0
ARC
  8
OUTLINE
  6
CONTINUOUS
 62
     3
 10
-210.39191544350251
 20
301.02258702649999
 30
0.0
 40
1.399353857999728
 50
90.0
 51
149.9999962511734
  0
ARC
  8
OUTLINE
  6
CONTINUOUS
 62
     3
 10
-212.0654584795393
 20
301.9221716495
 30
0.0
 40
0.49976923499966
 50
270.0
 51
330.00002467109971
  0
LINE
  8
OUTLINE
  6
CONTINUOUS
 62
     3
 10
378.99477557029968
 20
261.49079969186062
 30
0.0
 11
378.99526071179031
 21
261.42420463966721
 31
0.0
  0
CIRCLE
  8
FIX
  6
CONTINUOUS
 62
    11
 10
214.82580566475011
 20
192.62263995500021
 30
0.0
 40
3.0
  0
CIRCLE
  8
FIX
  6
CONTINUOUS
 62
    11
 10
-271.94942922524928
 20
192.62263995500021
 30
0.0
 40
3.0
  0
CIRCLE
  8
ARRANGE
  6
CONTINUOUS
 62
     1
 10
0.0
 20
0.0
 30
0.0
 40
40.0
  0
POINT
  8
ARRANGE
  6
CONTINUOUS
 62
     1
 10
0.0
 20
0.0
 30
0.0
  0
LINE
  8
BASIS
  6
DASHDOT
 62
     6
 10
0.0
 20
-81.209216491394614
 30
0.0
 11
0.0
 21
137.36158553723391
 31
0.0
  0
LINE
  8
BASIS
  6
DASHDOT
 62
     6
 10
128.789675687467
 20
0.0
 30
0.0
 11
-122.12257372271419
 21
0.0
 31
0.0
  0
TEXT
  8
NOTE
  6
CONTINUOUS
 62
     4
 10
-563.76894006088276
 20
54.067208373387189
 30
0.0
 40
64.0
  1
OA
 41
0.9
  0
TEXT
  8
NOTE
  6
CONTINUOUS
 62
     4
 10
-562.49891933036633
 20
165.37878081877639
 30
0.0
 40
64.0
  1
EA
 41
0.9
  0
TEXT
  8
NOTE
  6
CONTINUOUS
 62
     4
 10
496.56975252651682
 20
188.13902918253291
 30
0.0
 40
64.0
  1
RA2
 41
0.9
  0
TEXT
  8
NOTE
  6
CONTINUOUS
 62
     4
 10
501.72393121867208
 20
100.22157906923999
 30
0.0
 40
64.0
  1
SA
 41
0.9
  0
LINE
  8
NOTE
  6
CONTINUOUS
 62
     4
 10
214.82580566475011
 20
192.62263995500021
 30
0.0
 11
489.63756471748047
 21
446.79678779945789
 31
0.0
  0
TEXT
  8
NOTE
  6
CONTINUOUS
 62
     4
 10
530.39689053429856
 20
464.44901809871862
 30
0.0
 40
64.0
  1
AH4
 41
0.9
  0
LINE
  8
NOTE
  6
CONTINUOUS
 62
     4
 10
712.59286004497881
 20
446.79678779945789
 30
0.0
 11
489.63756471748047
 21
446.79678779945789
 31
0.0
  0
LINE
  8
NOTE
  6
CONTINUOUS
 62
     4
 10
252.75025668325179
 20
213.73962025204409
 30
0.0
 11
214.82580566475011
 21
192.62263995500021
 31
0.0
  0
LINE
  8
NOTE
  6
CONTINUOUS
 62
     4
 10
214.82580566475011
 20
192.62263995500021
 30
0.0
 11
232.80115250865489
 21
229.61010279540019
 31
0.0
  0
TEXT
  8
NOTE
  6
CONTINUOUS
 62
     4
 10
-215.91209974021311
 20
-91.948156432691462
 30
0.0
 40
64.0
  1
RA1
 41
0.9
  0
LINE
  8
NOTE
  6
CONTINUOUS
 62
     4
 10
232.0
 20
25.00003853600003
 30
0.0
 11
355.61134900000002
 21
-313.18781349269818
 31
0.0
  0
LINE
  8
NOTE
  6
CONTINUOUS
 62
     4
 10
975.52934960729726
 20
-313.18781349269818
 30
0.0
 11
355.61134900000002
 21
-313.18781349269818
 31
0.0
  0
LINE
  8
NOTE
  6
CONTINUOUS
 62
     4
 10
241.76570046733829
 20
-44.961559883201403
 30
0.0
 11
232.0
 21
25.00003853600003
 31
0.0
  0
LINE
  8
NOTE
  6
CONTINUOUS
 62
     4
 10
232.0
 20
25.00003853600003
 30
0.0
 11
273.71540728234322
 21
-30.324752728270031
 31
0.0
  0
LINE
  8
SIZE
  6
CONTINUOUS
 62
    30
 10
461.71180775475108
 20
263.69891431331848
 30
0.0
 11
461.71180775475108
 21
607.47365175357595
 31
0.0
  0
LINE
  8
SIZE
  6
CONTINUOUS
 62
    30
 10
378.99999936224958
 20
283.09010209000053
 30
0.0
 11
378.99999936224958
 21
607.47365175357595
 31
0.0
  0
LINE
  8
SIZE
  6
CONTINUOUS
 62
    30
 10
390.99999936224958
 20
587.47365175357595
 30
0.0
 11
449.71180775475108
 21
587.47365175357595
 31
0.0
  0
LINE
  8
SIZE
  6
CONTINUOUS
 62
    30
 10
461.71180775475108
 20
587.47365175357595
 30
0.0
 11
616.96895061189366
 21
587.47365175357595
 31
0.0
  0
CIRCLE
  8
SIZE
  6
CONTINUOUS
 62
    30
 10
378.99999936224958
 20
587.47365175357595
 30
0.0
 40
6.0
  0
LINE
  8
SIZE
  6
CONTINUOUS
 62
    30
 10
378.99999936224958
 20
587.47365175357595
 30
0.0
 11
390.99999936224958
 21
587.47365175357595
 31
0.0
  0
CIRCLE
  8
SIZE
  6
CONTINUOUS
 62
    30
 10
461.71180775475108
 20
587.47365175357595
 30
0.0
 40
6.0
  0
LINE
  8
SIZE
  6
CONTINUOUS
 62
    30
 10
461.71180775475108
 20
587.47365175357595
 30
0.0
 11
449.71180775475108
 21
587.47365175357595
 31
0.0
  0
TEXT
  8
SIZE
  6
CONTINUOUS
 62
    30
 10
498.71180775475108
 20
612.47365175357595
 30
0.0
 40
64.0
  1
83
 41
0.9
 72
     1
 11
545.34037918332251
 21
612.47365175357595
 31
0.0
  0
POINT
  8
DEFPOINTS
  6
CONTINUOUS
 62
    30
 10
461.71180775475108
 20
243.6989143133184
 30
0.0
  0
POINT
  8
DEFPOINTS
  6
CONTINUOUS
 62
    30
 10
378.99999936224958
 20
263.09010209000053
 30
0.0
  0
POINT
  8
DEFPOINTS
  6
CONTINUOUS
 62
    30
 10
378.99999936224958
 20
587.47365175357595
 30
0.0
  0
LINE
  8
SIZE
  6
CONTINUOUS
 62
    30
 10
378.99999936224958
 20
283.09010209000053
 30
0.0
 11
378.99999936224958
 21
607.47365175357595
 31
0.0
  0
LINE
  8
SIZE
  6
CONTINUOUS
 62
    30
 10
-378.99999936224958
 20
283.09010209000053
 30
0.0
 11
-378.99999936224958
 21
607.47365175357595
 31
0.0
  0
LINE
  8
SIZE
  6
CONTINUOUS
 62
    30
 10
366.99999936224958
 20
587.47365175357595
 30
0.0
 11
-366.99999936224958
 21
587.47365175357595
 31
0.0
  0
CIRCLE
  8
SIZE
  6
CONTINUOUS
 62
    30
 10
378.99999936224958
 20
587.47365175357595
 30
0.0
 40
6.0
  0
LINE
  8
SIZE
  6
CONTINUOUS
 62
    30
 10
378.99999936224958
 20
587.47365175357595
 30
0.0
 11
366.99999936224958
 21
587.47365175357595
 31
0.0
  0
CIRCLE
  8
SIZE
  6
CONTINUOUS
 62
    30
 10
-378.99999936224958
 20
587.47365175357595
 30
0.0
 40
6.0
  0
LINE
  8
SIZE
  6
CONTINUOUS
 62
    30
 10
-378.99999936224958
 20
587.47365175357595
 30
0.0
 11
-366.99999936224958
 21
587.47365175357595
 31
0.0
  0
TEXT
  8
SIZE
  6
CONTINUOUS
 62
    30
 10
-74.05714285714285
 20
612.47365175357595
 30
0.0
 40
64.0
  1
758
 41
0.9
 72
     1
 11
0.0
 21
612.47365175357595
 31
0.0
  0
POINT
  8
DEFPOINTS
  6
CONTINUOUS
 62
    30
 10
378.99999936224958
 20
263.09010209000053
 30
0.0
  0
POINT
  8
DEFPOINTS
  6
CONTINUOUS
 62
    30
 10
-378.99999936224958
 20
263.09010209000053
 30
0.0
  0
POINT
  8
DEFPOINTS
  6
CONTINUOUS
 62
    30
 10
-378.99999936224958
 20
587.47365175357595
 30
0.0
  0
LINE
  8
SIZE
  6
CONTINUOUS
 62
    30
 10
-378.99999936224958
 20
283.09010209000053
 30
0.0
 11
-378.99999936224958
 21
607.47365175357595
 31
0.0
  0
LINE
  8
SIZE
  6
CONTINUOUS
 62
    30
 10
-441.77101527824931
 20
268.08779444000038
 30
0.0
 11
-441.77101527824931
 21
607.47365175357595
 31
0.0
  0
LINE
  8
SIZE
  6
CONTINUOUS
 62
    30
 10
-366.99999936224958
 20
587.47365175357595
 30
0.0
 11
-354.99999936224958
 21
587.47365175357595
 31
0.0
  0
LINE
  8
SIZE
  6
CONTINUOUS
 62
    30
 10
-453.77101527824931
 20
587.47365175357595
 30
0.0
 11
-612.47918451402802
 21
587.47365175357595
 31
0.0
  0
LINE
  8
SIZE
  6
CONTINUOUS
 62
    30
 10
-378.99999936224958
 20
587.47365175357595
 30
0.0
 11
-441.77101527824931
 21
587.47365175357595
 31
0.0
  0
CIRCLE
  8
SIZE
  6
CONTINUOUS
 62
    30
 10
-378.99999936224958
 20
587.47365175357595
 30
0.0
 40
6.0
  0
LINE
  8
SIZE
  6
CONTINUOUS
 62
    30
 10
-378.99999936224958
 20
587.47365175357595
 30
0.0
 11
-366.99999936224958
 21
587.47365175357595
 31
0.0
  0
CIRCLE
  8
SIZE
  6
CONTINUOUS
 62
    30
 10
-441.77101527824931
 20
587.47365175357595
 30
0.0
 40
6.0
  0
LINE
  8
SIZE
  6
CONTINUOUS
 62
    30
 10
-441.77101527824931
 20
587.47365175357595
 30
0.0
 11
-453.77101527824931
 21
587.47365175357595
 31
0.0
  0
TEXT
  8
SIZE
  6
CONTINUOUS
 62
    30
 10
-587.47918451402802
 20
612.47365175357595
 30
0.0
 40
64.0
  1
63
 41
0.9
 72
     1
 11
-540.85061308545664
 21
612.47365175357595
 31
0.0
  0
POINT
  8
DEFPOINTS
  6
CONTINUOUS
 62
    30
 10
-378.99999936224958
 20
263.09010209000053
 30
0.0
  0
POINT
  8
DEFPOINTS
  6
CONTINUOUS
 62
    30
 10
-441.77101527824931
 20
248.08779444000049
 30
0.0
  0
POINT
  8
DEFPOINTS
  6
CONTINUOUS
 62
    30
 10
-441.77101527824931
 20
587.47365175357595
 30
0.0
  0
LINE
  8
SIZE
  6
CONTINUOUS
 62
    30
 10
-271.94942922524928
 20
257.60187110500078
 30
0.0
 11
-271.94942922524928
 21
501.27902354835618
 31
0.0
  0
LINE
  8
SIZE
  6
CONTINUOUS
 62
    30
 10
0.0
 20
313.87588696600028
 30
0.0
 11
0.0
 21
501.27902354835618
 31
0.0
  0
LINE
  8
SIZE
  6
CONTINUOUS
 62
    30
 10
-259.94942922524928
 20
481.27902354835618
 30
0.0
 11
-12.0
 21
481.27902354835618
 31
0.0
  0
CIRCLE
  8
SIZE
  6
CONTINUOUS
 62
    30
 10
-271.94942922524928
 20
481.27902354835618
 30
0.0
 40
6.0
  0
LINE
  8
SIZE
  6
CONTINUOUS
 62
    30
 10
-271.94942922524928
 20
481.27902354835618
 30
0.0
 11
-259.94942922524928
 21
481.27902354835618
 31
0.0
  0
CIRCLE
  8
SIZE
  6
CONTINUOUS
 62
    30
 10
0.0
 20
481.27902354835618
 30
0.0
 40
6.0
  0
LINE
  8
SIZE
  6
CONTINUOUS
 62
    30
 10
0.0
 20
481.27902354835618
 30
0.0
 11
-12.0
 21
481.27902354835618
 31
0.0
  0
TEXT
  8
SIZE
  6
CONTINUOUS
 62
    30
 10
-210.03185746976749
 20
506.27902354835618
 30
0.0
 40
64.0
  1
272
 41
0.9
 72
     1
 11
-135.97471461262469
 21
506.27902354835618
 31
0.0
  0
POINT
  8
DEFPOINTS
  6
CONTINUOUS
 62
    30
 10
-271.94942922524928
 20
237.6018711050007
 30
0.0
  0
POINT
  8
DEFPOINTS
  6
CONTINUOUS
 62
    30
 10
0.0
 20
293.87588696600028
 30
0.0
  0
POINT
  8
DEFPOINTS
  6
CONTINUOUS
 62
    30
 10
0.0
 20
481.27902354835618
 30
0.0
  0
LINE
  8
SIZE
  6
CONTINUOUS
 62
    30
 10
214.82580566475011
 20
257.60187110500078
 30
0.0
 11
214.82580566475011
 21
501.27902354835618
 31
0.0
  0
LINE
  8
SIZE
  6
CONTINUOUS
 62
    30
 10
0.0
 20
313.87588696600028
 30
0.0
 11
0.0
 21
501.27902354835618
 31
0.0
  0
LINE
  8
SIZE
  6
CONTINUOUS
 62
    30
 10
202.82580566475011
 20
481.27902354835618
 30
0.0
 11
12.0
 21
481.27902354835618
 31
0.0
  0
CIRCLE
  8
SIZE
  6
CONTINUOUS
 62
    30
 10
214.82580566475011
 20
481.27902354835618
 30
0.0
 40
6.0
  0
LINE
  8
SIZE
  6
CONTINUOUS
 62
    30
 10
214.82580566475011
 20
481.27902354835618
 30
0.0
 11
202.82580566475011
 21
481.27902354835618
 31
0.0
  0
CIRCLE
  8
SIZE
  6
CONTINUOUS
 62
    30
 10
0.0
 20
481.27902354835618
 30
0.0
 40
6.0
  0
LINE
  8
SIZE
  6
CONTINUOUS
 62
    30
 10
0.0
 20
481.27902354835618
 30
0.0
 11
12.0
 21
481.27902354835618
 31
0.0
  0
TEXT
  8
SIZE
  6
CONTINUOUS
 62
    30
 10
38.84147426094647
 20
506.27902354835618
 30
0.0
 40
64.0
  1
215
 41
0.9
 72
     1
 11
107.412902832375
 21
506.27902354835618
 31
0.0
  0
POINT
  8
DEFPOINTS
  6
CONTINUOUS
 62
    30
 10
214.82580566475011
 20
237.6018711050007
 30
0.0
  0
POINT
  8
DEFPOINTS
  6
CONTINUOUS
 62
    30
 10
0.0
 20
293.87588696600028
 30
0.0
  0
POINT
  8
DEFPOINTS
  6
CONTINUOUS
 62
    30
 10
0.0
 20
481.27902354835618
 30
0.0
  0
LINE
  8
SIZE
  6
CONTINUOUS
 62
    30
 10
55.399419699750069
 20
-28.995846229999639
 30
0.0
 11
55.399419699750069
 21
-649.91202089296792
 31
0.0
  0
LINE
  8
SIZE
  6
CONTINUOUS
 62
    30
 10
-399.3905841502492
 20
-28.995846229999639
 30
0.0
 11
-399.3905841502492
 21
-649.91202089296792
 31
0.0
  0
LINE
  8
SIZE
  6
CONTINUOUS
 62
    30
 10
43.399419699750069
 20
-629.91202089296792
 30
0.0
 11
-387.3905841502492
 21
-629.91202089296792
 31
0.0
  0
CIRCLE
  8
SIZE
  6
CONTINUOUS
 62
    30
 10
55.399419699750069
 20
-629.91202089296792
 30
0.0
 40
6.0
  0
LINE
  8
SIZE
  6
CONTINUOUS
 62
    30
 10
55.399419699750069
 20
-629.91202089296792
 30
0.0
 11
43.399419699750069
 21
-629.91202089296792
 31
0.0
  0
CIRCLE
  8
SIZE
  6
CONTINUOUS
 62
    30
 10
-399.3905841502492
 20
-629.91202089296792
 30
0.0
 40
6.0
  0
LINE
  8
SIZE
  6
CONTINUOUS
 62
    30
 10
-399.3905841502492
 20
-629.91202089296792
 30
0.0
 11
-387.3905841502492
 21
-629.91202089296792
 31
0.0
  0
TEXT
  8
SIZE
  6
CONTINUOUS
 62
    30
 10
-246.05272508239241
 20
-604.91202089296792
 30
0.0
 40
64.0
  1
455
 41
0.9
 72
     1
 11
-171.99558222524959
 21
-604.91202089296792
 31
0.0
  0
POINT
  8
DEFPOINTS
  6
CONTINUOUS
 62
    30
 10
55.399419699750069
 20
-8.9958462299996427
 30
0.0
  0
POINT
  8
DEFPOINTS
  6
CONTINUOUS
 62
    30
 10
-399.3905841502492
 20
-8.9958462299996427
 30
0.0
  0
POINT
  8
DEFPOINTS
  6
CONTINUOUS
 62
    30
 10
-399.3905841502492
 20
-629.91202089296792
 30
0.0
  0
LINE
  8
SIZE
  6
CONTINUOUS
 62
    30
 10
-172.0
 20
-67.595736504175875
 30
0.0
 11
-172.0
 21
-293.01719256864709
 31
0.0
  0
LINE
  8
SIZE
  6
CONTINUOUS
 62
    30
 10
0.0
 20
-121.2092164913946
 30
0.0
 11
0.0
 21
-293.01719256864709
 31
0.0
  0
LINE
  8
SIZE
  6
CONTINUOUS
 62
    30
 10
-184.0
 20
-273.01719256864709
 30
0.0
 11
-196.0
 21
-273.01719256864709
 31
0.0
  0
LINE
  8
SIZE
  6
CONTINUOUS
 62
    30
 10
12.0
 20
-273.01719256864709
 30
0.0
 11
24.0
 21
-273.01719256864709
 31
0.0
  0
LINE
  8
SIZE
  6
CONTINUOUS
 62
    30
 10
-172.0
 20
-273.01719256864709
 30
0.0
 11
0.0
 21
-273.01719256864709
 31
0.0
  0
CIRCLE
  8
SIZE
  6
CONTINUOUS
 62
    30
 10
-172.0
 20
-273.01719256864709
 30
0.0
 40
6.0
  0
LINE
  8
SIZE
  6
CONTINUOUS
 62
    30
 10
-172.0
 20
-273.01719256864709
 30
0.0
 11
-184.0
 21
-273.01719256864709
 31
0.0
  0
CIRCLE
  8
SIZE
  6
CONTINUOUS
 62
    30
 10
0.0
 20
-273.01719256864709
 30
0.0
 40
6.0
  0
LINE
  8
SIZE
  6
CONTINUOUS
 62
    30
 10
0.0
 20
-273.01719256864709
 30
0.0
 11
12.0
 21
-273.01719256864709
 31
0.0
  0
TEXT
  8
SIZE
  6
CONTINUOUS
 62
    30
 10
-154.57142857142861
 20
-248.01719256864709
 30
0.0
 40
64.0
  1
172
 41
0.9
 72
     1
 11
-86.0
 21
-248.01719256864709
 31
0.0
  0
POINT
  8
DEFPOINTS
  6
CONTINUOUS
 62
    30
 10
-172.0
 20
-47.595736504175868
 30
0.0
  0
POINT
  8
DEFPOINTS
  6
CONTINUOUS
 62
    30
 10
0.0
 20
-101.2092164913946
 30
0.0
  0
POINT
  8
DEFPOINTS
  6
CONTINUOUS
 62
    30
 10
0.0
 20
-273.01719256864709
 30
0.0
  0
LINE
  8
SIZE
  6
CONTINUOUS
 62
    30
 10
0.0
 20
-121.2092164913946
 30
0.0
 11
0.0
 21
-417.94731712837063
 31
0.0
  0
LINE
  8
SIZE
  6
CONTINUOUS
 62
    30
 10
-48.0
 20
-38.434341210606362
 30
0.0
 11
-48.0
 21
-417.94731712837063
 31
0.0
  0
LINE
  8
SIZE
  6
CONTINUOUS
 62
    30
 10
12.0
 20
-397.94731712837063
 30
0.0
 11
24.0
 21
-397.94731712837063
 31
0.0
  0
LINE
  8
SIZE
  6
CONTINUOUS
 62
    30
 10
-60.0
 20
-397.94731712837063
 30
0.0
 11
-215.25714285714301
 21
-397.94731712837063
 31
0.0
  0
LINE
  8
SIZE
  6
CONTINUOUS
 62
    30
 10
0.0
 20
-397.94731712837063
 30
0.0
 11
-48.0
 21
-397.94731712837063
 31
0.0
  0
CIRCLE
  8
SIZE
  6
CONTINUOUS
 62
    30
 10
0.0
 20
-397.94731712837063
 30
0.0
 40
6.0
  0
LINE
  8
SIZE
  6
CONTINUOUS
 62
    30
 10
0.0
 20
-397.94731712837063
 30
0.0
 11
12.0
 21
-397.94731712837063
 31
0.0
  0
CIRCLE
  8
SIZE
  6
CONTINUOUS
 62
    30
 10
-48.0
 20
-397.94731712837063
 30
0.0
 40
6.0
  0
LINE
  8
SIZE
  6
CONTINUOUS
 62
    30
 10
-48.0
 20
-397.94731712837063
 30
0.0
 11
-60.0
 21
-397.94731712837063
 31
0.0
  0
TEXT
  8
SIZE
  6
CONTINUOUS
 62
    30
 10
-190.25714285714281
 20
-372.94731712837063
 30
0.0
 40
64.0
  1
48
 41
0.9
 72
     1
 11
-143.62857142857141
 21
-372.94731712837063
 31
0.0
  0
POINT
  8
DEFPOINTS
  6
CONTINUOUS
 62
    30
 10
0.0
 20
-101.2092164913946
 30
0.0
  0
POINT
  8
DEFPOINTS
  6
CONTINUOUS
 62
    30
 10
-48.0
 20
-18.434341210606359
 30
0.0
  0
POINT
  8
DEFPOINTS
  6
CONTINUOUS
 62
    30
 10
-48.0
 20
-397.94731712837063
 30
0.0
  0
LINE
  8
SIZE
  6
CONTINUOUS
 62
    30
 10
0.0
 20
-121.2092164913946
 30
0.0
 11
0.0
 21
-417.94731712837063
 31
0.0
  0
LINE
  8
SIZE
  6
CONTINUOUS
 62
    30
 10
232.0
 20
-2.230241210606323
 30
0.0
 11
232.0
 21
-417.94731712837063
 31
0.0
  0
LINE
  8
SIZE
  6
CONTINUOUS
 62
    30
 10
12.0
 20
-397.94731712837063
 30
0.0
 11
220.0
 21
-397.94731712837063
 31
0.0
  0
CIRCLE
  8
SIZE
  6
CONTINUOUS
 62
    30
 10
0.0
 20
-397.94731712837063
 30
0.0
 40
6.0
  0
LINE
  8
SIZE
  6
CONTINUOUS
 62
    30
 10
0.0
 20
-397.94731712837063
 30
0.0
 11
12.0
 21
-397.94731712837063
 31
0.0
  0
CIRCLE
  8
SIZE
  6
CONTINUOUS
 62
    30
 10
232.0
 20
-397.94731712837063
 30
0.0
 40
6.0
  0
LINE
  8
SIZE
  6
CONTINUOUS
 62
    30
 10
232.0
 20
-397.94731712837063
 30
0.0
 11
220.0
 21
-397.94731712837063
 31
0.0
  0
TEXT
  8
SIZE
  6
CONTINUOUS
 62
    30
 10
41.94285714285715
 20
-372.94731712837063
 30
0.0
 40
64.0
  1
232
 41
0.9
 72
     1
 11
116.0
 21
-372.94731712837063
 31
0.0
  0
POINT
  8
DEFPOINTS
  6
CONTINUOUS
 62
    30
 10
0.0
 20
-101.2092164913946
 30
0.0
  0
POINT
  8
DEFPOINTS
  6
CONTINUOUS
 62
    30
 10
232.0
 20
17.769758789393681
 30
0.0
  0
POINT
  8
DEFPOINTS
  6
CONTINUOUS
 62
    30
 10
232.0
 20
-397.94731712837063
 30
0.0
  0
LINE
  8
SIZE
  6
CONTINUOUS
 62
    30
 10
232.0
 20
-2.230241210606323
 30
0.0
 11
232.0
 21
-531.28981029600152
 31
0.0
  0
LINE
  8
SIZE
  6
CONTINUOUS
 62
    30
 10
-48.0
 20
-18.434341210606359
 30
0.0
 11
-48.0
 21
-531.28981029600152
 31
0.0
  0
LINE
  8
SIZE
  6
CONTINUOUS
 62
    30
 10
220.0
 20
-511.28981029600152
 30
0.0
 11
-36.0
 21
-511.28981029600152
 31
0.0
  0
CIRCLE
  8
SIZE
  6
CONTINUOUS
 62
    30
 10
232.0
 20
-511.28981029600152
 30
0.0
 40
6.0
  0
LINE
  8
SIZE
  6
CONTINUOUS
 62
    30
 10
232.0
 20
-511.28981029600152
 30
0.0
 11
220.0
 21
-511.28981029600152
 31
0.0
  0
CIRCLE
  8
SIZE
  6
CONTINUOUS
 62
    30
 10
-48.0
 20
-511.28981029600152
 30
0.0
 40
6.0
  0
LINE
  8
SIZE
  6
CONTINUOUS
 62
    30
 10
-48.0
 20
-511.28981029600152
 30
0.0
 11
-36.0
 21
-511.28981029600152
 31
0.0
  0
TEXT
  8
SIZE
  6
CONTINUOUS
 62
    30
 10
17.942857142857161
 20
-486.28981029600152
 30
0.0
 40
64.0
  1
280
 41
0.9
 72
     1
 11
92.0
 21
-486.28981029600152
 31
0.0
  0
POINT
  8
DEFPOINTS
  6
CONTINUOUS
 62
    30
 10
232.0
 20
17.769758789393681
 30
0.0
  0
POINT
  8
DEFPOINTS
  6
CONTINUOUS
 62
    30
 10
-48.0
 20
1.565658789393638
 30
0.0
  0
POINT
  8
DEFPOINTS
  6
CONTINUOUS
 62
    30
 10
-48.0
 20
-511.28981029600152
 30
0.0
  0
LINE
  8
SIZE
  6
CONTINUOUS
 62
    30
 10
-48.0
 20
-18.434341210606359
 30
0.0
 11
-48.0
 21
-531.28981029600152
 31
0.0
  0
LINE
  8
SIZE
  6
CONTINUOUS
 62
    30
 10
-328.0
 20
-18.434341210606359
 30
0.0
 11
-328.0
 21
-531.28981029600152
 31
0.0
  0
LINE
  8
SIZE
  6
CONTINUOUS
 62
    30
 10
-60.0
 20
-511.28981029600152
 30
0.0
 11
-316.0
 21
-511.28981029600152
 31
0.0
  0
CIRCLE
  8
SIZE
  6
CONTINUOUS
 62
    30
 10
-48.0
 20
-511.28981029600152
 30
0.0
 40
6.0
  0
LINE
  8
SIZE
  6
CONTINUOUS
 62
    30
 10
-48.0
 20
-511.28981029600152
 30
0.0
 11
-60.0
 21
-511.28981029600152
 31
0.0
  0
CIRCLE
  8
SIZE
  6
CONTINUOUS
 62
    30
 10
-328.0
 20
-511.28981029600152
 30
0.0
 40
6.0
  0
LINE
  8
SIZE
  6
CONTINUOUS
 62
    30
 10
-328.0
 20
-511.28981029600152
 30
0.0
 11
-316.0
 21
-511.28981029600152
 31
0.0
  0
TEXT
  8
SIZE
  6
CONTINUOUS
 62
    30
 10
-262.05714285714282
 20
-486.28981029600152
 30
0.0
 40
64.0
  1
280
 41
0.9
 72
     1
 11
-188.0
 21
-486.28981029600152
 31
0.0
  0
POINT
  8
DEFPOINTS
  6
CONTINUOUS
 62
    30
 10
-48.0
 20
1.565658789393638
 30
0.0
  0
POINT
  8
DEFPOINTS
  6
CONTINUOUS
 62
    30
 10
-328.0
 20
1.565658789393638
 30
0.0
  0
POINT
  8
DEFPOINTS
  6
CONTINUOUS
 62
    30
 10
-328.0
 20
-511.28981029600152
 30
0.0
  0
LINE
  8
SIZE
  6
CONTINUOUS
 62
    30
 10
-398.99999936224958
 20
25.00003853600003
 30
0.0
 11
-735.28751216448791
 21
25.000038536000151
 31
0.0
  0
LINE
  8
SIZE
  6
CONTINUOUS
 62
    30
 10
-419.39058415024903
 20
-0.0000000000003411
 30
0.0
 11
-735.28751216448791
 21
-0.0000000000002274
 31
0.0
  0
LINE
  8
SIZE
  6
CONTINUOUS
 62
    30
 10
-715.28751216448825
 20
37.000038536000147
 30
0.0
 11
-715.28751216448825
 21
49.000038536000147
 31
0.0
  0
LINE
  8
SIZE
  6
CONTINUOUS
 62
    30
 10
-715.28751216448825
 20
-12.000000000000229
 30
0.0
 11
-715.28751216448848
 21
-295.03018571428612
 31
0.0
  0
LINE
  8
SIZE
  6
CONTINUOUS
 62
    30
 10
-715.28751216448825
 20
25.000038536000151
 30
0.0
 11
-715.28751216448825
 21
-0.0000000000002274
 31
0.0
  0
CIRCLE
  8
SIZE
  6
CONTINUOUS
 62
    30
 10
-715.28751216448825
 20
25.000038536000151
 30
0.0
 40
6.0
  0
LINE
  8
SIZE
  6
CONTINUOUS
 62
    30
 10
-715.28751216448825
 20
25.000038536000151
 30
0.0
 11
-715.28751216448825
 21
37.000038536000147
 31
0.0
  0
CIRCLE
  8
SIZE
  6
CONTINUOUS
 62
    30
 10
-715.28751216448825
 20
-0.0000000000002274
 30
0.0
 40
6.0
  0
LINE
  8
SIZE
  6
CONTINUOUS
 62
    30
 10
-715.28751216448825
 20
-0.0000000000002274
 30
0.0
 11
-715.28751216448825
 21
-12.000000000000229
 31
0.0
  0
TEXT
  8
SIZE
  6
CONTINUOUS
 62
    30
 10
-740.28751216448802
 20
-270.03018571428618
 30
0.0
 40
64.0
  1
9～25
 50
90.0
 41
0.9
 72
     1
 11
-740.28751216448802
 21
-161.4130428571433
 31
0.0
  0
POINT
  8
DEFPOINTS
  6
CONTINUOUS
 62
    30
 10
-378.99999936224958
 20
25.00003853600003
 30
0.0
  0
POINT
  8
DEFPOINTS
  6
CONTINUOUS
 62
    30
 10
-399.3905841502492
 20
-0.0000000000003411
 30
0.0
  0
POINT
  8
DEFPOINTS
  6
CONTINUOUS
 62
    30
 10
-715.28751216448825
 20
-0.0000000000002274
 30
0.0
  0
LINE
  8
SIZE
  6
CONTINUOUS
 62
    30
 10
-419.39058415024903
 20
-0.0000000000003411
 30
0.0
 11
-606.42728665661161
 21
-0.0000000000002274
 31
0.0
  0
LINE
  8
SIZE
  6
CONTINUOUS
 62
    30
 10
-419.39058415024903
 20
-8.9958462299996427
 30
0.0
 11
-606.42728665661161
 21
-8.9958462299994153
 31
0.0
  0
LINE
  8
SIZE
  6
CONTINUOUS
 62
    30
 10
-586.42728665661161
 20
28.204099999999581
 30
0.0
 11
-586.42728665661161
 21
40.204099999999578
 31
0.0
  0
LINE
  8
SIZE
  6
CONTINUOUS
 62
    30
 10
-586.42728665661161
 20
-20.995846229999639
 30
0.0
 11
-586.42728665661161
 21
-149.87746051571389
 31
0.0
  0
LINE
  8
SIZE
  6
CONTINUOUS
 62
    30
 10
-586.42728665661161
 20
-0.0000000000003411
 30
0.0
 11
-586.42728665661161
 21
-8.9958462299996427
 31
0.0
  0
CIRCLE
  8
SIZE
  6
CONTINUOUS
 62
    30
 10
-586.42728665661161
 20
-0.0000000000003411
 30
0.0
 40
6.0
  0
LINE
  8
SIZE
  6
CONTINUOUS
 62
    30
 10
-586.42728665661161
 20
-0.0000000000003411
 30
0.0
 11
-586.42728665661161
 21
28.204099999999581
 31
0.0
  0
CIRCLE
  8
SIZE
  6
CONTINUOUS
 62
    30
 10
-586.42728665661161
 20
-8.9958462299996427
 30
0.0
 40
6.0
  0
LINE
  8
SIZE
  6
CONTINUOUS
 62
    30
 10
-586.42728665661161
 20
-8.9958462299996427
 30
0.0
 11
-586.42728665661161
 21
-20.995846229999639
 31
0.0
  0
TEXT
  8
SIZE
  6
CONTINUOUS
 62
    30
 10
-611.42728665661161
 20
-124.87746051571401
 30
0.0
 40
64.0
  1
9
 50
90.0
 41
0.9
 72
     1
 11
-611.42728665661161
 21
-107.0488890871426
 31
0.0
  0
POINT
  8
DEFPOINTS
  6
CONTINUOUS
 62
    30
 10
-399.3905841502492
 20
-0.0000000000003411
 30
0.0
  0
POINT
  8
DEFPOINTS
  6
CONTINUOUS
 62
    30
 10
-399.3905841502492
 20
-8.9958462299996427
 30
0.0
  0
POINT
  8
DEFPOINTS
  6
CONTINUOUS
 62
    30
 10
-586.42728665661161
 20
-8.9958462299996427
 30
0.0
  0
LINE
  8
SIZE
  6
CONTINUOUS
 62
    30
 10
-398.99999936224958
 20
25.00003853600003
 30
0.0
 11
-1252.75549395951
 21
25.000038536000261
 31
0.0
  0
LINE
  8
SIZE
  6
CONTINUOUS
 62
    30
 10
-398.99999936224958
 20
263.09010209000053
 30
0.0
 11
-1252.75549395951
 21
263.09010209000098
 31
0.0
  0
LINE
  8
SIZE
  6
CONTINUOUS
 62
    30
 10
-1232.75549395951
 20
37.000038536000261
 30
0.0
 11
-1232.75549395951
 21
251.09010209000101
 31
0.0
  0
CIRCLE
  8
SIZE
  6
CONTINUOUS
 62
    30
 10
-1232.75549395951
 20
25.000038536000261
 30
0.0
 40
6.0
  0
LINE
  8
SIZE
  6
CONTINUOUS
 62
    30
 10
-1232.75549395951
 20
25.000038536000261
 30
0.0
 11
-1232.75549395951
 21
37.000038536000261
 31
0.0
  0
CIRCLE
  8
SIZE
  6
CONTINUOUS
 62
    30
 10
-1232.75549395951
 20
263.09010209000098
 30
0.0
 40
6.0
  0
LINE
  8
SIZE
  6
CONTINUOUS
 62
    30
 10
-1232.75549395951
 20
263.09010209000098
 30
0.0
 11
-1232.75549395951
 21
251.09010209000101
 31
0.0
  0
TEXT
  8
SIZE
  6
CONTINUOUS
 62
    30
 10
-1257.75549395951
 20
69.987927455857715
 30
0.0
 40
64.0
  1
238
 50
90.0
 41
0.9
 72
     1
 11
-1257.75549395951
 21
144.04507031300059
 31
0.0
  0
POINT
  8
DEFPOINTS
  6
CONTINUOUS
 62
    30
 10
-378.99999936224958
 20
25.00003853600003
 30
0.0
  0
POINT
  8
DEFPOINTS
  6
CONTINUOUS
 62
    30
 10
-378.99999936224958
 20
263.09010209000053
 30
0.0
  0
POINT
  8
DEFPOINTS
  6
CONTINUOUS
 62
    30
 10
-1232.75549395951
 20
263.09010209000098
 30
0.0
  0
LINE
  8
SIZE
  6
CONTINUOUS
 62
    30
 10
-230.39181876314251
 20
302.42194088450071
 30
0.0
 11
-1252.75549395951
 21
302.42194088450128
 31
0.0
  0
LINE
  8
SIZE
  6
CONTINUOUS
 62
    30
 10
-397.85053012175001
 20
263.09010209000053
 30
0.0
 11
-1252.75549395951
 21
263.09010209000098
 31
0.0
  0
LINE
  8
SIZE
  6
CONTINUOUS
 62
    30
 10
-1232.75549395951
 20
251.09010209000101
 30
0.0
 11
-1232.75549395951
 21
239.09010209000101
 31
0.0
  0
LINE
  8
SIZE
  6
CONTINUOUS
 62
    30
 10
-1232.75549395951
 20
314.42194088450128
 30
0.0
 11
-1232.75549395951
 21
466.93622659878628
 31
0.0
  0
LINE
  8
SIZE
  6
CONTINUOUS
 62
    30
 10
-1232.75549395951
 20
263.09010209000098
 30
0.0
 11
-1232.75549395951
 21
302.42194088450128
 31
0.0
  0
CIRCLE
  8
SIZE
  6
CONTINUOUS
 62
    30
 10
-1232.75549395951
 20
263.09010209000098
 30
0.0
 40
6.0
  0
LINE
  8
SIZE
  6
CONTINUOUS
 62
    30
 10
-1232.75549395951
 20
263.09010209000098
 30
0.0
 11
-1232.75549395951
 21
251.09010209000101
 31
0.0
  0
CIRCLE
  8
SIZE
  6
CONTINUOUS
 62
    30
 10
-1232.75549395951
 20
302.42194088450128
 30
0.0
 40
6.0
  0
LINE
  8
SIZE
  6
CONTINUOUS
 62
    30
 10
-1232.75549395951
 20
302.42194088450128
 30
0.0
 11
-1232.75549395951
 21
314.42194088450128
 31
0.0
  0
TEXT
  8
SIZE
  6
CONTINUOUS
 62
    30
 10
-1257.75549395951
 20
351.42194088450088
 30
0.0
 40
64.0
  1
39
 50
90.0
 41
0.9
 72
     1
 11
-1257.75549395951
 21
396.67908374164381
 31
0.0
  0
POINT
  8
DEFPOINTS
  6
CONTINUOUS
 62
    30
 10
-210.39181876314251
 20
302.42194088450071
 30
0.0
  0
POINT
  8
DEFPOINTS
  6
CONTINUOUS
 62
    30
 10
-377.85053012175001
 20
263.09010209000053
 30
0.0
  0
POINT
  8
DEFPOINTS
  6
CONTINUOUS
 62
    30
 10
-1232.75549395951
 20
263.09010209000098
 30
0.0
  0
LINE
  8
SIZE
  6
CONTINUOUS
 62
    30
 10
-397.85053012175001
 20
268.08779444000038
 30
0.0
 11
-1145.436093896875
 21
268.08779444000072
 31
0.0
  0
LINE
  8
SIZE
  6
CONTINUOUS
 62
    30
 10
-398.99999936224958
 20
263.09010209000053
 30
0.0
 11
-1145.436093896875
 21
263.09010209000098
 31
0.0
  0
LINE
  8
SIZE
  6
CONTINUOUS
 62
    30
 10
-1125.436093896875
 20
251.09010209000101
 30
0.0
 11
-1125.436093896875
 21
239.09010209000101
 31
0.0
  0
LINE
  8
SIZE
  6
CONTINUOUS
 62
    30
 10
-1125.436093896875
 20
280.08779444000072
 30
0.0
 11
-1125.436093896875
 21
459.18407829488552
 31
0.0
  0
LINE
  8
SIZE
  6
CONTINUOUS
 62
    30
 10
-1125.436093896875
 20
263.09010209000098
 30
0.0
 11
-1125.436093896875
 21
268.08779444000072
 31
0.0
  0
CIRCLE
  8
SIZE
  6
CONTINUOUS
 62
    30
 10
-1125.436093896875
 20
263.09010209000098
 30
0.0
 40
6.0
  0
LINE
  8
SIZE
  6
CONTINUOUS
 62
    30
 10
-1125.436093896875
 20
263.09010209000098
 30
0.0
 11
-1125.436093896875
 21
251.09010209000101
 31
0.0
  0
CIRCLE
  8
SIZE
  6
CONTINUOUS
 62
    30
 10
-1125.436093896875
 20
268.08779444000072
 30
0.0
 40
6.0
  0
LINE
  8
SIZE
  6
CONTINUOUS
 62
    30
 10
-1125.436093896875
 20
268.08779444000072
 30
0.0
 11
-1125.436093896875
 21
280.08779444000072
 31
0.0
  0
TEXT
  8
SIZE
  6
CONTINUOUS
 62
    30
 10
-1150.436093896875
 20
395.78407829488498
 30
0.0
 40
64.0
  1
5
 50
90.0
 41
0.9
 72
     1
 11
-1150.436093896875
 21
414.98407829488502
 31
0.0
  0
POINT
  8
DEFPOINTS
  6
CONTINUOUS
 62
    30
 10
-377.85053012175001
 20
268.08779444000038
 30
0.0
  0
POINT
  8
DEFPOINTS
  6
CONTINUOUS
 62
    30
 10
-378.99999936224958
 20
263.09010209000053
 30
0.0
  0
POINT
  8
DEFPOINTS
  6
CONTINUOUS
 62
    30
 10
-1125.436093896875
 20
263.09010209000098
 30
0.0
  0
LINE
  8
SIZE
  6
CONTINUOUS
 62
    30
 10
-398.99999936224958
 20
25.00003853600003
 30
0.0
 11
-1010.598920593387
 21
25.000038536000261
 31
0.0
  0
LINE
  8
SIZE
  6
CONTINUOUS
 62
    30
 10
-497.93273014347142
 20
133.00003853600009
 30
0.0
 11
-1010.598920593387
 21
133.00003853600029
 31
0.0
  0
LINE
  8
SIZE
  6
CONTINUOUS
 62
    30
 10
-990.59892059338745
 20
121.0000385360001
 30
0.0
 11
-990.59892059338745
 21
37.000038536000261
 31
0.0
  0
LINE
  8
SIZE
  6
CONTINUOUS
 62
    30
 10
-990.59892059338745
 20
25.000038536000261
 30
0.0
 11
-990.59892059338745
 21
-216.8804358123196
 31
0.0
  0
CIRCLE
  8
SIZE
  6
CONTINUOUS
 62
    30
 10
-990.59892059338745
 20
133.00003853600009
 30
0.0
 40
6.0
  0
LINE
  8
SIZE
  6
CONTINUOUS
 62
    30
 10
-990.59892059338745
 20
133.00003853600009
 30
0.0
 11
-990.59892059338745
 21
121.0000385360001
 31
0.0
  0
CIRCLE
  8
SIZE
  6
CONTINUOUS
 62
    30
 10
-990.59892059338745
 20
25.000038536000261
 30
0.0
 40
6.0
  0
LINE
  8
SIZE
  6
CONTINUOUS
 62
    30
 10
-990.59892059338745
 20
25.000038536000261
 30
0.0
 11
-990.59892059338745
 21
37.000038536000261
 31
0.0
  0
TEXT
  8
SIZE
  6
CONTINUOUS
 62
    30
 10
-1015.598920593387
 20
-191.8804358123198
 30
0.0
 40
64.0
  1
108
 50
90.0
 41
0.9
 72
     1
 11
-1015.598920593387
 21
-123.30900724089121
 31
0.0
  0
POINT
  8
DEFPOINTS
  6
CONTINUOUS
 62
    30
 10
-378.99999936224958
 20
25.00003853600003
 30
0.0
  0
POINT
  8
DEFPOINTS
  6
CONTINUOUS
 62
    30
 10
-477.9327301434713
 20
133.00003853600009
 30
0.0
  0
POINT
  8
DEFPOINTS
  6
CONTINUOUS
 62
    30
 10
-990.59892059338745
 20
133.00003853600009
 30
0.0
  0
LINE
  8
SIZE
  6
CONTINUOUS
 62
    30
 10
-398.99999936224958
 20
25.00003853600003
 30
0.0
 11
-1112.414766007849
 21
25.000038536000261
 31
0.0
  0
LINE
  8
SIZE
  6
CONTINUOUS
 62
    30
 10
-498.86427917639412
 20
199.00003853600009
 30
0.0
 11
-1112.414766007849
 21
199.00003853600009
 31
0.0
  0
LINE
  8
SIZE
  6
CONTINUOUS
 62
    30
 10
-1092.414766007849
 20
13.000038536000259
 30
0.0
 11
-1092.414766007849
 21
1.000038536000261
 31
0.0
  0
LINE
  8
SIZE
  6
CONTINUOUS
 62
    30
 10
-1092.414766007849
 20
211.00003853600009
 30
0.0
 11
-1092.414766007849
 21
223.00003853600009
 31
0.0
  0
LINE
  8
SIZE
  6
CONTINUOUS
 62
    30
 10
-1092.414766007849
 20
25.000038536000261
 30
0.0
 11
-1092.414766007849
 21
199.00003853600009
 31
0.0
  0
CIRCLE
  8
SIZE
  6
CONTINUOUS
 62
    30
 10
-1092.414766007849
 20
25.000038536000261
 30
0.0
 40
6.0
  0
LINE
  8
SIZE
  6
CONTINUOUS
 62
    30
 10
-1092.414766007849
 20
25.000038536000261
 30
0.0
 11
-1092.414766007849
 21
13.000038536000259
 31
0.0
  0
CIRCLE
  8
SIZE
  6
CONTINUOUS
 62
    30
 10
-1092.414766007849
 20
199.00003853600009
 30
0.0
 40
6.0
  0
LINE
  8
SIZE
  6
CONTINUOUS
 62
    30
 10
-1092.414766007849
 20
199.00003853600009
 30
0.0
 11
-1092.414766007849
 21
211.00003853600009
 31
0.0
  0
TEXT
  8
SIZE
  6
CONTINUOUS
 62
    30
 10
-1117.414766007849
 20
42.057181393143132
 30
0.0
 40
64.0
  1
174
 50
90.0
 41
0.9
 72
     1
 11
-1117.414766007849
 21
112.0000385360003
 31
0.0
  0
POINT
  8
DEFPOINTS
  6
CONTINUOUS
 62
    30
 10
-378.99999936224958
 20
25.00003853600003
 30
0.0
  0
POINT
  8
DEFPOINTS
  6
CONTINUOUS
 62
    30
 10
-478.86427917639389
 20
199.00003853600009
 30
0.0
  0
POINT
  8
DEFPOINTS
  6
CONTINUOUS
 62
    30
 10
-1092.414766007849
 20
199.00003853600009
 30
0.0
  0
LINE
  8
SIZE
  6
CONTINUOUS
 62
    30
 10
481.21209757178423
 20
133.75806105273301
 30
0.0
 11
622.3792767122784
 21
133.75806105273301
 31
0.0
  0
LINE
  8
SIZE
  6
CONTINUOUS
 62
    30
 10
481.21210640090612
 20
84.764202206301547
 30
0.0
 11
622.3792767122784
 21
84.764202206301547
 31
0.0
  0
LINE
  8
SIZE
  6
CONTINUOUS
 62
    30
 10
602.3792767122784
 20
145.75806105273301
 30
0.0
 11
602.3792767122784
 21
157.75806105273301
 31
0.0
  0
LINE
  8
SIZE
  6
CONTINUOUS
 62
    30
 10
602.3792767122784
 20
72.764202206301547
 30
0.0
 11
602.3792767122784
 21
-195.50542221803681
 31
0.0
  0
LINE
  8
SIZE
  6
CONTINUOUS
 62
    30
 10
602.3792767122784
 20
133.75806105273301
 30
0.0
 11
602.3792767122784
 21
84.764202206301547
 31
0.0
  0
CIRCLE
  8
SIZE
  6
CONTINUOUS
 62
    30
 10
602.3792767122784
 20
133.75806105273301
 30
0.0
 40
6.0
  0
LINE
  8
SIZE
  6
CONTINUOUS
 62
    30
 10
602.3792767122784
 20
133.75806105273301
 30
0.0
 11
602.3792767122784
 21
145.75806105273301
 31
0.0
  0
CIRCLE
  8
SIZE
  6
CONTINUOUS
 62
    30
 10
602.3792767122784
 20
84.764202206301547
 30
0.0
 40
6.0
  0
LINE
  8
SIZE
  6
CONTINUOUS
 62
    30
 10
602.3792767122784
 20
84.764202206301547
 30
0.0
 11
602.3792767122784
 21
72.764202206301547
 31
0.0
  0
TEXT
  8
SIZE
  6
CONTINUOUS
 62
    30
 10
566.71261004561165
 20
-180.65399364660809
 30
0.0
 40
64.0
  1
φ49
 50
90.0
 41
0.9
 72
     1
 11
566.71261004561165
 21
-95.076850789465198
 31
0.0
  0
POINT
  8
DEFPOINTS
  6
CONTINUOUS
 62
    30
 10
461.21209757178423
 20
133.75806105273301
 30
0.0
  0
POINT
  8
DEFPOINTS
  6
CONTINUOUS
 62
    30
 10
461.21210640090612
 20
84.764202206301547
 30
0.0
  0
POINT
  8
DEFPOINTS
  6
CONTINUOUS
 62
    30
 10
602.3792767122784
 20
84.764202206301547
 30
0.0
  0
LINE
  8
SIZE
  6
CONTINUOUS
 62
    30
 10
-460.77147680824783
 20
246.90745842668619
 30
0.0
 11
-799.19461813667635
 21
246.90745842668619
 31
0.0
  0
LINE
  8
SIZE
  6
CONTINUOUS
 62
    30
 10
-461.77101527824931
 20
152.73899125688439
 30
0.0
 11
-799.19461813667635
 21
152.73899125688439
 31
0.0
  0
LINE
  8
SIZE
  6
CONTINUOUS
 62
    30
 10
-779.19461813667635
 20
164.73899125688439
 30
0.0
 11
-779.19461813667635
 21
234.90745842668619
 31
0.0
  0
LINE
  8
SIZE
  6
CONTINUOUS
 62
    30
 10
-779.19461813667635
 20
246.90745842668619
 30
0.0
 11
-779.19461813667635
 21
506.6212134400339
 31
0.0
  0
CIRCLE
  8
SIZE
  6
CONTINUOUS
 62
    30
 10
-779.19461813667635
 20
152.73899125688439
 30
0.0
 40
6.0
  0
LINE
  8
SIZE
  6
CONTINUOUS
 62
    30
 10
-779.19461813667635
 20
152.73899125688439
 30
0.0
 11
-779.19461813667635
 21
164.73899125688439
 31
0.0
  0
CIRCLE
  8
SIZE
  6
CONTINUOUS
 62
    30
 10
-779.19461813667635
 20
246.90745842668619
 30
0.0
 40
6.0
  0
LINE
  8
SIZE
  6
CONTINUOUS
 62
    30
 10
-779.19461813667635
 20
246.90745842668619
 30
0.0
 11
-779.19461813667635
 21
234.90745842668619
 31
0.0
  0
TEXT
  8
SIZE
  6
CONTINUOUS
 62
    30
 10
-814.86128480334321
 20
317.87264201146229
 30
0.0
 40
64.0
  1
φ98
 50
90.0
 41
0.9
 72
     1
 11
-814.86128480334321
 21
404.82121344003372
 31
0.0
  0
POINT
  8
DEFPOINTS
  6
CONTINUOUS
 62
    30
 10
-440.7714768082476
 20
246.90745842668619
 30
0.0
  0
POINT
  8
DEFPOINTS
  6
CONTINUOUS
 62
    30
 10
-441.77101527824931
 20
152.73899125688439
 30
0.0
  0
POINT
  8
DEFPOINTS
  6
CONTINUOUS
 62
    30
 10
-779.19461813667635
 20
152.73899125688439
 30
0.0
  0
LINE
  8
SIZE
  6
CONTINUOUS
 62
    30
 10
-460.7720857000968
 20
84.58762488166451
 30
0.0
 11
-939.81438327598698
 21
84.587624881664624
 31
0.0
  0
LINE
  8
SIZE
  6
CONTINUOUS
 62
    30
 10
-461.77101527824931
 20
180.37803033049991
 30
0.0
 11
-939.81438327598698
 21
180.3780303305
 31
0.0
  0
LINE
  8
SIZE
  6
CONTINUOUS
 62
    30
 10
-919.81438327598698
 20
96.587624881664624
 30
0.0
 11
-919.81438327598698
 21
168.3780303305
 31
0.0
  0
LINE
  8
SIZE
  6
CONTINUOUS
 62
    30
 10
-919.81438327598698
 20
180.3780303305
 30
0.0
 11
-919.81438327598698
 21
492.13818262441782
 31
0.0
  0
CIRCLE
  8
SIZE
  6
CONTINUOUS
 62
    30
 10
-919.81438327598698
 20
84.587624881664624
 30
0.0
 40
6.0
  0
LINE
  8
SIZE
  6
CONTINUOUS
 62
    30
 10
-919.81438327598698
 20
84.587624881664624
 30
0.0
 11
-919.81438327598698
 21
96.587624881664624
 31
0.0
  0
CIRCLE
  8
SIZE
  6
CONTINUOUS
 62
    30
 10
-919.81438327598698
 20
180.3780303305
 30
0.0
 40
6.0
  0
LINE
  8
SIZE
  6
CONTINUOUS
 62
    30
 10
-919.81438327598698
 20
180.3780303305
 30
0.0
 11
-919.81438327598698
 21
168.3780303305
 31
0.0
  0
TEXT
  8
SIZE
  6
CONTINUOUS
 62
    30
 10
-955.48104994265361
 20
303.38961119584621
 30
0.0
 40
64.0
  1
φ98
 50
90.0
 41
0.9
 72
     1
 11
-955.48104994265361
 21
390.33818262441758
 31
0.0
  0
POINT
  8
DEFPOINTS
  6
CONTINUOUS
 62
    30
 10
-440.7720857000968
 20
84.58762488166451
 30
0.0
  0
POINT
  8
DEFPOINTS
  6
CONTINUOUS
 62
    30
 10
-441.77101527824931
 20
180.37803033049991
 30
0.0
  0
POINT
  8
DEFPOINTS
  6
CONTINUOUS
 62
    30
 10
-919.81438327598698
 20
180.3780303305
 30
0.0
  0
LINE
  8
SIZE
  6
CONTINUOUS
 62
    30
 10
398.99999936224958
 20
25.00003853600003
 30
0.0
 11
765.0296790490338
 21
25.00003853599992
 31
0.0
  0
LINE
  8
SIZE
  6
CONTINUOUS
 62
    30
 10
505.66735225887351
 20
109.0000385360001
 30
0.0
 11
765.0296790490338
 21
109.00003853599991
 31
0.0
  0
LINE
  8
SIZE
  6
CONTINUOUS
 62
    30
 10
745.0296790490338
 20
97.00003853599992
 30
0.0
 11
745.0296790490338
 21
37.00003853599992
 31
0.0
  0
LINE
  8
SIZE
  6
CONTINUOUS
 62
    30
 10
745.0296790490338
 20
25.00003853599992
 30
0.0
 11
745.0296790490338
 21
-174.94281860685709
 31
0.0
  0
CIRCLE
  8
SIZE
  6
CONTINUOUS
 62
    30
 10
745.0296790490338
 20
109.00003853599991
 30
0.0
 40
6.0
  0
LINE
  8
SIZE
  6
CONTINUOUS
 62
    30
 10
745.0296790490338
 20
109.00003853599991
 30
0.0
 11
745.0296790490338
 21
97.00003853599992
 31
0.0
  0
CIRCLE
  8
SIZE
  6
CONTINUOUS
 62
    30
 10
745.0296790490338
 20
25.00003853599992
 30
0.0
 40
6.0
  0
LINE
  8
SIZE
  6
CONTINUOUS
 62
    30
 10
745.0296790490338
 20
25.00003853599992
 30
0.0
 11
745.0296790490338
 21
37.00003853599992
 31
0.0
  0
TEXT
  8
SIZE
  6
CONTINUOUS
 62
    30
 10
720.0296790490338
 20
-149.942818606857
 30
0.0
 40
64.0
  1
84
 50
90.0
 41
0.9
 72
     1
 11
720.0296790490338
 21
-101.942818606857
 31
0.0
  0
POINT
  8
DEFPOINTS
  6
CONTINUOUS
 62
    30
 10
378.99999936224958
 20
25.00003853600003
 30
0.0
  0
POINT
  8
DEFPOINTS
  6
CONTINUOUS
 62
    30
 10
485.66735225887328
 20
109.0000385360001
 30
0.0
  0
POINT
  8
DEFPOINTS
  6
CONTINUOUS
 62
    30
 10
745.0296790490338
 20
109.00003853599991
 30
0.0
  0
LINE
  8
SIZE
  6
CONTINUOUS
 62
    30
 10
398.99999936224958
 20
25.00003853600003
 30
0.0
 11
878.74789010764835
 21
25.00003853599992
 31
0.0
  0
LINE
  8
SIZE
  6
CONTINUOUS
 62
    30
 10
505.66735225887351
 20
219.00003853600009
 30
0.0
 11
878.74789010764835
 21
219.00003853599989
 31
0.0
  0
LINE
  8
SIZE
  6
CONTINUOUS
 62
    30
 10
858.74789010764835
 20
37.00003853599992
 30
0.0
 11
858.74789010764835
 21
207.00003853599989
 31
0.0
  0
CIRCLE
  8
SIZE
  6
CONTINUOUS
 62
    30
 10
858.74789010764835
 20
25.00003853599992
 30
0.0
 40
6.0
  0
LINE
  8
SIZE
  6
CONTINUOUS
 62
    30
 10
858.74789010764835
 20
25.00003853599992
 30
0.0
 11
858.74789010764835
 21
37.00003853599992
 31
0.0
  0
CIRCLE
  8
SIZE
  6
CONTINUOUS
 62
    30
 10
858.74789010764835
 20
219.00003853599989
 30
0.0
 40
6.0
  0
LINE
  8
SIZE
  6
CONTINUOUS
 62
    30
 10
858.74789010764835
 20
219.00003853599989
 30
0.0
 11
858.74789010764835
 21
207.00003853599989
 31
0.0
  0
TEXT
  8
SIZE
  6
CONTINUOUS
 62
    30
 10
833.74789010764835
 20
52.057181393143011
 30
0.0
 40
64.0
  1
194
 50
90.0
 41
0.9
 72
     1
 11
833.74789010764835
 21
122.0000385360001
 31
0.0
  0
POINT
  8
DEFPOINTS
  6
CONTINUOUS
 62
    30
 10
378.99999936224958
 20
25.00003853600003
 30
0.0
  0
POINT
  8
DEFPOINTS
  6
CONTINUOUS
 62
    30
 10
485.66735225887328
 20
219.00003853600009
 30
0.0
  0
POINT
  8
DEFPOINTS
  6
CONTINUOUS
 62
    30
 10
858.74789010764835
 20
219.00003853599989
 30
0.0
  0
LINE
  8
SIZE
  6
CONTINUOUS
 62
    30
 10
505.66735225887351
 20
109.0000385360001
 30
0.0
 11
765.0296790490338
 21
109.00003853599991
 31
0.0
  0
LINE
  8
SIZE
  6
CONTINUOUS
 62
    30
 10
505.66735225887351
 20
188.00003853600009
 30
0.0
 11
765.0296790490338
 21
188.00003853599989
 31
0.0
  0
LINE
  8
SIZE
  6
CONTINUOUS
 62
    30
 10
745.0296790490338
 20
121.00003853599981
 30
0.0
 11
745.0296790490338
 21
176.00003853599989
 31
0.0
  0
LINE
  8
SIZE
  6
CONTINUOUS
 62
    30
 10
745.0296790490338
 20
188.00003853599989
 30
0.0
 11
745.0296790490338
 21
367.93604687506132
 31
0.0
  0
CIRCLE
  8
SIZE
  6
CONTINUOUS
 62
    30
 10
745.0296790490338
 20
109.00003853599991
 30
0.0
 40
6.0
  0
LINE
  8
SIZE
  6
CONTINUOUS
 62
    30
 10
745.0296790490338
 20
109.00003853599991
 30
0.0
 11
745.0296790490338
 21
121.00003853599981
 31
0.0
  0
CIRCLE
  8
SIZE
  6
CONTINUOUS
 62
    30
 10
745.0296790490338
 20
188.00003853599989
 30
0.0
 40
6.0
  0
LINE
  8
SIZE
  6
CONTINUOUS
 62
    30
 10
745.0296790490338
 20
188.00003853599989
 30
0.0
 11
745.0296790490338
 21
176.00003853599989
 31
0.0
  0
TEXT
  8
SIZE
  6
CONTINUOUS
 62
    30
 10
720.0296790490338
 20
252.42176116077539
 30
0.0
 40
64.0
  1
79
 50
90.0
 41
0.9
 72
     1
 11
720.0296790490338
 21
297.67890401791828
 31
0.0
  0
POINT
  8
DEFPOINTS
  6
CONTINUOUS
 62
    30
 10
485.66735225887328
 20
109.0000385360001
 30
0.0
  0
POINT
  8
DEFPOINTS
  6
CONTINUOUS
 62
    30
 10
485.66735225887328
 20
188.00003853600009
 30
0.0
  0
POINT
  8
DEFPOINTS
  6
CONTINUOUS
 62
    30
 10
745.0296790490338
 20
188.00003853599989
 30
0.0
  0
LINE
  8
NOTE
  6
DASHDOT
 62
     4
 10
-350.43998425499188
 20
133.00003853600009
 30
0.0
 11
-477.9327301434713
 21
133.00003853600009
 31
0.0
  0
LINE
  8
NOTE
  6
DASHDOT
 62
     4
 10
-359.37572919785453
 20
199.00003853600009
 30
0.0
 11
-478.86427917639389
 21
199.00003853600009
 31
0.0
  0
LINE
  8
NOTE
  6
DASHDOT
 62
     4
 10
485.66735225887328
 20
219.00003853600009
 30
0.0
 11
355.23622342400807
 21
219.00003853600009
 31
0.0
  0
LINE
  8
NOTE
  6
DASHDOT
 62
     4
 10
485.66735225887328
 20
109.0000385360001
 30
0.0
 11
354.20105271595997
 21
109.0000385360001
 31
0.0
  0
LINE
  8
NOTE
  6
DASHDOT
 62
     4
 10
485.66735225887328
 20
188.00003853600009
 30
0.0
 11
351.09555644095047
 21
188.00003853600009
 31
0.0
  0
LINE
  8
DETAIL
  6
CONTINUOUS
 62
     5
 10
-402.38919956024978
 20
184.82524900392639
 30
0.0
 11
-431.77563057824932
 21
181.72661532567301
 31
0.0
  0
LINE
  8
DETAIL
  6
CONTINUOUS
 62
     5
 10
-431.77563057824932
 20
181.72661532567301
 30
0.0
 11
-440.7720857000968
 21
181.41245219033539
 31
0.0
  0
LINE
  8
DETAIL
  6
CONTINUOUS
 62
     5
 10
-379.38236973436523
 20
202.60046784812641
 30
0.0
 11
-401.39838359819259
 21
202.4083370062184
 31
0.0
  0
LINE
  8
DETAIL
  6
CONTINUOUS
 62
     5
 10
-440.7720857000968
 20
181.41245219033539
 30
0.0
 11
-441.77101527824931
 21
180.37803033049991
 31
0.0
  0
ARC
  8
DETAIL
  6
CONTINUOUS
 62
     5
 10
-401.38966109025
 20
201.40883659564449
 30
0.0
 40
0.9995384700003296
 50
90.500000001007749
 51
180.0
  0
LINE
  8
NOTE
  6
DASHDOT
 62
     4
 10
-172.0
 20
-47.595736504175868
 30
0.0
 11
-172.0
 21
99.187263412867765
 31
0.0
  0
TEXT
  8
NOTE
  6
CONTINUOUS
 62
     4
 10
379.37499195658529
 20
-283.89472071163328
 30
0.0
 40
64.0
  1
野縁ネジ（6ヵ所）
 41
0.9
  0
TEXT
  8
ETC
  6
CONTINUOUS
 62
    61
 10
1038.2741026438021
 20
467.97813511167828
 30
0.0
 40
40.0
  1
VL-11ZFH2
 41
0.9
  0
TEXT
  8
ETC
  6
CONTINUOUS
 62
    61
 10
1041.8697934844611
 20
370.94672926380201
 30
0.0
 40
40.0
  1
VL-08ZFH2
 41
0.9
  0
TEXT
  8
ETC
  6
CONTINUOUS
 62
    61
 10
1041.8697934844611
 20
277.5090756387591
 30
0.0
 40
40.0
  1
VL-08ZF2
 41
0.9
  0
TEXT
  8
ETC
  6
CONTINUOUS
 62
    61
 10
1052.6568660064411
 20
180.47766979088399
 30
0.0
 40
40.0
  1
VL-11ZF2
 41
0.9
  0
LINE
  8
OUTLINE
  6
CONTINUOUS
 62
     3
 10
461.71180775475108
 20
211.71368327331811
 30
0.0
 11
461.71180775475108
 21
163.73611963018311
 31
0.0
  0
LINE
  8
OUTLINE
  6
CONTINUOUS
 62
     3
 10
461.71180775475108
 20
133.25005483700039
 30
0.0
 11
461.71180775475108
 21
85.272208277000232
 31
0.0
  0
LINE
  8
OUTLINE
  6
CONTINUOUS
 62
     3
 10
461.21210641640027
 20
212.22183080219881
 30
0.0
 11
461.21210641640027
 21
163.22797210180269
 31
0.0
  0
LINE
  8
OUTLINE
  6
CONTINUOUS
 62
     3
 10
461.21210640090612
 20
133.758060907198
 30
0.0
 11
461.21210640090612
 21
84.764202206301547
 31
0.0
  0
LINE
  8
OUTLINE
  6
CONTINUOUS
 62
     3
 10
426.22819206975151
 20
73.873505176600361
 30
0.0
 11
426.22819206975151
 21
144.64875793939859
 31
0.0
  0
LINE
  8
OUTLINE
  6
CONTINUOUS
 62
     3
 10
461.71180342724978
 20
211.7138204839616
 30
0.0
 11
461.21210199094281
 21
212.22182645520519
 31
0.0
  0
LINE
  8
OUTLINE
  6
CONTINUOUS
 62
     3
 10
416.23280736975153
 20
157.2389781170001
 30
0.0
 11
416.23280736975153
 21
218.21082478700069
 31
0.0
  0
LINE
  8
OUTLINE
  6
CONTINUOUS
 62
     3
 10
414.23373042975072
 20
71.769765147559724
 30
0.0
 11
414.23373042975072
 21
89.723096962007389
 31
0.0
  0
LINE
  8
OUTLINE
  6
CONTINUOUS
 62
     3
 10
414.23373042975072
 20
89.723096962007389
 30
0.0
 11
414.23373042975072
 21
146.75249865762149
 31
0.0
  0
LINE
  8
OUTLINE
  6
CONTINUOUS
 62
     3
 10
414.23373042975072
 20
150.23354786763829
 30
0.0
 11
414.23373042975072
 21
257.20148607636168
 31
0.0
  0
LINE
  8
OUTLINE
  6
CONTINUOUS
 62
     3
 10
383.24803785975018
 20
230.71374035690189
 30
0.0
 11
383.24803785975018
 21
209.2721955575804
 31
0.0
  0
LINE
  8
OUTLINE
  6
CONTINUOUS
 62
     3
 10
383.24803785975018
 20
209.2721955575804
 30
0.0
 11
383.24803785975018
 21
152.38203695725011
 31
0.0
  0
LINE
  8
OUTLINE
  6
CONTINUOUS
 62
     3
 10
383.24803785975018
 20
159.87857548224989
 30
0.0
 11
383.24803785975018
 21
89.723096962007389
 31
0.0
  0
LINE
  8
OUTLINE
  6
CONTINUOUS
 62
     3
 10
383.24803785975018
 20
89.723096962007389
 30
0.0
 11
383.24803785975018
 21
66.272300019195995
 31
0.0
  0
LINE
  8
OUTLINE
  6
CONTINUOUS
 62
     3
 10
461.71180343174638
 20
133.2500505844632
 30
0.0
 11
461.21210198644621
 21
133.75805656470371
 31
0.0
  0
LINE
  8
OUTLINE
  6
CONTINUOUS
 62
     3
 10
461.71180343174638
 20
85.272212529536432
 30
0.0
 11
461.21210198644621
 21
84.764206548797688
 31
0.0
  0
LINE
  8
OUTLINE
  6
CONTINUOUS
 62
     3
 10
461.71180342724978
 20
163.7359824195388
 30
0.0
 11
461.21210199094281
 21
163.22797644829421
 31
0.0
  0
LINE
  8
OUTLINE
  6
CONTINUOUS
 62
     3
 10
378.99999936224958
 20
65.244366806273888
 30
0.0
 11
382.25722189769289
 21
65.272792157063691
 31
0.0
  0
LINE
  8
OUTLINE
  6
CONTINUOUS
 62
     3
 10
384.23885382180919
 20
70.51713913948754
 30
0.0
 11
413.24291446769172
 21
70.770253742063346
 31
0.0
  0
LINE
  8
OUTLINE
  6
CONTINUOUS
 62
     3
 10
414.23373042975072
 20
72.777977402000602
 30
0.0
 11
425.23737610769223
 21
72.874004763028665
 31
0.0
  0
LINE
  8
OUTLINE
  6
CONTINUOUS
 62
     3
 10
461.21210640090612
 20
84.764202206301547
 30
0.0
 11
426.22819206975151
 21
84.187544277626898
 31
0.0
  0
LINE
  8
OUTLINE
  6
CONTINUOUS
 62
     3
 10
461.21210640090612
 20
133.758060907198
 30
0.0
 11
426.22819206975151
 21
134.33471883587359
 31
0.0
  0
LINE
  8
OUTLINE
  6
CONTINUOUS
 62
     3
 10
414.23373042975072
 20
145.74428571200019
 30
0.0
 11
425.23737610769223
 21
145.64825835097199
 31
0.0
  0
LINE
  8
OUTLINE
  6
CONTINUOUS
 62
     3
 10
384.23885382180919
 20
148.00512397451399
 30
0.0
 11
413.24291446769172
 21
147.7520093719364
 31
0.0
  0
LINE
  8
OUTLINE
  6
CONTINUOUS
 62
     3
 10
378.99999936224958
 20
153.27789630722759
 30
0.0
 11
382.25722189769289
 21
153.2494709569369
 31
0.0
  0
LINE
  8
OUTLINE
  6
CONTINUOUS
 62
     3
 10
384.23885382180919
 20
148.9809090344867
 30
0.0
 11
413.24291446769172
 21
149.2340236370633
 31
0.0
  0
LINE
  8
OUTLINE
  6
CONTINUOUS
 62
     3
 10
416.23280736975153
 20
157.2389781170001
 30
0.0
 11
414.23373042975072
 21
157.2389781170001
 31
0.0
  0
LINE
  8
OUTLINE
  6
CONTINUOUS
 62
     3
 10
461.21210641040079
 20
163.2279721013025
 30
0.0
 11
416.23280736975153
 21
162.48655508450031
 31
0.0
  0
LINE
  8
OUTLINE
  6
CONTINUOUS
 62
     3
 10
416.23280736975153
 20
218.21082478700069
 30
0.0
 11
414.23373042975072
 21
218.21082478700069
 31
0.0
  0
LINE
  8
OUTLINE
  6
CONTINUOUS
 62
     3
 10
461.21210641040079
 20
212.22183080219881
 30
0.0
 11
416.23280736975153
 21
212.96324781950051
 31
0.0
  0
LINE
  8
OUTLINE
  6
CONTINUOUS
 62
     3
 10
384.23885382180919
 20
226.46889386951321
 30
0.0
 11
413.24291446769172
 21
226.21577926693649
 31
0.0
  0
LINE
  8
OUTLINE
  6
CONTINUOUS
 62
     3
 10
378.99999936224958
 20
231.74166620222749
 30
0.0
 11
382.25722189769289
 21
231.71324085193609
 31
0.0
  0
LINE
  8
OUTLINE
  6
CONTINUOUS
 62
     3
 10
378.99999936224958
 20
258.49984369967729
 30
0.0
 11
413.24291446769172
 21
258.20101030693661
 31
0.0
  0
ARC
  8
OUTLINE
  6
CONTINUOUS
 62
     3
 10
413.2341919597493
 20
150.23352404763659
 30
0.0
 40
0.9995384699999398
 50
270.49999999996538
 51
0.0
  0
ARC
  8
OUTLINE
  6
CONTINUOUS
 62
     3
 10
384.24757632975161
 20
147.9814086234135
 30
0.0
 40
0.9995384699999398
 50
90.500000000069718
 51
180.0
  0
ARC
  8
OUTLINE
  6
CONTINUOUS
 62
     3
 10
425.22865359974998
 20
73.873505173601757
 30
0.0
 40
0.9995384699999398
 50
270.49999999996538
 51
0.0
  0
ARC
  8
OUTLINE
  6
CONTINUOUS
 62
     3
 10
425.22865359974998
 20
144.64875794039889
 30
0.0
 40
0.9995384700001798
 50
0.0
 51
89.500000000034504
  0
ARC
  8
OUTLINE
  6
CONTINUOUS
 62
     3
 10
413.2341919597493
 20
71.769754152637347
 30
0.0
 40
0.9995384699999398
 50
270.49999999996538
 51
0.0
  0
ARC
  8
OUTLINE
  6
CONTINUOUS
 62
     3
 10
413.2341919597493
 20
146.75250896136319
 30
0.0
 40
0.9995384700001698
 50
0.0
 51
89.500000000034504
  0
ARC
  8
OUTLINE
  6
CONTINUOUS
 62
     3
 10
384.24757632975161
 20
149.00462438508711
 30
0.0
 40
0.9995384700001798
 50
180.0
 51
269.49999999993031
  0
ARC
  8
OUTLINE
  6
CONTINUOUS
 62
     3
 10
384.24757632975161
 20
69.517638728413317
 30
0.0
 40
0.9995384699999398
 50
90.500000000069718
 51
180.0
  0
ARC
  8
OUTLINE
  6
CONTINUOUS
 62
     3
 10
382.24849938975058
 20
66.272292567637692
 30
0.0
 40
0.9995384700002296
 50
270.49999999996538
 51
0.0
  0
ARC
  8
OUTLINE
  6
CONTINUOUS
 62
     3
 10
382.24849938975058
 20
152.2499705463639
 30
0.0
 40
0.9995384700001798
 50
0.0
 51
89.500000000034504
  0
ARC
  8
OUTLINE
  6
CONTINUOUS
 62
     3
 10
413.2341919597493
 20
257.20150989636358
 30
0.0
 40
0.9995384700001698
 50
0.0
 51
89.500000000034504
  0
ARC
  8
OUTLINE
  6
CONTINUOUS
 62
     3
 10
413.2341919597493
 20
225.2162788563634
 30
0.0
 40
0.9995384700001698
 50
0.0
 51
89.500000000034504
  0
ARC
  8
OUTLINE
  6
CONTINUOUS
 62
     3
 10
384.24757632975161
 20
227.46839428008639
 30
0.0
 40
0.9995384700001798
 50
180.0
 51
269.49999999993031
  0
ARC
  8
OUTLINE
  6
CONTINUOUS
 62
     3
 10
382.24849938975058
 20
230.713740441363
 30
0.0
 40
0.9995384700001798
 50
0.0
 51
89.500000000034504
  0
LINE
  8
OUTLINE
  6
CONTINUOUS
 62
     3
 10
461.21210641040079
 20
244.2070618421981
 30
0.0
 11
416.23280736975153
 21
244.9484788595006
 31
0.0
  0
LINE
  8
OUTLINE
  6
CONTINUOUS
 62
     3
 10
416.23280736975153
 20
189.2242091570001
 30
0.0
 11
416.23280736975153
 21
250.19605582700081
 31
0.0
  0
LINE
  8
OUTLINE
  6
CONTINUOUS
 62
     3
 10
461.71180342724978
 20
243.69905152396171
 30
0.0
 11
461.21210199094281
 21
244.2070574952055
 31
0.0
  0
LINE
  8
OUTLINE
  6
CONTINUOUS
 62
     3
 10
461.21210641640027
 20
244.2070618421981
 30
0.0
 11
461.21210641640027
 21
195.21320314180181
 31
0.0
  0
LINE
  8
OUTLINE
  6
CONTINUOUS
 62
     3
 10
461.71180775475108
 20
243.6989143133184
 30
0.0
 11
461.71180775475108
 21
195.7213506701834
 31
0.0
  0
LINE
  8
OUTLINE
  6
CONTINUOUS
 62
     3
 10
416.23280736975153
 20
250.19605582700081
 30
0.0
 11
414.23373042975072
 21
250.19605582700081
 31
0.0
  0
LINE
  8
OUTLINE
  6
CONTINUOUS
 62
     3
 10
461.21210641040079
 20
193.8138492833028
 30
0.0
 11
416.23280736975153
 21
193.07243226600039
 31
0.0
  0
LINE
  8
OUTLINE
  6
CONTINUOUS
 62
     3
 10
-402.38919956024978
 20
81.17482806807368
 30
0.0
 11
-431.77563057824932
 21
84.273461746327143
 31
0.0
  0
LINE
  8
OUTLINE
  6
CONTINUOUS
 62
     3
 10
-431.77563057824932
 20
84.273461746327143
 30
0.0
 11
-440.7720857000968
 21
84.58762488166451
 31
0.0
  0
LINE
  8
OUTLINE
  6
CONTINUOUS
 62
     3
 10
-379.38236973436523
 20
63.399609223873647
 30
0.0
 11
-401.39838359819259
 21
63.591740065781437
 31
0.0
  0
LINE
  8
OUTLINE
  6
CONTINUOUS
 62
     3
 10
-378.99999936224958
 20
257.27882241983809
 30
0.0
 11
-410.79404521619108
 21
257.00135998520511
 31
0.0
  0
LINE
  8
OUTLINE
  6
CONTINUOUS
 62
     3
 10
-412.66857243166851
 20
251.19244849755131
 30
0.0
 11
-440.88730402532929
 21
247.9002631449498
 31
0.0
  0
LINE
  8
OUTLINE
  6
CONTINUOUS
 62
     3
 10
-440.7720857000968
 20
84.58762488166451
 30
0.0
 11
-441.77101527824931
 21
85.622046741500185
 31
0.0
  0
LINE
  8
OUTLINE
  6
CONTINUOUS
 62
     3
 10
-402.38919956024978
 20
201.40883659564449
 30
0.0
 11
-402.38919956024978
 21
64.591240478353598
 31
0.0
  0
LINE
  8
OUTLINE
  6
CONTINUOUS
 62
     3
 10
-411.78486117824991
 20
256.00185957463111
 30
0.0
 11
-411.78486117824991
 21
183.834529392512
 31
0.0
  0
LINE
  8
OUTLINE
  6
CONTINUOUS
 62
     3
 10
-431.77563057824932
 20
181.7266153256729
 30
0.0
 11
-431.77563057824932
 21
84.273461746327143
 31
0.0
  0
LINE
  8
OUTLINE
  6
CONTINUOUS
 62
     3
 10
-440.77208570009691
 20
181.41245219033539
 30
0.0
 11
-440.7720857000968
 21
84.58762488166451
 31
0.0
  0
LINE
  8
OUTLINE
  6
CONTINUOUS
 62
     3
 10
-441.77101527824931
 20
246.90745842668591
 30
0.0
 11
-441.77101527824931
 21
85.622046741500185
 31
0.0
  0
ARC
  8
OUTLINE
  6
CONTINUOUS
 62
     3
 10
-401.38966109025
 20
64.591240476355438
 30
0.0
 40
0.9995384700003296
 50
179.99999988822361
 51
269.49999999899222
  0
ARC
  8
OUTLINE
  6
CONTINUOUS
 62
     3
 10
-440.7714768082476
 20
246.90745842668591
 30
0.0
 40
0.9995384699999398
 50
96.654425047201002
 51
180.0
  0
ARC
  8
OUTLINE
  6
CONTINUOUS
 62
     3
 10
-412.78439964824952
 20
252.1852532158141
 30
0.0
 40
0.99953847000009
 50
276.65442502432683
 51
0.0
  0
ARC
  8
OUTLINE
  6
CONTINUOUS
 62
     3
 10
-410.78532270824871
 20
256.00185957463111
 30
0.0
 40
0.9995384699999398
 50
90.499999999965482
 51
180.0
  0
LINE
  8
OUTLINE
  6
CONTINUOUS
 62
     3
 10
-402.38919956024978
 20
184.82524900392639
 30
0.0
 11
-431.77563057824932
 21
181.7266153256729
 31
0.0
  0
LINE
  8
OUTLINE
  6
CONTINUOUS
 62
     3
 10
-431.77563057824932
 20
181.7266153256729
 30
0.0
 11
-440.7720857000968
 21
181.41245219033539
 31
0.0
  0
LINE
  8
OUTLINE
  6
CONTINUOUS
 62
     3
 10
-379.38236973436523
 20
202.60046784812641
 30
0.0
 11
-401.39838359819259
 21
202.4083370062184
 31
0.0
  0
LINE
  8
OUTLINE
  6
CONTINUOUS
 62
     3
 10
-440.7720857000968
 20
181.41245219033539
 30
0.0
 11
-441.77101527824931
 21
180.37803033049991
 31
0.0
  0
ARC
  8
OUTLINE
  6
CONTINUOUS
 62
     3
 10
-401.38966109025
 20
201.40883659564449
 30
0.0
 40
0.9995384700003296
 50
90.500000001007749
 51
180.0
  0
ENDSEC
  0
EOF
