  0
SECTION
  2
HEADER
  9
$ACADVER
  1
AC1009
  9
$INSBASE
 10
0.0
 20
0.0
 30
0.0
  9
$EXTMIN
 10
-465.20974499999988
 20
-198.50387799999999
 30
0.0
  9
$EXTMAX
 10
996.72744494947392
 20
700.22843699999999
 30
0.0
  9
$LIMMIN
 10
-2970.0
 20
-2100.0
  9
$LIMMAX
 10
2970.0
 20
2100.0
  9
$ORTHOMODE
 70
     0
  9
$REGENMODE
 70
     0
  9
$FILLMODE
 70
     1
  9
$QTEXTMODE
 70
     0
  9
$MIRRTEXT
 70
     0
  9
$DRAGMODE
 70
     2
  9
$LTSCALE
 40
20.0
  9
$OSMODE
 70
   173
  9
$ATTMODE
 70
     1
  9
$TEXTSIZE
 40
64.0
  9
$TRACEWID
 40
0.05
  9
$TEXTSTYLE
  7
STANDARD
  9
$CLAYER
  8
NOTE
  9
$CELTYPE
  6
CONTINUOUS
  9
$CECOLOR
 62
     4
  9
$DIMSCALE
 40
1.0
  9
$DIMASZ
 40
12.0
  9
$DIMEXO
 40
20.0
  9
$DIMDLI
 40
200.0
  9
$DIMRND
 40
0.0
  9
$DIMDLE
 40
0.0
  9
$DIMEXE
 40
30.0
  9
$DIMTP
 40
0.0
  9
$DIMTM
 40
0.0
  9
$DIMTXT
 40
64.0
  9
$DIMCEN
 40
0.09
  9
$DIMTSZ
 40
0.0
  9
$DIMTOL
 70
     0
  9
$DIMLIM
 70
     0
  9
$DIMTIH
 70
     0
  9
$DIMTOH
 70
     0
  9
$DIMSE1
 70
     0
  9
$DIMSE2
 70
     0
  9
$DIMTAD
 70
     1
  9
$DIMZIN
 70
     8
  9
$DIMBLK
  1
DOT1
  9
$DIMASO
 70
     1
  9
$DIMSHO
 70
     0
  9
$DIMPOST
  1

  9
$DIMAPOST
  1

  9
$DIMALT
 70
     0
  9
$DIMALTD
 70
     2
  9
$DIMALTF
 40
25.399999999999999
  9
$DIMLFAC
 40
1.0
  9
$DIMTOFL
 70
     1
  9
$DIMTVP
 40
0.0
  9
$DIMTIX
 70
     1
  9
$DIMSOXD
 70
     0
  9
$DIMSAH
 70
     0
  9
$DIMBLK1
  1

  9
$DIMBLK2
  1

  9
$DIMSTYLE
  2
STANDARD
  9
$DIMCLRD
 70
     0
  9
$DIMCLRE
 70
     0
  9
$DIMCLRT
 70
     0
  9
$DIMTFAC
 40
1.0
  9
$DIMGAP
 40
20.0
  9
$LUNITS
 70
     2
  9
$LUPREC
 70
     4
  9
$SKETCHINC
 40
0.1
  9
$FILLETRAD
 40
0.0
  9
$AUNITS
 70
     1
  9
$AUPREC
 70
     3
  9
$MENU
  1
ACAD
  9
$ELEVATION
 40
0.0
  9
$PELEVATION
 40
0.0
  9
$THICKNESS
 40
0.0
  9
$LIMCHECK
 70
     0
  9
$BLIPMODE
 70
     0
  9
$CHAMFERA
 40
0.0
  9
$CHAMFERB
 40
0.0
  9
$SKPOLY
 70
     0
  9
$TDCREATE
 40
2449772.4378200001
  9
$TDUPDATE
 40
2453780.6851757751
  9
$TDINDWG
 40
0.0678051042
  9
$TDUSRTIMER
 40
0.067804919
  9
$USRTIMER
 70
     1
  9
$ANGBASE
 50
0.0
  9
$ANGDIR
 70
     0
  9
$PDMODE
 70
     3
  9
$PDSIZE
 40
-2.0
  9
$PLINEWID
 40
0.0
  9
$COORDS
 70
     2
  9
$SPLFRAME
 70
     0
  9
$SPLINETYPE
 70
     6
  9
$SPLINESEGS
 70
     8
  9
$ATTDIA
 70
     0
  9
$ATTREQ
 70
     1
  9
$HANDLING
 70
 22529
  9
$HANDSEED
  5
377
  9
$SURFTAB1
 70
     6
  9
$SURFTAB2
 70
     6
  9
$SURFTYPE
 70
     6
  9
$SURFU
 70
     6
  9
$SURFV
 70
     6
  9
$UCSNAME
  2

  9
$UCSORG
 10
0.0
 20
0.0
 30
0.0
  9
$UCSXDIR
 10
1.0
 20
0.0
 30
0.0
  9
$UCSYDIR
 10
0.0
 20
1.0
 30
0.0
  9
$PUCSNAME
  2

  9
$PUCSORG
 10
0.0
 20
0.0
 30
0.0
  9
$PUCSXDIR
 10
1.0
 20
0.0
 30
0.0
  9
$PUCSYDIR
 10
0.0
 20
1.0
 30
0.0
  9
$USERI1
 70
     0
  9
$USERI2
 70
     0
  9
$USERI3
 70
     0
  9
$USERI4
 70
     0
  9
$USERI5
 70
     0
  9
$USERR1
 40
20.0
  9
$USERR2
 40
0.0
  9
$USERR3
 40
0.0
  9
$USERR4
 40
0.0
  9
$USERR5
 40
0.0
  9
$WORLDVIEW
 70
     1
  9
$SHADEDGE
 70
     3
  9
$SHADEDIF
 70
    70
  9
$TILEMODE
 70
     1
  9
$MAXACTVP
 70
    48
  9
$PLIMCHECK
 70
     0
  9
$PEXTMIN
 10
1.0000000000000000E+020
 20
1.0000000000000000E+020
 30
1.0000000000000000E+020
  9
$PEXTMAX
 10
-1.0000000000000000E+020
 20
-1.0000000000000000E+020
 30
-1.0000000000000000E+020
  9
$PLIMMIN
 10
0.0
 20
0.0
  9
$PLIMMAX
 10
12.0
 20
9.0
  9
$UNITMODE
 70
     0
  9
$VISRETAIN
 70
     1
  9
$PLINEGEN
 70
     0
  9
$PSLTSCALE
 70
     1
  0
ENDSEC
  0
SECTION
  2
TABLES
  0
TABLE
  2
VPORT
 70
     5
  0
VPORT
  2
*ACTIVE
 70
     0
 10
0.0
 20
0.0
 11
1.0
 21
1.0
 12
45.59790349494051
 22
141.86676027930051
 13
0.0
 23
0.0
 14
50.0
 24
50.0
 15
100.0
 25
100.0
 16
0.0
 26
0.0
 36
1.0
 17
0.0
 27
0.0
 37
0.0
 40
1963.9325220537789
 41
1.447268106734434
 42
50.0
 43
0.0
 44
0.0
 50
0.0
 51
0.0
 71
     0
 72
   500
 73
     1
 74
     0
 75
     0
 76
     0
 77
     0
 78
     0
  0
ENDTAB
  0
TABLE
  2
LTYPE
 70
     3
  0
LTYPE
  2
CONTINUOUS
 70
     0
  3
実線
 72
    65
 73
     0
 40
0.0
  0
LTYPE
  2
DASHDOT
 70
     0
  3
____ _ ____ _ ____ _ ____ _ ____ _ ____ _ ____
 72
    65
 73
     4
 40
5.5
 49
4.0
 49
-0.6
 49
0.3
 49
-0.6
  0
LTYPE
  2
CONTINOUS
 70
     0
  3
Solid line
 72
    65
 73
     0
 40
0.0
  0
ENDTAB
  0
TABLE
  2
LAYER
 70
    12
  0
LAYER
  2
0
 70
     0
 62
     7
  6
CONTINUOUS
  0
LAYER
  2
NOTE
 70
     0
 62
     4
  6
CONTINUOUS
  0
LAYER
  2
OUTLINE
 70
     0
 62
     3
  6
CONTINUOUS
  0
LAYER
  2
DETAIL
 70
     0
 62
     5
  6
CONTINUOUS
  0
LAYER
  2
BASIS
 70
     0
 62
     6
  6
DASHDOT
  0
LAYER
  2
SIZE
 70
     0
 62
    30
  6
CONTINUOUS
  0
LAYER
  2
DEFPOINTS
 70
     0
 62
     7
  6
CONTINUOUS
  0
LAYER
  2
FIX
 70
     0
 62
    11
  6
CONTINUOUS
  0
LAYER
  2
ARRANGE
 70
     0
 62
     1
  6
CONTINUOUS
  0
LAYER
  2
ETC
 70
     0
 62
    61
  6
CONTINUOUS
  0
LAYER
  2
SERVICESPACE
 70
     0
 62
     2
  6
DASHDOT
  0
LAYER
  2
SYMBOLLINE
 70
     0
 62
    15
  6
CONTINUOUS
  0
ENDTAB
  0
TABLE
  2
STYLE
 70
     1
  0
STYLE
  2
STANDARD
 70
     0
 40
0.0
 41
0.9
 50
0.0
 71
     0
 42
64.0
  3
SIMPLEX
  4
BIGFONT
  0
ENDTAB
  0
TABLE
  2
VIEW
 70
     1
  0
VIEW
  2
ALL
 70
     0
 40
4282.6198079999976
 10
0.0
 20
41.309903999999989
 41
5940.0
 11
0.0
 21
0.0
 31
1.0
 12
0.0
 22
0.0
 32
0.0
 42
50.0
 43
0.0
 44
0.0
 50
0.0
 71
     0
  0
ENDTAB
  0
TABLE
  2
UCS
 70
     0
  0
ENDTAB
  0
TABLE
  2
APPID
 70
     1
  0
APPID
  2
ACAD
 70
     0
  0
ENDTAB
  0
TABLE
  2
DIMSTYLE
 70
     1
  0
DIMSTYLE
  2
STANDARD
 70
     0
  3

  4

  5

  6

  7

 40
1.0
 41
0.18
 42
0.0625
 43
0.38
 44
0.18
 45
0.0
 46
0.0
 47
0.0
 48
0.0
140
0.18
141
0.09
142
0.0
143
25.399999999999999
144
1.0
145
0.0
146
1.0
147
0.09
 71
     0
 72
     0
 73
     1
 74
     1
 75
     0
 76
     0
 77
     0
 78
     0
170
     0
171
     2
172
     0
173
     0
174
     0
175
     0
176
     0
177
     0
178
     0
  0
ENDTAB
  0
ENDSEC
  0
SECTION
  2
BLOCKS
  0
BLOCK
  8
0
  2
$MODEL_SPACE
 70
     0
 10
0.0
 20
0.0
 30
0.0
  3
$MODEL_SPACE
  1

  0
ENDBLK
  5
1B4
  8
0
  0
BLOCK
 67
     1
  8
0
  2
$PAPER_SPACE
 70
     0
 10
0.0
 20
0.0
 30
0.0
  3
$PAPER_SPACE
  1

  0
ENDBLK
  5
1B0
 67
     1
  8
0
  0
BLOCK
  8
0
  2
DOT1
 70
     0
 10
0.0
 20
0.0
 30
0.0
  3
DOT1
  1

  0
CIRCLE
  5
1D0
  8
SIZE
  6
CONTINUOUS
 62
     7
 10
0.0
 20
0.0
 30
0.0
 40
3.0
  0
ENDBLK
  5
1D1
  8
0
  0
BLOCK
  8
0
 62
    30
  2
_ORIGIN
 70
     0
 10
0.0
 20
0.0
 30
0.0
  3
_ORIGIN
  1

  0
CIRCLE
  5
1D4
  8
0
  6
BYBLOCK
 62
     0
 10
0.0
 20
0.0
 30
0.0
 40
0.5
  0
LINE
  5
1D5
  8
0
  6
BYBLOCK
 62
     0
 10
0.0
 20
0.0
 30
0.0
 11
-1.0
 21
0.0
 31
0.0
  0
ENDBLK
  5
1D6
  8
0
 62
    30
  0
BLOCK
  8
0
 62
    30
  2
_OPEN30
 70
     0
 10
0.0
 20
0.0
 30
0.0
  3
_OPEN30
  1

  0
LINE
  5
1D9
  8
0
  6
BYBLOCK
 62
     0
 10
-1.0
 20
0.26794919
 30
0.0
 11
0.0
 21
0.0
 31
0.0
  0
LINE
  5
1DA
  8
0
  6
BYBLOCK
 62
     0
 10
0.0
 20
0.0
 30
0.0
 11
-1.0
 21
-0.26794919
 31
0.0
  0
LINE
  5
1DB
  8
0
  6
BYBLOCK
 62
     0
 10
0.0
 20
0.0
 30
0.0
 11
-1.0
 21
0.0
 31
0.0
  0
ENDBLK
  5
1DC
  8
0
 62
    30
  0
ENDSEC
  0
SECTION
  2
ENTITIES
  0
POINT
  5
1DD
  8
ARRANGE
  6
CONTINOUS
 62
     1
 10
0.0
 20
0.0
 30
0.0
  0
LINE
  5
1DE
  8
NOTE
  6
CONTINUOUS
 62
     4
 10
-66.168334000000002
 20
273.59696500000001
 30
0.0
 11
-105.0
 21
264.0
 31
0.0
  0
LINE
  5
1DF
  8
NOTE
  6
CONTINUOUS
 62
     4
 10
-105.0
 20
264.0
 30
0.0
 11
-76.169274000000001
 21
291.72704800000002
 31
0.0
  0
LINE
  5
1E0
  8
NOTE
  6
CONTINUOUS
 62
     4
 10
132.96225799999991
 20
291.6026589999999
 30
0.0
 11
105.0
 21
263.0
 31
0.0
  0
LINE
  5
1E1
  8
NOTE
  6
CONTINUOUS
 62
     4
 10
105.0
 20
263.0
 30
0.0
 11
114.91469599999991
 21
301.75175899999999
 31
0.0
  0
TEXT
  5
1E2
  8
NOTE
  6
CONTINUOUS
 62
     4
 10
218.316194
 20
416.25986199999988
 30
0.0
 40
64.0
  1
AH
 41
0.9
  0
LINE
  5
1E3
  8
NOTE
  6
CONTINUOUS
 62
     4
 10
-105.0
 20
264.0
 30
0.0
 11
172.2130929999999
 21
401.01928500000002
 31
0.0
  0
LINE
  5
1E4
  8
NOTE
  6
CONTINUOUS
 62
     4
 10
172.2130929999999
 20
401.01928500000002
 30
0.0
 11
329.18667399999993
 21
401.01928500000002
 31
0.0
  0
LINE
  5
1E5
  8
NOTE
  6
CONTINUOUS
 62
     4
 10
105.0
 20
263.0
 30
0.0
 11
174.78288699999999
 21
401.01928500000002
 31
0.0
  0
LINE
  5
1E6
  8
NOTE
  6
CONTINUOUS
 62
     4
 10
-215.31132400000001
 20
339.59441399999992
 30
0.0
 11
-315.93155200000001
 21
339.59441399999992
 31
0.0
  0
LINE
  5
1E7
  8
NOTE
  6
CONTINUOUS
 62
     4
 10
-151.0
 20
293.0
 30
0.0
 11
-215.31132400000001
 21
339.59441399999992
 31
0.0
  0
LINE
  5
1E8
  8
NOTE
  6
CONTINUOUS
 62
     4
 10
-176.2812659999999
 20
323.99770299999989
 30
0.0
 11
-151.0
 21
293.0
 31
0.0
  0
LINE
  5
1E9
  8
NOTE
  6
CONTINUOUS
 62
     4
 10
-151.0
 20
293.0
 30
0.0
 11
-188.39306999999999
 21
307.20416499999999
 31
0.0
  0
TEXT
  5
1EA
  8
NOTE
  6
CONTINUOUS
 62
     4
 10
-304.04190299999982
 20
353.50155099999978
 30
0.0
 40
64.0
  1
EL
 41
0.9
  0
LINE
  5
1EB
  8
NOTE
  6
CONTINOUS
 62
     4
 10
-151.0
 20
273.0
 30
0.0
 11
-151.0
 21
313.0
 31
0.0
  0
LINE
  5
1EC
  8
NOTE
  6
CONTINOUS
 62
     4
 10
-131.0
 20
293.0
 30
0.0
 11
-171.0
 21
293.0
 31
0.0
  0
LINE
  5
1ED
  8
BASIS
  6
DASHDOT
 62
     6
 10
0.0
 20
-71.647579000000022
 30
0.0
 11
0.0
 21
370.77395799999999
 31
0.0
  0
LINE
  5
1EE
  8
BASIS
  6
DASHDOT
 62
     6
 10
-153.36415999999991
 20
220.0
 30
0.0
 11
-299.41924699999993
 21
220.0
 31
0.0
  0
LINE
  5
1EF
  8
DETAIL
  6
CONTINOUS
 62
     5
 10
180.0
 20
293.0
 30
0.0
 11
-180.0
 21
293.0
 31
0.0
  0
LINE
  5
1F0
  8
DETAIL
  6
CONTINOUS
 62
     5
 10
212.0
 20
-5.0
 30
0.0
 11
212.0
 21
0.0
 31
0.0
  0
LINE
  5
1F1
  8
DETAIL
  6
CONTINOUS
 62
     5
 10
139.0
 20
-15.0
 30
0.0
 11
-139.0
 21
-15.0
 31
0.0
  0
LINE
  5
1F2
  8
DETAIL
  6
CONTINOUS
 62
     5
 10
-212.0
 20
-5.0
 30
0.0
 11
-212.0
 21
0.0
 31
0.0
  0
LINE
  5
1F3
  8
DETAIL
  6
CONTINOUS
 62
     5
 10
212.0
 20
0.0
 30
0.0
 11
-212.0
 21
0.0
 31
0.0
  0
LINE
  5
1F4
  8
DETAIL
  6
CONTINOUS
 62
     5
 10
-180.0
 20
0.0
 30
0.0
 11
-180.0
 21
293.0
 31
0.0
  0
LINE
  5
1F5
  8
DETAIL
  6
CONTINOUS
 62
     5
 10
180.0
 20
0.0
 30
0.0
 11
180.0
 21
293.0
 31
0.0
  0
LINE
  5
1F6
  8
DETAIL
  6
CONTINOUS
 62
     5
 10
-275.0
 20
171.0
 30
0.0
 11
-275.0
 21
269.0
 31
0.0
  0
LINE
  5
1F7
  8
DETAIL
  6
CONTINOUS
 62
     5
 10
-250.0
 20
165.0
 30
0.0
 11
-250.0
 21
275.0
 31
0.0
  0
LINE
  5
1F8
  8
DETAIL
  6
CONTINOUS
 62
     5
 10
-250.0
 20
269.0
 30
0.0
 11
-275.0
 21
269.0
 31
0.0
  0
LINE
  5
1F9
  8
DETAIL
  6
CONTINOUS
 62
     5
 10
-250.0
 20
171.0
 30
0.0
 11
-275.0
 21
171.0
 31
0.0
  0
LINE
  5
1FA
  8
DETAIL
  6
CONTINOUS
 62
     5
 10
-180.0
 20
165.0
 30
0.0
 11
-250.0
 21
165.0
 31
0.0
  0
LINE
  5
1FB
  8
DETAIL
  6
CONTINOUS
 62
     5
 10
-180.0
 20
275.0
 30
0.0
 11
-250.0
 21
275.0
 31
0.0
  0
LINE
  5
1FC
  8
SIZE
  6
CONTINUOUS
 62
    30
 10
105.0
 20
303.0
 30
0.0
 11
105.0
 21
634.22843699999976
 31
0.0
  0
LINE
  5
1FD
  8
SIZE
  6
CONTINUOUS
 62
    30
 10
-105.0
 20
303.0
 30
0.0
 11
-105.0
 21
634.22843699999976
 31
0.0
  0
LINE
  5
1FE
  8
SIZE
  6
CONTINUOUS
 62
    30
 10
103.0
 20
604.22843699999987
 30
0.0
 11
-103.0
 21
604.22843699999987
 31
0.0
  0
CIRCLE
  5
1FF
  8
SIZE
  6
CONTINUOUS
 62
    30
 10
105.0
 20
604.22843699999987
 30
0.0
 40
6.0
  0
CIRCLE
  5
200
  8
SIZE
  6
CONTINUOUS
 62
    30
 10
-105.0
 20
604.22843699999987
 30
0.0
 40
6.0
  0
TEXT
  5
201
  8
SIZE
  6
CONTINUOUS
 62
    30
 10
-68.571429000000009
 20
636.22843699999999
 30
0.0
 40
64.0
  1
210
 41
0.9
  0
POINT
  5
202
  8
DEFPOINTS
  6
CONTINUOUS
 62
    30
 10
105.0
 20
283.0
 30
0.0
  0
POINT
  5
203
  8
DEFPOINTS
  6
CONTINUOUS
 62
    30
 10
-105.0
 20
283.0
 30
0.0
  0
POINT
  5
204
  8
DEFPOINTS
  6
CONTINUOUS
 62
    30
 10
-105.0
 20
604.22843699999987
 30
0.0
  0
LINE
  5
205
  8
SIZE
  6
CONTINUOUS
 62
    30
 10
-151.0
 20
333.0
 30
0.0
 11
-151.0
 21
517.55769399999997
 31
0.0
  0
LINE
  5
206
  8
SIZE
  6
CONTINUOUS
 62
    30
 10
0.0
 20
390.77395799999988
 30
0.0
 11
0.0
 21
517.55769399999997
 31
0.0
  0
LINE
  5
207
  8
SIZE
  6
CONTINUOUS
 62
    30
 10
-149.0
 20
487.55769400000003
 30
0.0
 11
-2.0
 21
487.55769400000003
 31
0.0
  0
CIRCLE
  5
208
  8
SIZE
  6
CONTINUOUS
 62
    30
 10
-151.0
 20
487.55769400000003
 30
0.0
 40
6.0
  0
CIRCLE
  5
209
  8
SIZE
  6
CONTINUOUS
 62
    30
 10
0.0
 20
487.55769400000003
 30
0.0
 40
6.0
  0
TEXT
  5
20A
  8
SIZE
  6
CONTINUOUS
 62
    30
 10
-131.72857199999979
 20
519.55769400000008
 30
0.0
 40
64.0
  1
151
 41
0.9
  0
POINT
  5
20B
  8
DEFPOINTS
  6
CONTINUOUS
 62
    30
 10
-151.0
 20
313.0
 30
0.0
  0
POINT
  5
20C
  8
DEFPOINTS
  6
CONTINUOUS
 62
    30
 10
0.0
 20
370.77395799999999
 30
0.0
  0
POINT
  5
20D
  8
DEFPOINTS
  6
CONTINUOUS
 62
    30
 10
0.0
 20
487.55769400000003
 30
0.0
  0
LINE
  5
20E
  8
SIZE
  6
CONTINUOUS
 62
    30
 10
-212.0
 20
-35.0
 30
0.0
 11
-212.0
 21
-198.50387799999999
 31
0.0
  0
LINE
  5
20F
  8
SIZE
  6
CONTINUOUS
 62
    30
 10
212.0
 20
-35.0
 30
0.0
 11
212.0
 21
-198.50387799999999
 31
0.0
  0
LINE
  5
210
  8
SIZE
  6
CONTINUOUS
 62
    30
 10
-210.0
 20
-168.50387799999999
 30
0.0
 11
210.0
 21
-168.50387799999999
 31
0.0
  0
CIRCLE
  5
211
  8
SIZE
  6
CONTINUOUS
 62
    30
 10
-212.0
 20
-168.50387799999999
 30
0.0
 40
6.0
  0
CIRCLE
  5
212
  8
SIZE
  6
CONTINUOUS
 62
    30
 10
212.0
 20
-168.50387799999999
 30
0.0
 40
6.0
  0
TEXT
  5
213
  8
SIZE
  6
CONTINUOUS
 62
    30
 10
-75.428572000000003
 20
-136.5038779999999
 30
0.0
 40
64.0
  1
424
 41
0.9
  0
POINT
  5
214
  8
DEFPOINTS
  6
CONTINUOUS
 62
    30
 10
212.0
 20
-168.50387799999999
 30
0.0
  0
LINE
  5
215
  8
SIZE
  6
CONTINUOUS
 62
    30
 10
-319.41924699999993
 20
220.0
 30
0.0
 11
-399.209745
 21
220.0
 31
0.0
  0
LINE
  5
216
  8
SIZE
  6
CONTINUOUS
 62
    30
 10
-232.0
 20
0.0
 30
0.0
 11
-399.209745
 21
0.0
 31
0.0
  0
LINE
  5
217
  8
SIZE
  6
CONTINUOUS
 62
    30
 10
-369.20974499999988
 20
218.0
 30
0.0
 11
-369.20974499999988
 21
-144.64705459150809
 31
0.0
  0
CIRCLE
  5
218
  8
SIZE
  6
CONTINUOUS
 62
    30
 10
-369.20974499999988
 20
220.0
 30
0.0
 40
6.0
  0
CIRCLE
  5
219
  8
SIZE
  6
CONTINUOUS
 62
    30
 10
-369.20974499999988
 20
0.0
 30
0.0
 40
6.0
  0
TEXT
  5
21A
  8
SIZE
  6
CONTINUOUS
 62
    30
 10
-401.20974499999988
 20
35.942858000000001
 30
0.0
 40
64.0
  1
220
 50
90.0
 41
0.9
  0
POINT
  5
21B
  8
DEFPOINTS
  6
CONTINUOUS
 62
    30
 10
-299.41924699999993
 20
220.0
 30
0.0
  0
POINT
  5
21C
  8
DEFPOINTS
  6
CONTINUOUS
 62
    30
 10
-212.0
 20
0.0
 30
0.0
  0
LINE
  5
21E
  8
SIZE
  6
CONTINUOUS
 62
    30
 10
-232.0
 20
0.0
 30
0.0
 11
-399.209745
 21
0.0
 31
0.0
  0
LINE
  5
21F
  8
SIZE
  6
CONTINUOUS
 62
    30
 10
-232.0
 20
-15.0
 30
0.0
 11
-399.209745
 21
-15.0
 31
0.0
  0
CIRCLE
  5
222
  8
SIZE
  6
CONTINUOUS
 62
    30
 10
-369.20974499999988
 20
-15.0
 30
0.0
 40
6.0
  0
CIRCLE
  5
223
  8
SIZE
  6
CONTINUOUS
 62
    30
 10
-369.20974499999988
 20
0.0
 30
0.0
 40
6.0
  0
TEXT
  5
225
  8
SIZE
  6
CONTINUOUS
 62
    30
 10
-395.0490821352841
 20
-125.9564940914096
 30
0.0
 40
64.0
  1
15
 50
90.0
 41
0.9
  0
POINT
  5
226
  8
DEFPOINTS
  6
CONTINUOUS
 62
    30
 10
-212.0
 20
0.0
 30
0.0
  0
LINE
  5
228
  8
SIZE
  6
CONTINUOUS
 62
    30
 10
200.0
 20
293.0
 30
0.0
 11
411.60868099999988
 21
293.0
 31
0.0
  0
LINE
  5
229
  8
SIZE
  6
CONTINUOUS
 62
    30
 10
232.0
 20
0.0
 30
0.0
 11
411.60868099999988
 21
0.0
 31
0.0
  0
LINE
  5
22A
  8
SIZE
  6
CONTINUOUS
 62
    30
 10
381.60868099999988
 20
291.0
 30
0.0
 11
381.60868099999988
 21
2.0
 31
0.0
  0
CIRCLE
  5
22B
  8
SIZE
  6
CONTINUOUS
 62
    30
 10
381.60868099999988
 20
293.0
 30
0.0
 40
6.0
  0
CIRCLE
  5
22C
  8
SIZE
  6
CONTINUOUS
 62
    30
 10
381.60868099999988
 20
0.0
 30
0.0
 40
6.0
  0
TEXT
  5
22D
  8
SIZE
  6
CONTINUOUS
 62
    30
 10
349.60868099999982
 20
72.442858000000001
 30
0.0
 40
64.0
  1
293
 50
90.0
 41
0.9
  0
POINT
  5
22E
  8
DEFPOINTS
  6
CONTINUOUS
 62
    30
 10
180.0
 20
293.0
 30
0.0
  0
POINT
  5
22F
  8
DEFPOINTS
  6
CONTINUOUS
 62
    30
 10
212.0
 20
0.0
 30
0.0
  0
POINT
  5
230
  8
DEFPOINTS
  6
CONTINUOUS
 62
    30
 10
381.60868099999988
 20
0.0
 30
0.0
  0
LINE
  5
232
  8
NOTE
  6
CONTINUOUS
 62
     4
 10
105.0
 20
283.0
 30
0.0
 11
105.0
 21
243.0
 31
0.0
  0
LINE
  5
234
  8
NOTE
  6
CONTINUOUS
 62
     4
 10
-105.0
 20
283.0
 30
0.0
 11
-105.0
 21
243.0
 31
0.0
  0
CIRCLE
  5
23F
  8
ARRANGE
  6
CONTINUOUS
 62
     1
 10
0.0
 20
0.0
 30
0.0
 40
40.0
  0
CIRCLE
  5
240
  8
FIX
  6
CONTINUOUS
 62
    11
 10
-105.0
 20
263.0
 30
0.0
 40
40.0
  0
CIRCLE
  5
241
  8
FIX
  6
CONTINUOUS
 62
    11
 10
105.0
 20
263.0
 30
0.0
 40
40.0
  0
LINE
  5
242
  8
OUTLINE
  6
CONTINOUS
 62
     3
 10
180.0
 20
0.0
 30
0.0
 11
180.0
 21
293.0
 31
0.0
  0
LINE
  5
243
  8
OUTLINE
  6
CONTINOUS
 62
     3
 10
-180.0
 20
0.0
 30
0.0
 11
-180.0
 21
293.0
 31
0.0
  0
LINE
  5
244
  8
OUTLINE
  6
CONTINOUS
 62
     3
 10
212.0
 20
0.0
 30
0.0
 11
180.0
 21
0.0
 31
0.0
  0
LINE
  5
245
  8
OUTLINE
  6
CONTINOUS
 62
     3
 10
-212.0
 20
-5.0
 30
0.0
 11
-212.0
 21
0.0
 31
0.0
  0
LINE
  5
246
  8
OUTLINE
  6
CONTINOUS
 62
     3
 10
139.0
 20
-15.0
 30
0.0
 11
-139.0
 21
-15.0
 31
0.0
  0
LINE
  5
247
  8
OUTLINE
  6
CONTINOUS
 62
     3
 10
212.0
 20
-5.0
 30
0.0
 11
212.0
 21
0.0
 31
0.0
  0
LINE
  5
248
  8
OUTLINE
  6
CONTINOUS
 62
     3
 10
180.0
 20
293.0
 30
0.0
 11
-180.0
 21
293.0
 31
0.0
  0
LINE
  5
249
  8
OUTLINE
  6
CONTINOUS
 62
     3
 10
-180.0
 20
0.0
 30
0.0
 11
-212.0
 21
0.0
 31
0.0
  0
TEXT
  5
24A
  8
ETC
  6
CONTINUOUS
 62
    61
 10
589.05074252130635
 20
363.62749640870118
 30
0.0
 40
50.0
  1
VL-120Z2
 41
0.9
  0
TEXT
  5
24B
  8
ETC
  6
CONTINUOUS
 62
    61
 10
453.64173066376031
 20
583.76845450200244
 30
0.0
 40
64.0
  1
VL-120Z2_4
 41
0.9
  0
TEXT
  5
24C
  8
ETC
  6
CONTINUOUS
 62
    61
 10
453.64173066376031
 20
454.09803250200258
 30
0.0
 40
64.0
  1
換気扇
 41
0.9
  0
TEXT
  5
24D
  8
NOTE
  6
CONTINUOUS
 62
     4
 10
350.5965886328467
 20
-157.05615745287781
 30
0.0
 40
64.0
  1
8-7×5長穴
 41
0.9
  0
LINE
  5
24E
  8
DETAIL
  6
CONTINUOUS
 62
     5
 10
-139.0
 20
-15.0
 30
0.0
 11
-212.0
 21
-5.0
 31
0.0
  0
LINE
  5
24F
  8
DETAIL
  6
CONTINUOUS
 62
     5
 10
139.0
 20
-15.0
 30
0.0
 11
212.0
 21
-5.0
 31
0.0
  0
LINE
  5
250
  8
OUTLINE
  6
CONTINUOUS
 62
     3
 10
-139.0
 20
-15.0
 30
0.0
 11
-212.0
 21
-5.0
 31
0.0
  0
LINE
  5
251
  8
OUTLINE
  6
CONTINUOUS
 62
     3
 10
139.0
 20
-15.0
 30
0.0
 11
212.0
 21
-5.0
 31
0.0
  0
LINE
  5
252
  8
OUTLINE
  6
CONTINUOUS
 62
     3
 10
-180.0
 20
0.0
 30
0.0
 11
180.0
 21
0.0
 31
0.0
  0
LINE
  5
253
  8
NOTE
  6
DASHDOT
 62
     4
 10
-100.0
 20
-12.728672157520119
 30
0.0
 11
-100.0
 21
13.797962089895011
 31
0.0
  0
LINE
  5
254
  8
NOTE
  6
DASHDOT
 62
     4
 10
100.0
 20
-16.80969120608551
 30
0.0
 11
100.0
 21
13.797962089895011
 31
0.0
  0
LINE
  5
255
  8
NOTE
  6
DASHDOT
 62
     4
 10
-190.0
 20
-12.728672157520119
 30
0.0
 11
-190.0
 21
11.757450479263751
 31
0.0
  0
LINE
  5
256
  8
NOTE
  6
DASHDOT
 62
     4
 10
190.0
 20
-12.728672157520119
 30
0.0
 11
190.0
 21
13.797962089895011
 31
0.0
  0
CIRCLE
  5
257
  8
FIX
  6
CONTINUOUS
 62
    11
 10
-190.0
 20
-0.0000000000000018
 30
0.0
 40
2.5
  0
CIRCLE
  5
258
  8
FIX
  6
CONTINUOUS
 62
    11
 10
-100.0
 20
0.0
 30
0.0
 40
2.5
  0
CIRCLE
  5
259
  8
FIX
  6
CONTINUOUS
 62
    11
 10
100.0
 20
0.0
 30
0.0
 40
2.5
  0
CIRCLE
  5
25A
  8
FIX
  6
CONTINUOUS
 62
    11
 10
190.0
 20
0.0
 30
0.0
 40
2.5
  0
LINE
  5
25B
  8
NOTE
  6
BYBLOCK
 62
     4
 10
205.5118078568045
 20
-35.896075925649292
 30
0.0
 11
190.0
 21
2.5
 31
0.0
  0
LINE
  5
25C
  8
NOTE
  6
BYBLOCK
 62
     4
 10
190.0
 20
2.5
 30
0.0
 11
222.6316575097764
 21
-22.996073376880808
 31
0.0
  0
LINE
  5
25D
  8
NOTE
  6
BYBLOCK
 62
     4
 10
190.0
 20
2.5
 30
0.0
 11
214.07173268329049
 21
-29.44607465126505
 31
0.0
  0
LINE
  5
25E
  8
NOTE
  6
CONTINUOUS
 62
     4
 10
214.07173268329049
 20
-29.44607465126505
 30
0.0
 11
325.23614476517281
 21
-176.97457430916111
 31
0.0
1001
ACAD
1000
DSTYLE
1002
{
1070
   147
1040
0.09
1070
    41
1040
40.0
1070
    42
1040
20.0
1070
    43
1040
200.0
1070
    44
1040
30.0
1070
    73
1070
     0
1070
    74
1070
     0
1070
    77
1070
     0
1070
    78
1070
     8
1070
   140
1040
64.0
1070
   172
1070
     1
1070
   174
1070
     1
1070
   341
1005
F8
1070
   342
1005
33
1002
}
  0
LINE
  5
25F
  8
NOTE
  6
CONTINUOUS
 62
     4
 10
325.23614476517281
 20
-176.97457430916111
 30
0.0
 11
790.78145725930142
 21
-176.97457430916111
 31
0.0
1001
ACAD
1000
DSTYLE
1002
{
1070
   147
1040
0.09
1070
    41
1040
40.0
1070
    42
1040
20.0
1070
    43
1040
200.0
1070
    44
1040
30.0
1070
    73
1070
     0
1070
    74
1070
     0
1070
    77
1070
     0
1070
    78
1070
     8
1070
   140
1040
64.0
1070
   172
1070
     1
1070
   174
1070
     1
1070
   341
1005
F8
1070
   342
1005
33
1002
}
  0
LINE
  5
270
  8
SIZE
  6
CONTINUOUS
 62
    30
 10
-145.0
 20
263.0
 30
0.0
 11
-400.00883712423359
 21
263.00000000000011
 31
0.0
  0
LINE
  5
271
  8
SIZE
  6
CONTINUOUS
 62
    30
 10
-200.0
 20
293.0
 30
0.0
 11
-400.00883712423359
 21
293.0
 31
0.0
  0
LINE
  5
274
  8
SIZE
  6
CONTINUOUS
 62
    30
 10
-370.00883712423359
 20
236.1780291629338
 30
0.0
 11
-370.00883712423359
 21
327.81490512714481
 31
0.0
  0
TEXT
  5
27A
  8
SIZE
  6
CONTINUOUS
 62
    30
 10
-390.00883712423371
 20
231.37142857142851
 30
0.0
 40
64.0
  1
30
 50
90.0
 41
0.9
  0
CIRCLE
  5
27B
  8
SIZE
  6
CONTINUOUS
 62
    30
 10
-370.00883712423359
 20
293.0
 30
0.0
 40
6.0
  0
CIRCLE
  5
27C
  8
SIZE
  6
CONTINUOUS
 62
    30
 10
-370.00883712423359
 20
263.00000000000011
 30
0.0
 40
6.0
  0
LINE
  5
2BB
  8
DETAIL
  6
CONTINUOUS
 62
     5
 10
85.0
 20
263.0
 30
0.0
 11
85.0
 21
293.0
 31
0.0
  0
LINE
  5
2BC
  8
DETAIL
  6
CONTINUOUS
 62
     5
 10
125.0
 20
263.0
 30
0.0
 11
125.0
 21
293.0
 31
0.0
  0
LINE
  5
2BD
  8
DETAIL
  6
CONTINUOUS
 62
     5
 10
85.0
 20
263.0
 30
0.0
 11
125.0
 21
263.0
 31
0.0
  0
LINE
  5
2BE
  8
DETAIL
  6
CONTINUOUS
 62
     5
 10
85.0
 20
265.0
 30
0.0
 11
125.0
 21
265.0
 31
0.0
  0
LINE
  5
2BF
  8
NOTE
  6
CONTINUOUS
 62
     4
 10
86.625345429992194
 20
263.0
 30
0.0
 11
122.54388826584631
 21
263.0
 31
0.0
  0
LINE
  5
2C0
  8
DETAIL
  6
CONTINUOUS
 62
     5
 10
-125.0
 20
263.0
 30
0.0
 11
-125.0
 21
293.0
 31
0.0
  0
LINE
  5
2C1
  8
DETAIL
  6
CONTINUOUS
 62
     5
 10
-85.0
 20
263.0
 30
0.0
 11
-85.0
 21
293.0
 31
0.0
  0
LINE
  5
2C2
  8
DETAIL
  6
CONTINUOUS
 62
     5
 10
-85.0
 20
263.0
 30
0.0
 11
-125.0
 21
263.0
 31
0.0
  0
LINE
  5
2C3
  8
DETAIL
  6
CONTINUOUS
 62
     5
 10
-85.0
 20
265.0
 30
0.0
 11
-125.0
 21
265.0
 31
0.0
  0
LINE
  5
2C4
  8
NOTE
  6
CONTINUOUS
 62
     4
 10
-88.120053686817286
 20
263.0
 30
0.0
 11
-122.69565150038849
 21
263.0
 31
0.0
  0
ENDSEC
  0
EOF
