  0
SECTION
  2
HEADER
  9
$ACADVER
  1
AC1009
  9
$INSBASE
 10
0.0
 20
0.0
 30
0.0
  9
$EXTMIN
 10
-691.80086608849717
 20
-590.22260399328843
 30
0.0
  9
$EXTMAX
 10
1105.7399082627951
 20
639.16057807593813
 30
0.0
  9
$LIMMIN
 10
-2970.0
 20
-2100.0
  9
$LIMMAX
 10
2970.0
 20
2100.0
  9
$ORTHOMODE
 70
     1
  9
$REGENMODE
 70
     0
  9
$FILLMODE
 70
     1
  9
$QTEXTMODE
 70
     0
  9
$MIRRTEXT
 70
     0
  9
$DRAGMODE
 70
     2
  9
$LTSCALE
 40
20.0
  9
$OSMODE
 70
    41
  9
$ATTMODE
 70
     1
  9
$TEXTSIZE
 40
64.0
  9
$TRACEWID
 40
0.05
  9
$TEXTSTYLE
  7
STANDARD
  9
$CLAYER
  8
SIZE
  9
$CELTYPE
  6
CONTINUOUS
  9
$CECOLOR
 62
    30
  9
$DIMSCALE
 40
1.0
  9
$DIMASZ
 40
40.0
  9
$DIMEXO
 40
20.0
  9
$DIMDLI
 40
200.0
  9
$DIMRND
 40
0.0
  9
$DIMDLE
 40
0.0
  9
$DIMEXE
 40
30.0
  9
$DIMTP
 40
0.0
  9
$DIMTM
 40
0.0
  9
$DIMTXT
 40
64.0
  9
$DIMCEN
 40
0.09
  9
$DIMTSZ
 40
0.0
  9
$DIMTOL
 70
     0
  9
$DIMLIM
 70
     0
  9
$DIMTIH
 70
     0
  9
$DIMTOH
 70
     0
  9
$DIMSE1
 70
     0
  9
$DIMSE2
 70
     0
  9
$DIMTAD
 70
     1
  9
$DIMZIN
 70
     8
  9
$DIMBLK
  1
ORIGIN
  9
$DIMASO
 70
     1
  9
$DIMSHO
 70
     0
  9
$DIMPOST
  1

  9
$DIMAPOST
  1

  9
$DIMALT
 70
     0
  9
$DIMALTD
 70
     2
  9
$DIMALTF
 40
25.399999999999999
  9
$DIMLFAC
 40
1.0
  9
$DIMTOFL
 70
     1
  9
$DIMTVP
 40
0.0
  9
$DIMTIX
 70
     1
  9
$DIMSOXD
 70
     0
  9
$DIMSAH
 70
     0
  9
$DIMBLK1
  1

  9
$DIMBLK2
  1

  9
$DIMSTYLE
  2
STANDARD
  9
$DIMCLRD
 70
     0
  9
$DIMCLRE
 70
     0
  9
$DIMCLRT
 70
     0
  9
$DIMTFAC
 40
1.0
  9
$DIMGAP
 40
12.0
  9
$LUNITS
 70
     2
  9
$LUPREC
 70
     4
  9
$SKETCHINC
 40
0.1
  9
$FILLETRAD
 40
5.0
  9
$AUNITS
 70
     1
  9
$AUPREC
 70
     3
  9
$MENU
  1
ACAD
  9
$ELEVATION
 40
0.0
  9
$PELEVATION
 40
0.0
  9
$THICKNESS
 40
0.0
  9
$LIMCHECK
 70
     1
  9
$BLIPMODE
 70
     0
  9
$CHAMFERA
 40
0.0
  9
$CHAMFERB
 40
0.0
  9
$SKPOLY
 70
     0
  9
$TDCREATE
 40
2451123.4636226851
  9
$TDUPDATE
 40
2453758.4236004399
  9
$TDINDWG
 40
0.1883504977
  9
$TDUSRTIMER
 40
0.1883503241
  9
$USRTIMER
 70
     1
  9
$ANGBASE
 50
0.0
  9
$ANGDIR
 70
     0
  9
$PDMODE
 70
     3
  9
$PDSIZE
 40
-2.0
  9
$PLINEWID
 40
0.0
  9
$COORDS
 70
     2
  9
$SPLFRAME
 70
     0
  9
$SPLINETYPE
 70
     6
  9
$SPLINESEGS
 70
     8
  9
$ATTDIA
 70
     0
  9
$ATTREQ
 70
     1
  9
$HANDLING
 70
 22529
  9
$HANDSEED
  5
919
  9
$SURFTAB1
 70
     6
  9
$SURFTAB2
 70
     6
  9
$SURFTYPE
 70
     6
  9
$SURFU
 70
     6
  9
$SURFV
 70
     6
  9
$UCSNAME
  2

  9
$UCSORG
 10
0.0
 20
0.0
 30
0.0
  9
$UCSXDIR
 10
1.0
 20
0.0
 30
0.0
  9
$UCSYDIR
 10
0.0
 20
1.0
 30
0.0
  9
$PUCSNAME
  2

  9
$PUCSORG
 10
0.0
 20
0.0
 30
0.0
  9
$PUCSXDIR
 10
1.0
 20
0.0
 30
0.0
  9
$PUCSYDIR
 10
0.0
 20
1.0
 30
0.0
  9
$USERI1
 70
     0
  9
$USERI2
 70
     0
  9
$USERI3
 70
     0
  9
$USERI4
 70
     0
  9
$USERI5
 70
     0
  9
$USERR1
 40
20.0
  9
$USERR2
 40
0.0
  9
$USERR3
 40
0.0
  9
$USERR4
 40
0.0
  9
$USERR5
 40
0.0
  9
$WORLDVIEW
 70
     1
  9
$SHADEDGE
 70
     3
  9
$SHADEDIF
 70
    70
  9
$TILEMODE
 70
     1
  9
$MAXACTVP
 70
    48
  9
$PLIMCHECK
 70
     0
  9
$PEXTMIN
 10
1.0000000000000000E+020
 20
1.0000000000000000E+020
 30
1.0000000000000000E+020
  9
$PEXTMAX
 10
-1.0000000000000000E+020
 20
-1.0000000000000000E+020
 30
-1.0000000000000000E+020
  9
$PLIMMIN
 10
0.0
 20
0.0
  9
$PLIMMAX
 10
12.0
 20
9.0
  9
$UNITMODE
 70
     0
  9
$VISRETAIN
 70
     1
  9
$PLINEGEN
 70
     0
  9
$PSLTSCALE
 70
     1
  0
ENDSEC
  0
SECTION
  2
TABLES
  0
TABLE
  2
VPORT
 70
     3
  0
VPORT
  2
*ACTIVE
 70
     0
 10
0.0
 20
0.0
 11
1.0
 21
1.0
 12
-19.769624316995301
 22
-87.869125717494157
 13
0.0
 23
0.0
 14
400.0
 24
400.0
 15
400.0
 25
400.0
 16
0.0
 26
0.0
 36
1.0
 17
0.0
 27
0.0
 37
0.0
 40
2480.9481109549811
 41
1.4423558897243101
 42
50.0
 43
0.0
 44
0.0
 50
0.0
 51
0.0
 71
     0
 72
   500
 73
     1
 74
     0
 75
     0
 76
     0
 77
     0
 78
     0
  0
ENDTAB
  0
TABLE
  2
LTYPE
 70
     7
  0
LTYPE
  2
CONTINUOUS
 70
     0
  3
実線
 72
    65
 73
     0
 40
0.0
  0
LTYPE
  2
DASHED
 70
     0
  3
_ _ _ _ _ _ _ _ _ _ _ _ _ _ _ _ _ _ _ _ _ _ _
 72
    65
 73
     2
 40
2.0
 49
1.1999999999999991
 49
-0.8
  0
LTYPE
  2
DASHDOT
 70
     0
  3
____ _ ____ _ ____ _ ____ _ ____ _ ____ _ ____
 72
    65
 73
     4
 40
5.5
 49
4.0
 49
-0.6
 49
0.3
 49
-0.6
  0
LTYPE
  2
DOT
 70
     0
  3
...............................................
 72
    65
 73
     2
 40
0.8
 49
0.5
 49
-0.3
  0
LTYPE
  2
DASHDOT1
 70
     0
  3
____ _ ____ _ ____ _ ____ _ ____ _ ____ _ ____
 72
    65
 73
     4
 40
2.0
 49
1.5
 49
-0.2
 49
0.1
 49
-0.2
  0
LTYPE
  2
DIVIDE
 70
     0
  3
_____ _ _ _____ _ _ _____ _ _ _____ _ _ ____
 72
    65
 73
     6
 40
6.4000000000000004
 49
4.0
 49
-0.6
 49
0.3
 49
-0.6
 49
0.3
 49
-0.6
  0
LTYPE
  2
DIVIDE1
 70
     0
  3
_____ _ _ _____ _ _ _____ _ _ _____ _ _ ____
 72
    65
 73
     6
 40
3.2000000000000002
 49
2.0
 49
-0.3
 49
0.15
 49
-0.3
 49
0.15
 49
-0.3
  0
ENDTAB
  0
TABLE
  2
LAYER
 70
    12
  0
LAYER
  2
0
 70
     0
 62
     7
  6
CONTINUOUS
  0
LAYER
  2
SIZE
 70
     0
 62
    30
  6
CONTINUOUS
  0
LAYER
  2
OUTLINE
 70
     0
 62
     3
  6
CONTINUOUS
  0
LAYER
  2
DETAIL
 70
     0
 62
     5
  6
CONTINUOUS
  0
LAYER
  2
BASIS
 70
     0
 62
     6
  6
DASHDOT
  0
LAYER
  2
NOTE
 70
     0
 62
     4
  6
CONTINUOUS
  0
LAYER
  2
DEFPOINTS
 70
     0
 62
     7
  6
CONTINUOUS
  0
LAYER
  2
ARRANGE
 70
     0
 62
     1
  6
CONTINUOUS
  0
LAYER
  2
ETC
 70
     0
 62
    61
  6
CONTINUOUS
  0
LAYER
  2
FIX
 70
     0
 62
    11
  6
CONTINUOUS
  0
LAYER
  2
SERVICESPACE
 70
     0
 62
     2
  6
DASHDOT
  0
LAYER
  2
SYMBOLLINE
 70
     0
 62
    15
  6
CONTINUOUS
  0
ENDTAB
  0
TABLE
  2
STYLE
 70
     2
  0
STYLE
  2
STANDARD
 70
     0
 40
64.0
 41
0.9
 50
0.0
 71
     0
 42
64.0
  3
SIMPLEX.shx
  4
BIGFONT.shx
  0
STYLE
  2
STANDARD1
 70
     0
 40
0.0
 41
1.0
 50
0.0
 71
     0
 42
4.5
  3
MONOTXT
  4
BIGFONT
  0
ENDTAB
  0
TABLE
  2
VIEW
 70
     1
  0
VIEW
  2
ALL
 70
     0
 40
4508.0208510000002
 10
0.0
 20
41.309903999999989
 41
6252.631578999999
 11
0.0
 21
0.0
 31
1.0
 12
0.0
 22
0.0
 32
0.0
 42
50.0
 43
0.0
 44
0.0
 50
0.0
 71
     0
  0
ENDTAB
  0
TABLE
  2
UCS
 70
     0
  0
ENDTAB
  0
TABLE
  2
APPID
 70
     1
  0
APPID
  2
ACAD
 70
     0
  0
ENDTAB
  0
TABLE
  2
DIMSTYLE
 70
     1
  0
DIMSTYLE
  2
STANDARD
 70
     0
  3

  4

  5

  6

  7

 40
1.0
 41
0.18
 42
0.0625
 43
0.38
 44
0.18
 45
0.0
 46
0.0
 47
0.0
 48
0.0
140
0.18
141
0.09
142
0.0
143
25.399999999999999
144
1.0
145
0.0
146
1.0
147
0.09
 71
     0
 72
     0
 73
     1
 74
     1
 75
     0
 76
     0
 77
     0
 78
     0
170
     0
171
     2
172
     0
173
     0
174
     0
175
     0
176
     0
177
     0
178
     0
  0
ENDTAB
  0
ENDSEC
  0
SECTION
  2
BLOCKS
  0
BLOCK
  8
0
  2
$MODEL_SPACE
 70
     0
 10
0.0
 20
0.0
 30
0.0
  3
$MODEL_SPACE
  1

  0
ENDBLK
  5
67C
  8
0
  0
BLOCK
 67
     1
  8
0
  2
$PAPER_SPACE
 70
     0
 10
0.0
 20
0.0
 30
0.0
  3
$PAPER_SPACE
  1

  0
ENDBLK
  5
678
 67
     1
  8
0
  0
BLOCK
  8
0
  2
DOT1
 70
     0
 10
0.0
 20
0.0
 30
0.0
  3
DOT1
  1

  0
CIRCLE
  5
69E
  8
SIZE
  6
CONTINUOUS
 62
     7
 10
0.0
 20
0.0
 30
0.0
 40
3.0
  0
ENDBLK
  5
69F
  8
0
  0
BLOCK
  8
0
 62
    30
  2
_ORIGIN
 70
     0
 10
0.0
 20
0.0
 30
0.0
  3
_ORIGIN
  1

  0
CIRCLE
  5
6AB
  8
0
  6
BYBLOCK
 62
     0
 10
0.0
 20
0.0
 30
0.0
 40
0.5
  0
LINE
  5
6AC
  8
0
  6
BYBLOCK
 62
     0
 10
0.0
 20
0.0
 30
0.0
 11
-1.0
 21
0.0
 31
0.0
  0
ENDBLK
  5
6AD
  8
0
 62
    30
  0
BLOCK
  8
0
 62
    30
  2
_OPEN30
 70
     0
 10
0.0
 20
0.0
 30
0.0
  3
_OPEN30
  1

  0
LINE
  5
6B0
  8
0
  6
BYBLOCK
 62
     0
 10
-1.0
 20
0.26794919
 30
0.0
 11
0.0
 21
0.0
 31
0.0
  0
LINE
  5
6B1
  8
0
  6
BYBLOCK
 62
     0
 10
0.0
 20
0.0
 30
0.0
 11
-1.0
 21
-0.26794919
 31
0.0
  0
LINE
  5
6B2
  8
0
  6
BYBLOCK
 62
     0
 10
0.0
 20
0.0
 30
0.0
 11
-1.0
 21
0.0
 31
0.0
  0
ENDBLK
  5
6B3
  8
0
 62
    30
  0
ENDSEC
  0
SECTION
  2
ENTITIES
  0
LINE
  5
6FE
  8
BASIS
  6
DASHDOT
 62
     6
 10
326.50687499999992
 20
0.0
 30
0.0
 11
-327.53020400000008
 21
0.0
 31
0.0
  0
LINE
  5
6FF
  8
BASIS
  6
DASHDOT
 62
     6
 10
0.0
 20
351.90979599999991
 30
0.0
 11
0.0
 21
-334.48965399999992
 31
0.0
  0
CIRCLE
  5
700
  8
ARRANGE
  6
CONTINUOUS
 62
     1
 10
0.0
 20
0.0
 30
0.0
 40
40.0
  0
POINT
  5
701
  8
ARRANGE
  6
CONTINUOUS
 62
     1
 10
0.0
 20
0.0
 30
0.0
  0
TEXT
  5
702
  8
ETC
  6
CONTINUOUS
 62
    61
 10
703.54892012034179
 20
355.01961998263641
 30
0.0
 40
50.0
  1
VL-120Z2
 41
0.9
  0
TEXT
  5
703
  8
ETC
  6
CONTINUOUS
 62
    61
 10
568.13990826279564
 20
575.16057807593802
 30
0.0
 40
64.0
  1
VL-120Z2_6
 41
0.9
  0
TEXT
  5
704
  8
ETC
  6
CONTINUOUS
 62
    61
 10
568.13990826279564
 20
445.4901560759377
 30
0.0
 40
64.0
  1
換気扇
 41
0.9
  0
LINE
  5
705
  8
DETAIL
  6
CONTINUOUS
 62
     5
 10
200.51578799999999
 20
168.77328599999981
 30
0.0
 11
0.0
 21
168.77328599999981
 31
0.0
  0
LINE
  5
706
  8
DETAIL
  6
CONTINUOUS
 62
     5
 10
199.7979169999999
 20
168.06335899999999
 30
0.0
 11
161.9999999999998
 21
168.06335899999999
 31
0.0
  0
LINE
  5
707
  8
DETAIL
  6
CONTINUOUS
 62
     5
 10
0.0
 20
181.69000699999989
 30
0.0
 11
198.733026
 21
181.69000699999989
 31
0.0
  0
LINE
  5
708
  8
DETAIL
  6
CONTINUOUS
 62
     5
 10
-234.64350499999969
 20
168.06335899999999
 30
0.0
 11
-198.200581
 21
168.06335899999999
 31
0.0
  0
LINE
  5
709
  8
DETAIL
  6
CONTINUOUS
 62
     5
 10
-234.64350499999969
 20
168.77328599999981
 30
0.0
 11
-198.733026
 21
168.77328599999981
 31
0.0
  0
LINE
  5
70A
  8
DETAIL
  6
CONTINUOUS
 62
     5
 10
-198.733026
 20
181.69000699999989
 30
0.0
 11
-246.14432500000001
 21
181.69000699999989
 31
0.0
  0
LINE
  5
70B
  8
DETAIL
  6
CONTINUOUS
 62
     5
 10
0.0
 20
181.69000699999989
 30
0.0
 11
-198.733026
 21
181.69000699999989
 31
0.0
  0
LINE
  5
70C
  8
DETAIL
  6
CONTINUOUS
 62
     5
 10
-199.7979169999999
 20
168.06335899999999
 30
0.0
 11
-161.9999999999998
 21
168.06335899999999
 31
0.0
  0
LINE
  5
70D
  8
DETAIL
  6
CONTINUOUS
 62
     5
 10
-200.51578799999999
 20
168.77328599999981
 30
0.0
 11
0.0
 21
168.77328599999981
 31
0.0
  0
LINE
  5
70E
  8
DETAIL
  6
CONTINUOUS
 62
     5
 10
198.733026
 20
181.69000699999989
 30
0.0
 11
246.14432500000001
 21
181.69000699999989
 31
0.0
  0
LINE
  5
70F
  8
DETAIL
  6
CONTINUOUS
 62
     5
 10
234.64350499999969
 20
168.77328599999981
 30
0.0
 11
198.733026
 21
168.77328599999981
 31
0.0
  0
LINE
  5
710
  8
DETAIL
  6
CONTINUOUS
 62
     5
 10
234.64350499999969
 20
168.06335899999999
 30
0.0
 11
198.200581
 21
168.06335899999999
 31
0.0
  0
LINE
  5
711
  8
DETAIL
  6
CONTINUOUS
 62
     5
 10
0.0
 20
-181.69000699999989
 30
0.0
 11
198.733026
 21
-181.69000699999989
 31
0.0
  0
LINE
  5
712
  8
DETAIL
  6
CONTINUOUS
 62
     5
 10
199.7979169999999
 20
-168.06335899999999
 30
0.0
 11
161.9999999999998
 21
-168.06335899999999
 31
0.0
  0
LINE
  5
713
  8
DETAIL
  6
CONTINUOUS
 62
     5
 10
200.51578799999999
 20
-168.77328599999981
 30
0.0
 11
0.0
 21
-168.77328599999981
 31
0.0
  0
LINE
  5
714
  8
DETAIL
  6
CONTINUOUS
 62
     5
 10
-198.733026
 20
-181.69000699999989
 30
0.0
 11
-246.14432500000001
 21
-181.69000699999989
 31
0.0
  0
LINE
  5
715
  8
DETAIL
  6
CONTINUOUS
 62
     5
 10
-234.64350499999969
 20
-168.77328599999981
 30
0.0
 11
-198.733026
 21
-168.77328599999981
 31
0.0
  0
LINE
  5
716
  8
DETAIL
  6
CONTINUOUS
 62
     5
 10
-234.64350499999969
 20
-168.06335899999999
 30
0.0
 11
-198.200581
 21
-168.06335899999999
 31
0.0
  0
LINE
  5
717
  8
DETAIL
  6
CONTINUOUS
 62
     5
 10
-200.51578799999999
 20
-168.77328599999981
 30
0.0
 11
0.0
 21
-168.77328599999981
 31
0.0
  0
LINE
  5
718
  8
DETAIL
  6
CONTINUOUS
 62
     5
 10
-199.7979169999999
 20
-168.06335899999999
 30
0.0
 11
-161.9999999999998
 21
-168.06335899999999
 31
0.0
  0
LINE
  5
719
  8
DETAIL
  6
CONTINUOUS
 62
     5
 10
0.0
 20
-181.69000699999989
 30
0.0
 11
-198.733026
 21
-181.69000699999989
 31
0.0
  0
LINE
  5
71A
  8
DETAIL
  6
CONTINUOUS
 62
     5
 10
234.64350499999969
 20
-168.06335899999999
 30
0.0
 11
198.200581
 21
-168.06335899999999
 31
0.0
  0
LINE
  5
71B
  8
DETAIL
  6
CONTINUOUS
 62
     5
 10
234.64350499999969
 20
-168.77328599999981
 30
0.0
 11
198.733026
 21
-168.77328599999981
 31
0.0
  0
LINE
  5
71C
  8
DETAIL
  6
CONTINUOUS
 62
     5
 10
198.733026
 20
-181.69000699999989
 30
0.0
 11
246.14432500000001
 21
-181.69000699999989
 31
0.0
  0
LINE
  5
71D
  8
DETAIL
  6
CONTINUOUS
 62
     5
 10
208.7330259999998
 20
-181.69000699999989
 30
0.0
 11
256.14432499999992
 21
-181.69000699999989
 31
0.0
  0
LINE
  5
71E
  8
DETAIL
  6
CONTINUOUS
 62
     5
 10
244.64350499999981
 20
-168.77328599999981
 30
0.0
 11
208.7330259999998
 21
-168.77328599999981
 31
0.0
  0
ARC
  5
71F
  8
DETAIL
  6
CONTINUOUS
 62
     5
 10
244.64350499999981
 20
-166.64350499999969
 30
0.0
 40
2.1297820000000001
 50
270.0
 51
0.0
  0
ARC
  5
721
  8
DETAIL
  6
CONTINUOUS
 62
     5
 10
256.14432499999992
 20
-178.14037099999999
 30
0.0
 40
3.549636
 50
270.0
 51
0.0
  0
ARC
  5
722
  8
DETAIL
  6
CONTINUOUS
 62
     5
 10
255.64737599999981
 20
-177.6487229999999
 30
0.0
 40
1.774817999999998
 50
270.0
 51
0.0
  0
LINE
  5
723
  8
DETAIL
  6
CONTINUOUS
 62
     5
 10
244.64350499999981
 20
168.77328599999981
 30
0.0
 11
208.7330259999998
 21
168.77328599999981
 31
0.0
  0
LINE
  5
724
  8
DETAIL
  6
CONTINUOUS
 62
     5
 10
208.7330259999998
 20
181.69000699999989
 30
0.0
 11
256.14432499999992
 21
181.69000699999989
 31
0.0
  0
ARC
  5
725
  8
DETAIL
  6
CONTINUOUS
 62
     5
 10
256.14432499999992
 20
178.14037099999999
 30
0.0
 40
3.549636
 50
0.0
 51
90.0
  0
ARC
  5
727
  8
DETAIL
  6
CONTINUOUS
 62
     5
 10
244.64350499999981
 20
166.64350499999969
 30
0.0
 40
2.1297820000000001
 50
0.0
 51
90.0
  0
ARC
  5
728
  8
DETAIL
  6
CONTINUOUS
 62
     5
 10
255.64737599999981
 20
177.6487229999999
 30
0.0
 40
1.774817999999998
 50
0.0
 51
90.0
  0
LINE
  5
729
  8
BASIS
  6
DASHDOT
 62
     6
 10
316.50687499999992
 20
0.0
 30
0.0
 11
-337.53020400000008
 21
0.0
 31
0.0
  0
LINE
  5
72A
  8
DETAIL
  6
CONTINUOUS
 62
     5
 10
-243.1750969238708
 20
-168.06335899999999
 30
0.0
 11
-208.200581
 21
-168.06335899999999
 31
0.0
  0
LINE
  5
72B
  8
DETAIL
  6
CONTINUOUS
 62
     5
 10
-244.64350499999981
 20
-168.77328599999981
 30
0.0
 11
-208.7330259999998
 21
-168.77328599999981
 31
0.0
  0
LINE
  5
72C
  8
DETAIL
  6
CONTINUOUS
 62
     5
 10
-208.7330259999998
 20
-181.69000699999989
 30
0.0
 11
-256.14432499999992
 21
-181.69000699999989
 31
0.0
  0
ARC
  5
72E
  8
DETAIL
  6
CONTINUOUS
 62
     5
 10
-244.64350499999981
 20
-166.64350499999969
 30
0.0
 40
2.1297820000000001
 50
180.0
 51
270.0
  0
ARC
  5
72F
  8
DETAIL
  6
CONTINUOUS
 62
     5
 10
-256.14432499999992
 20
-178.14037099999999
 30
0.0
 40
3.549636
 50
180.0
 51
270.0
  0
ARC
  5
730
  8
DETAIL
  6
CONTINUOUS
 62
     5
 10
-255.64737600000001
 20
-177.6487229999999
 30
0.0
 40
1.774817999999998
 50
180.0
 51
270.0
  0
LINE
  5
731
  8
DETAIL
  6
CONTINUOUS
 62
     5
 10
-10.00000000000005
 20
-181.69000699999989
 30
0.0
 11
-208.7330259999998
 21
-181.69000699999989
 31
0.0
  0
LINE
  5
732
  8
DETAIL
  6
CONTINUOUS
 62
     5
 10
-209.79791700000001
 20
-168.06335899999999
 30
0.0
 11
-162.0
 21
-168.06335899999999
 31
0.0
  0
LINE
  5
733
  8
DETAIL
  6
CONTINUOUS
 62
     5
 10
-210.5157879999999
 20
-168.77328599999981
 30
0.0
 11
-82.0
 21
-168.77328599999981
 31
0.0
  0
LINE
  5
734
  8
DETAIL
  6
CONTINUOUS
 62
     5
 10
-208.7330259999998
 20
181.69000699999989
 30
0.0
 11
-256.14432499999992
 21
181.69000699999989
 31
0.0
  0
LINE
  5
735
  8
DETAIL
  6
CONTINUOUS
 62
     5
 10
-244.64350499999981
 20
168.77328599999981
 30
0.0
 11
-208.7330259999998
 21
168.77328599999981
 31
0.0
  0
LINE
  5
736
  8
DETAIL
  6
CONTINUOUS
 62
     5
 10
-243.1843659365874
 20
168.06335899999999
 30
0.0
 11
-208.200581
 21
168.06335899999999
 31
0.0
  0
ARC
  5
737
  8
DETAIL
  6
CONTINUOUS
 62
     5
 10
-256.14432499999992
 20
178.14037099999999
 30
0.0
 40
3.549636
 50
90.0
 51
180.0
  0
ARC
  5
738
  8
DETAIL
  6
CONTINUOUS
 62
     5
 10
-244.64350499999981
 20
166.64350499999969
 30
0.0
 40
2.1297820000000001
 50
90.0
 51
180.0
  0
ARC
  5
73A
  8
DETAIL
  6
CONTINUOUS
 62
     5
 10
-255.64737600000001
 20
177.6487229999999
 30
0.0
 40
1.774817999999998
 50
90.0
 51
180.0
  0
LINE
  5
73B
  8
DETAIL
  6
CONTINUOUS
 62
     5
 10
-210.5157879999999
 20
168.77328599999981
 30
0.0
 11
-10.00000000000005
 21
168.77328599999981
 31
0.0
  0
LINE
  5
73C
  8
DETAIL
  6
CONTINUOUS
 62
     5
 10
-209.79791700000001
 20
168.06335899999999
 30
0.0
 11
-161.9999999999998
 21
168.06335899999999
 31
0.0
  0
LINE
  5
73D
  8
DETAIL
  6
CONTINUOUS
 62
     5
 10
-10.00000000000005
 20
181.69000699999989
 30
0.0
 11
-208.7330259999998
 21
181.69000699999989
 31
0.0
  0
LINE
  5
73E
  8
DETAIL
  6
CONTINUOUS
 62
     5
 10
234.64350499999969
 20
-168.06335899999999
 30
0.0
 11
243.30692785256991
 21
-168.06335899999991
 31
0.0
  0
LINE
  5
73F
  8
DETAIL
  6
CONTINUOUS
 62
     5
 10
234.64350499999969
 20
168.06335899999999
 30
0.0
 11
243.22626146146709
 21
168.06335899999991
 31
0.0
  0
LINE
  5
740
  8
DETAIL
  6
CONTINUOUS
 62
     5
 10
259.693961
 20
-178.14037099999999
 30
0.0
 11
259.693961
 21
178.14037099999999
 31
0.0
  0
LINE
  5
741
  8
DETAIL
  6
CONTINUOUS
 62
     5
 10
257.42219399999999
 20
177.6487229999999
 30
0.0
 11
257.42219399999999
 21
-177.6487229999999
 31
0.0
  0
LINE
  5
742
  8
DETAIL
  6
CONTINUOUS
 62
     5
 10
246.7732869999999
 20
-166.64350499999969
 30
0.0
 11
246.7732869999999
 21
166.64350499999969
 31
0.0
  0
LINE
  5
743
  8
DETAIL
  6
CONTINUOUS
 62
     5
 10
246.06335899999991
 20
165.28849757688511
 30
0.0
 11
246.06335899999991
 21
91.999999999999986
 31
0.0
  0
LINE
  5
744
  8
DETAIL
  6
CONTINUOUS
 62
     5
 10
-246.06335899999999
 20
-165.23979349353101
 30
0.0
 11
-246.06335899999999
 21
-92.0
 31
0.0
  0
LINE
  5
745
  8
DETAIL
  6
CONTINUOUS
 62
     5
 10
-246.77328700000001
 20
166.64350499999969
 30
0.0
 11
-246.77328700000001
 21
-166.64350499999969
 31
0.0
  0
LINE
  5
746
  8
DETAIL
  6
CONTINUOUS
 62
     5
 10
-257.42219399999999
 20
-177.6487229999999
 30
0.0
 11
-257.42219399999999
 21
177.6487229999999
 31
0.0
  0
LINE
  5
747
  8
DETAIL
  6
CONTINUOUS
 62
     5
 10
-259.693961
 20
178.14037099999999
 30
0.0
 11
-259.693961
 21
-178.14037099999999
 31
0.0
  0
LINE
  5
748
  8
DETAIL
  6
CONTINUOUS
 62
     5
 10
-285.0
 20
212.0
 30
0.0
 11
284.99999999999972
 21
212.0
 31
0.0
  0
LINE
  5
749
  8
DETAIL
  6
CONTINUOUS
 62
     5
 10
289.99999999999972
 20
207.0
 30
0.0
 11
289.99999999999972
 21
-207.0
 31
0.0
  0
LINE
  5
74A
  8
DETAIL
  6
CONTINUOUS
 62
     5
 10
284.99999999999972
 20
-212.0
 30
0.0
 11
-285.0
 21
-212.0
 31
0.0
  0
LINE
  5
74B
  8
DETAIL
  6
CONTINUOUS
 62
     5
 10
-290.0
 20
-207.0
 30
0.0
 11
-290.0
 21
207.0
 31
0.0
  0
ARC
  5
74C
  8
DETAIL
  6
CONTINUOUS
 62
     5
 10
-285.0
 20
207.0
 30
0.0
 40
5.0
 50
90.0
 51
180.0
  0
ARC
  5
74D
  8
DETAIL
  6
CONTINUOUS
 62
     5
 10
284.99999999999972
 20
207.0
 30
0.0
 40
5.0
 50
0.0
 51
90.0
  0
ARC
  5
74E
  8
DETAIL
  6
CONTINUOUS
 62
     5
 10
284.99999999999972
 20
-207.0
 30
0.0
 40
5.0
 50
270.0
 51
0.0
  0
ARC
  5
74F
  8
DETAIL
  6
CONTINUOUS
 62
     5
 10
-285.0
 20
-207.0
 30
0.0
 40
5.0
 50
180.0
 51
270.0
  0
LINE
  5
750
  8
BASIS
  6
DASHDOT
 62
     6
 10
-133.0
 20
-129.1779758824386
 30
0.0
 11
-133.0
 21
-334.48965399999992
 31
0.0
  0
LINE
  5
751
  8
BASIS
  6
DASHDOT
 62
     6
 10
191.9999999999998
 20
-129.1779758824386
 30
0.0
 11
191.9999999999998
 21
-334.48965399999992
 31
0.0
  0
LINE
  5
752
  8
DETAIL
  6
CONTINUOUS
 62
     5
 10
-255.64737600000001
 20
179.42354099999969
 30
0.0
 11
255.64737599999981
 21
179.42354099999969
 31
0.0
  0
LINE
  5
753
  8
DETAIL
  6
CONTINUOUS
 62
     5
 10
-255.64737600000001
 20
-179.42354099999969
 30
0.0
 11
255.64737599999981
 21
-179.42354099999969
 31
0.0
  0
LINE
  5
754
  8
DETAIL
  6
CONTINUOUS
 62
     5
 10
-217.0
 20
139.0
 30
0.0
 11
217.0
 21
139.0
 31
0.0
  0
LINE
  5
755
  8
DETAIL
  6
CONTINUOUS
 62
     5
 10
217.0
 20
139.0
 30
0.0
 11
217.0
 21
-139.0
 31
0.0
  0
LINE
  5
756
  8
DETAIL
  6
CONTINUOUS
 62
     5
 10
217.0
 20
-139.0
 30
0.0
 11
-217.0
 21
-139.0
 31
0.0
  0
LINE
  5
757
  8
DETAIL
  6
CONTINUOUS
 62
     5
 10
-217.0
 20
-139.0
 30
0.0
 11
-217.0
 21
139.0
 31
0.0
  0
LINE
  5
758
  8
DETAIL
  6
CONTINUOUS
 62
     5
 10
-182.0
 20
-275.0
 30
0.0
 11
-84.000000000000028
 21
-275.0
 31
0.0
  0
LINE
  5
759
  8
DETAIL
  6
CONTINUOUS
 62
     5
 10
-84.0
 20
-275.0
 30
0.0
 11
-84.000000000000028
 21
-250.0
 31
0.0
  0
LINE
  5
75A
  8
DETAIL
  6
CONTINUOUS
 62
     5
 10
-182.0
 20
-275.0
 30
0.0
 11
-181.9999999999998
 21
-249.99999999999989
 31
0.0
  0
LINE
  5
75B
  8
DETAIL
  6
CONTINUOUS
 62
     5
 10
-78.000000000000014
 20
-250.0
 30
0.0
 11
-78.0
 21
-212.0
 31
0.0
  0
LINE
  5
75C
  8
DETAIL
  6
CONTINUOUS
 62
     5
 10
-188.0
 20
-250.0
 30
0.0
 11
-188.0
 21
-212.0
 31
0.0
  0
LINE
  5
75D
  8
DETAIL
  6
CONTINUOUS
 62
     5
 10
142.99999999999969
 20
-275.0
 30
0.0
 11
240.99999999999969
 21
-275.0
 31
0.0
  0
LINE
  5
75E
  8
DETAIL
  6
CONTINUOUS
 62
     5
 10
240.99999999999969
 20
-275.0
 30
0.0
 11
240.9999999999998
 21
-250.0
 31
0.0
  0
LINE
  5
75F
  8
DETAIL
  6
CONTINUOUS
 62
     5
 10
142.99999999999969
 20
-250.0
 30
0.0
 11
142.99999999999969
 21
-275.0
 31
0.0
  0
LINE
  5
760
  8
DETAIL
  6
CONTINUOUS
 62
     5
 10
246.99999999999969
 20
-250.0
 30
0.0
 11
246.99999999999969
 21
-212.0
 31
0.0
  0
LINE
  5
761
  8
DETAIL
  6
CONTINUOUS
 62
     5
 10
136.9999999999998
 20
-250.0
 30
0.0
 11
136.9999999999998
 21
-212.0
 31
0.0
  0
LINE
  5
762
  8
DETAIL
  6
CONTINUOUS
 62
     5
 10
-2.0
 20
-168.06335900000059
 30
0.0
 11
-2.0000000000000271
 21
-139.0
 31
0.0
  0
LINE
  5
763
  8
DETAIL
  6
CONTINUOUS
 62
     5
 10
2.0
 20
-139.0
 30
0.0
 11
2.0
 21
-168.06335899999999
 31
0.0
  0
LINE
  5
764
  8
DETAIL
  6
CONTINUOUS
 62
     5
 10
2.0
 20
139.0
 30
0.0
 11
2.0
 21
168.06335899999999
 31
0.0
  0
LINE
  5
765
  8
DETAIL
  6
CONTINUOUS
 62
     5
 10
-2.0
 20
168.06335899999999
 30
0.0
 11
-2.0
 21
139.0
 31
0.0
  0
LINE
  5
766
  8
DETAIL
  6
CONTINUOUS
 62
     5
 10
-162.0
 20
139.0
 30
0.0
 11
-162.0
 21
168.06335899999999
 31
0.0
  0
LINE
  5
767
  8
DETAIL
  6
CONTINUOUS
 62
     5
 10
-158.0
 20
168.06335899999999
 30
0.0
 11
-158.0
 21
139.0
 31
0.0
  0
LINE
  5
768
  8
DETAIL
  6
CONTINUOUS
 62
     5
 10
-82.0
 20
139.0
 30
0.0
 11
-82.0
 21
168.06335899999999
 31
0.0
  0
LINE
  5
769
  8
DETAIL
  6
CONTINUOUS
 62
     5
 10
-78.0
 20
168.06335899999999
 30
0.0
 11
-78.0
 21
139.0
 31
0.0
  0
LINE
  5
76A
  8
DETAIL
  6
CONTINUOUS
 62
     5
 10
78.0
 20
139.0
 30
0.0
 11
78.000000000000014
 21
168.06335899999999
 31
0.0
  0
LINE
  5
76B
  8
DETAIL
  6
CONTINUOUS
 62
     5
 10
81.999999999999986
 20
168.06335899999999
 30
0.0
 11
82.0
 21
139.0
 31
0.0
  0
LINE
  5
76C
  8
DETAIL
  6
CONTINUOUS
 62
     5
 10
158.0
 20
139.0
 30
0.0
 11
158.0
 21
168.06335899999999
 31
0.0
  0
LINE
  5
76D
  8
DETAIL
  6
CONTINUOUS
 62
     5
 10
162.0
 20
168.06335899999999
 30
0.0
 11
162.0
 21
139.0
 31
0.0
  0
LINE
  5
76E
  8
DETAIL
  6
CONTINUOUS
 62
     5
 10
217.0
 20
92.0
 30
0.0
 11
246.06335899999991
 21
92.0
 31
0.0
  0
LINE
  5
76F
  8
DETAIL
  6
CONTINUOUS
 62
     5
 10
246.06335899999991
 20
88.0
 30
0.0
 11
217.0
 21
88.0
 31
0.0
  0
LINE
  5
770
  8
DETAIL
  6
CONTINUOUS
 62
     5
 10
217.0
 20
32.0
 30
0.0
 11
246.06335899999991
 21
32.0
 31
0.0
  0
LINE
  5
771
  8
DETAIL
  6
CONTINUOUS
 62
     5
 10
246.06335899999991
 20
27.999999999999972
 30
0.0
 11
217.0
 21
28.0
 31
0.0
  0
LINE
  5
772
  8
DETAIL
  6
CONTINUOUS
 62
     5
 10
217.0
 20
-28.0
 30
0.0
 11
246.06335899999991
 21
-28.0
 31
0.0
  0
LINE
  5
773
  8
DETAIL
  6
CONTINUOUS
 62
     5
 10
246.06335899999991
 20
-32.0
 30
0.0
 11
217.0
 21
-32.0
 31
0.0
  0
LINE
  5
774
  8
DETAIL
  6
CONTINUOUS
 62
     5
 10
217.0
 20
-88.0
 30
0.0
 11
246.06335899999991
 21
-88.0
 31
0.0
  0
LINE
  5
775
  8
DETAIL
  6
CONTINUOUS
 62
     5
 10
246.06335899999991
 20
-92.0
 30
0.0
 11
217.0
 21
-92.0
 31
0.0
  0
LINE
  5
776
  8
DETAIL
  6
CONTINUOUS
 62
     5
 10
-217.0
 20
92.0
 30
0.0
 11
-246.06335899999999
 21
92.0
 31
0.0
  0
LINE
  5
777
  8
DETAIL
  6
CONTINUOUS
 62
     5
 10
-246.06335899999999
 20
88.0
 30
0.0
 11
-217.0
 21
88.0
 31
0.0
  0
LINE
  5
778
  8
DETAIL
  6
CONTINUOUS
 62
     5
 10
-217.0
 20
32.0
 30
0.0
 11
-246.06335899999999
 21
32.0
 31
0.0
  0
LINE
  5
779
  8
DETAIL
  6
CONTINUOUS
 62
     5
 10
-246.06335899999999
 20
28.0
 30
0.0
 11
-217.0
 21
28.0
 31
0.0
  0
LINE
  5
77A
  8
DETAIL
  6
CONTINUOUS
 62
     5
 10
-217.0
 20
-28.0
 30
0.0
 11
-246.06335899999999
 21
-28.0
 31
0.0
  0
LINE
  5
77B
  8
DETAIL
  6
CONTINUOUS
 62
     5
 10
-246.06335899999999
 20
-32.0
 30
0.0
 11
-217.0
 21
-32.0
 31
0.0
  0
LINE
  5
77C
  8
DETAIL
  6
CONTINUOUS
 62
     5
 10
-217.0
 20
-88.0
 30
0.0
 11
-246.06335899999999
 21
-88.0
 31
0.0
  0
LINE
  5
77D
  8
DETAIL
  6
CONTINUOUS
 62
     5
 10
-246.06335899999999
 20
-92.0
 30
0.0
 11
-217.0
 21
-92.0
 31
0.0
  0
LINE
  5
77E
  8
DETAIL
  6
CONTINUOUS
 62
     5
 10
-162.0
 20
-139.0
 30
0.0
 11
-162.0
 21
-168.06335899999991
 31
0.0
  0
LINE
  5
77F
  8
DETAIL
  6
CONTINUOUS
 62
     5
 10
-158.0
 20
-168.0633590000011
 30
0.0
 11
-158.0
 21
-139.0
 31
0.0
  0
LINE
  5
780
  8
DETAIL
  6
CONTINUOUS
 62
     5
 10
-82.0
 20
-139.0
 30
0.0
 11
-82.0
 21
-168.06335899999991
 31
0.0
  0
LINE
  5
781
  8
DETAIL
  6
CONTINUOUS
 62
     5
 10
-78.0
 20
-168.06335900000079
 30
0.0
 11
-78.0
 21
-139.0
 31
0.0
  0
LINE
  5
782
  8
DETAIL
  6
CONTINUOUS
 62
     5
 10
78.0
 20
-139.0
 30
0.0
 11
78.000000000000014
 21
-168.06335899999999
 31
0.0
  0
LINE
  5
783
  8
DETAIL
  6
CONTINUOUS
 62
     5
 10
82.000000000000014
 20
-168.0633590000003
 30
0.0
 11
82.0
 21
-139.0
 31
0.0
  0
LINE
  5
784
  8
DETAIL
  6
CONTINUOUS
 62
     5
 10
158.0
 20
-139.0
 30
0.0
 11
158.0
 21
-168.06335899999999
 31
0.0
  0
LINE
  5
785
  8
DETAIL
  6
CONTINUOUS
 62
     5
 10
162.0
 20
-168.0633590000001
 30
0.0
 11
162.0
 21
-139.0
 31
0.0
  0
LINE
  5
786
  8
DETAIL
  6
CONTINUOUS
 62
     5
 10
256.14432499999992
 20
181.69000699999989
 30
0.0
 11
286.82615678683072
 21
211.65458391157679
 31
0.0
  0
LINE
  5
787
  8
DETAIL
  6
CONTINUOUS
 62
     5
 10
289.65458391157682
 20
208.82615678683061
 30
0.0
 11
259.63154246786212
 21
178.80311534311591
 31
0.0
  0
LINE
  5
788
  8
DETAIL
  6
CONTINUOUS
 62
     5
 10
246.06335899999991
 20
165.28849757688511
 30
0.0
 11
217.0
 21
136.25946646842391
 31
0.0
  0
LINE
  5
789
  8
DETAIL
  6
CONTINUOUS
 62
     5
 10
214.1573459763469
 20
139.0
 30
0.0
 11
243.226261461467
 21
168.06335899999991
 31
0.0
  0
LINE
  5
78A
  8
DETAIL
  6
CONTINUOUS
 62
     5
 10
217.0
 20
-136.1296751203777
 30
0.0
 11
246.06335899999991
 21
-165.2093977884588
 31
0.0
  0
LINE
  5
78B
  8
DETAIL
  6
CONTINUOUS
 62
     5
 10
243.30692785256991
 20
-168.06335899999991
 30
0.0
 11
214.2897078935093
 21
-139.0
 31
0.0
  0
LINE
  5
78C
  8
DETAIL
  6
CONTINUOUS
 62
     5
 10
259.63437167819637
 20
-178.78805141232141
 30
0.0
 11
289.99999999999972
 21
-209.17077662450609
 31
0.0
  0
LINE
  5
78D
  8
DETAIL
  6
CONTINUOUS
 62
     5
 10
287.17381798592561
 20
-212.0
 30
0.0
 11
256.84267845732012
 21
-181.6206322231188
 31
0.0
  0
LINE
  5
78E
  8
DETAIL
  6
CONTINUOUS
 62
     5
 10
-217.0
 20
-136.1795500898892
 30
0.0
 11
-246.06335899999999
 21
-165.23979349353101
 31
0.0
  0
LINE
  5
78F
  8
DETAIL
  6
CONTINUOUS
 62
     5
 10
-214.07339234715411
 20
-139.0
 30
0.0
 11
-243.1750969238708
 21
-168.06335899999999
 31
0.0
  0
LINE
  5
790
  8
DETAIL
  6
CONTINUOUS
 62
     5
 10
-256.76497103029061
 20
-181.6353265415741
 30
0.0
 11
-286.82448973140652
 21
-211.65523761155001
 31
0.0
  0
LINE
  5
791
  8
DETAIL
  6
CONTINUOUS
 62
     5
 10
-289.65453075505712
 20
-208.8262922685667
 30
0.0
 11
-259.693961
 21
-178.14037099999999
 31
0.0
  0
LINE
  5
792
  8
DETAIL
  6
CONTINUOUS
 62
     5
 10
-286.82474792574311
 20
211.65513641126589
 30
0.0
 11
-256.77048192101529
 21
181.6343434158556
 31
0.0
  0
LINE
  5
793
  8
DETAIL
  6
CONTINUOUS
 62
     5
 10
-259.693961
 20
178.14037099999999
 30
0.0
 11
-289.65460793702351
 21
208.82609554859471
 31
0.0
  0
LINE
  5
794
  8
DETAIL
  6
CONTINUOUS
 62
     5
 10
-243.1843659365874
 20
168.06335899999999
 30
0.0
 11
-214.08860146059811
 21
139.0
 31
0.0
  0
LINE
  5
795
  8
DETAIL
  6
CONTINUOUS
 62
     5
 10
-217.0
 20
136.1679670502929
 30
0.0
 11
-246.06335899999999
 21
165.23273434825521
 31
0.0
  0
LINE
  5
796
  8
DETAIL
  6
CONTINUOUS
 62
     5
 10
158.0
 20
168.06335899999999
 30
0.0
 11
81.999999999999986
 21
168.06335899999999
 31
0.0
  0
LINE
  5
797
  8
DETAIL
  6
CONTINUOUS
 62
     5
 10
246.06335899999991
 20
87.999999999999986
 30
0.0
 11
246.06335899999991
 21
32.0
 31
0.0
  0
LINE
  5
798
  8
DETAIL
  6
CONTINUOUS
 62
     5
 10
246.06335899999991
 20
28.0
 30
0.0
 11
246.06335899999999
 21
-28.0
 31
0.0
  0
LINE
  5
799
  8
DETAIL
  6
CONTINUOUS
 62
     5
 10
246.06335899999991
 20
-32.0
 30
0.0
 11
246.06335899999999
 21
-88.0
 31
0.0
  0
LINE
  5
79A
  8
DETAIL
  6
CONTINUOUS
 62
     5
 10
246.06335899999991
 20
-92.0
 30
0.0
 11
246.06335899999991
 21
-165.2093977884588
 31
0.0
  0
LINE
  5
79B
  8
DETAIL
  6
CONTINUOUS
 62
     5
 10
158.0
 20
-168.06335899999999
 30
0.0
 11
82.000000000000156
 21
-168.06335899999999
 31
0.0
  0
LINE
  5
79C
  8
DETAIL
  6
CONTINUOUS
 62
     5
 10
77.999999999999872
 20
-168.06335899999999
 30
0.0
 11
2.0
 21
-168.06335899999999
 31
0.0
  0
LINE
  5
79D
  8
DETAIL
  6
CONTINUOUS
 62
     5
 10
-78.0
 20
-168.06335899999999
 30
0.0
 11
-10.00000000000005
 21
-168.06335899999999
 31
0.0
  0
LINE
  5
79E
  8
DETAIL
  6
CONTINUOUS
 62
     5
 10
-78.0
 20
-168.77328599999981
 30
0.0
 11
-10.00000000000005
 21
-168.77328599999981
 31
0.0
  0
LINE
  5
79F
  8
DETAIL
  6
CONTINUOUS
 62
     5
 10
-78.0
 20
-168.06335899999999
 30
0.0
 11
-2.0
 21
-168.06335899999999
 31
0.0
  0
LINE
  5
7A0
  8
DETAIL
  6
CONTINUOUS
 62
     5
 10
-158.0
 20
-168.06335899999999
 30
0.0
 11
-82.0
 21
-168.06335899999999
 31
0.0
  0
LINE
  5
7A1
  8
DETAIL
  6
CONTINUOUS
 62
     5
 10
-158.0
 20
-168.06335899999999
 30
0.0
 11
-82.0
 21
-168.06335899999999
 31
0.0
  0
LINE
  5
7A2
  8
DETAIL
  6
CONTINUOUS
 62
     5
 10
-246.06335899999999
 20
-87.999999999999986
 30
0.0
 11
-246.06335899999999
 21
-32.0
 31
0.0
  0
LINE
  5
7A3
  8
DETAIL
  6
CONTINUOUS
 62
     5
 10
-246.06335899999999
 20
-28.0
 30
0.0
 11
-246.06335899999999
 21
27.999999999999972
 31
0.0
  0
LINE
  5
7A4
  8
DETAIL
  6
CONTINUOUS
 62
     5
 10
-246.06335899999999
 20
32.0
 30
0.0
 11
-246.06335899999999
 21
88.0
 31
0.0
  0
LINE
  5
7A5
  8
DETAIL
  6
CONTINUOUS
 62
     5
 10
-246.06335899999999
 20
91.999999999999986
 30
0.0
 11
-246.06335899999999
 21
165.23273434825521
 31
0.0
  0
LINE
  5
7A6
  8
DETAIL
  6
CONTINUOUS
 62
     5
 10
-158.0
 20
168.06335899999999
 30
0.0
 11
-82.0
 21
168.06335899999999
 31
0.0
  0
LINE
  5
7A7
  8
DETAIL
  6
CONTINUOUS
 62
     5
 10
-158.0
 20
168.06335899999999
 30
0.0
 11
-82.0
 21
168.06335899999999
 31
0.0
  0
LINE
  5
7A8
  8
DETAIL
  6
CONTINUOUS
 62
     5
 10
-78.000000000000014
 20
168.06335899999999
 30
0.0
 11
-2.0
 21
168.06335899999999
 31
0.0
  0
LINE
  5
7A9
  8
DETAIL
  6
CONTINUOUS
 62
     5
 10
-78.0
 20
168.06335899999999
 30
0.0
 11
-10.00000000000005
 21
168.06335899999999
 31
0.0
  0
LINE
  5
7AA
  8
DETAIL
  6
CONTINUOUS
 62
     5
 10
78.000000000000014
 20
168.06335899999999
 30
0.0
 11
2.0
 21
168.06335899999999
 31
0.0
  0
LINE
  5
7AB
  8
OUTLINE
  6
CONTINUOUS
 62
     3
 10
-285.0
 20
212.0
 30
0.0
 11
284.99999999999972
 21
212.0
 31
0.0
  0
LINE
  5
7AC
  8
OUTLINE
  6
CONTINUOUS
 62
     3
 10
289.99999999999972
 20
207.0
 30
0.0
 11
289.99999999999972
 21
-207.0
 31
0.0
  0
LINE
  5
7AD
  8
OUTLINE
  6
CONTINUOUS
 62
     3
 10
284.99999999999972
 20
-212.0
 30
0.0
 11
-285.0
 21
-212.0
 31
0.0
  0
LINE
  5
7AE
  8
OUTLINE
  6
CONTINUOUS
 62
     3
 10
-290.0
 20
-207.0
 30
0.0
 11
-290.0
 21
207.0
 31
0.0
  0
ARC
  5
7AF
  8
OUTLINE
  6
CONTINUOUS
 62
     3
 10
-285.0
 20
207.0
 30
0.0
 40
5.0
 50
90.0
 51
180.0
  0
ARC
  5
7B0
  8
OUTLINE
  6
CONTINUOUS
 62
     3
 10
284.99999999999972
 20
207.0
 30
0.0
 40
5.0
 50
0.0
 51
90.0
  0
ARC
  5
7B1
  8
OUTLINE
  6
CONTINUOUS
 62
     3
 10
284.99999999999972
 20
-207.0
 30
0.0
 40
5.0
 50
270.0
 51
0.0
  0
ARC
  5
7B2
  8
OUTLINE
  6
CONTINUOUS
 62
     3
 10
-285.0
 20
-207.0
 30
0.0
 40
5.0
 50
180.0
 51
270.0
  0
LINE
  5
7B3
  8
SIZE
  6
CONTINUOUS
 62
    30
 10
-290.0
 20
227.0
 30
0.0
 11
-290.0
 21
436.63165816655322
 31
0.0
  0
LINE
  5
7B4
  8
SIZE
  6
CONTINUOUS
 62
    30
 10
289.99999999999972
 20
227.0
 30
0.0
 11
289.99999999999972
 21
436.63165816655322
 31
0.0
  0
LINE
  5
7B5
  8
SIZE
  6
CONTINUOUS
 62
    30
 10
304.99999999999972
 20
212.0
 30
0.0
 11
541.4289056999088
 21
211.99999999999969
 31
0.0
  0
LINE
  5
7B6
  8
SIZE
  6
CONTINUOUS
 62
    30
 10
304.99999999999972
 20
-212.0
 30
0.0
 11
541.4289056999088
 21
-212.0
 31
0.0
  0
TEXT
  5
7B7
  8
SIZE
  6
CONTINUOUS
 62
    30
 10
-74.057142857142864
 20
418.63165816655328
 30
0.0
 40
64.0
  1
580
 41
0.9
  0
TEXT
  5
7B8
  8
SIZE
  6
CONTINUOUS
 62
    30
 10
499.42890569990868
 20
-75.428571428571388
 30
0.0
 40
64.0
  1
424
 50
90.0
 41
0.9
  0
LINE
  5
7B9
  8
SIZE
  6
CONTINUOUS
 62
    30
 10
-290.0
 20
395.50686758497159
 30
0.0
 11
289.99999999999972
 21
395.50686758497159
 31
0.0
  0
LINE
  5
7BA
  8
SIZE
  6
CONTINUOUS
 62
    30
 10
517.49122566252481
 20
211.99999999999969
 30
0.0
 11
517.49122566252481
 21
-212.0
 31
0.0
  0
CIRCLE
  5
7BB
  8
SIZE
  6
CONTINUOUS
 62
    30
 10
289.99999999999972
 20
395.50686758497159
 30
0.0
 40
6.0
  0
CIRCLE
  5
7BC
  8
SIZE
  6
CONTINUOUS
 62
    30
 10
-290.0
 20
395.50686758497159
 30
0.0
 40
6.0
  0
CIRCLE
  5
7BD
  8
SIZE
  6
CONTINUOUS
 62
    30
 10
517.49122566252481
 20
211.99999999999969
 30
0.0
 40
6.0
  0
CIRCLE
  5
7BE
  8
SIZE
  6
CONTINUOUS
 62
    30
 10
517.4912256625247
 20
-212.0
 30
0.0
 40
6.0
  0
LINE
  5
7BF
  8
DETAIL
  6
CONTINUOUS
 62
     5
 10
-188.0
 20
-249.99999999999989
 30
0.0
 11
-78.0
 21
-249.99999999999989
 31
0.0
  0
LINE
  5
7C0
  8
DETAIL
  6
CONTINUOUS
 62
     5
 10
136.9999999999998
 20
-250.0
 30
0.0
 11
246.9999999999998
 21
-250.0
 31
0.0
  0
LINE
  5
7C2
  8
NOTE
  6
CONTINUOUS
 62
     4
 10
-165.0
 20
218.51778855730481
 30
0.0
 11
-165.0
 21
164.25889427865241
 31
0.0
  0
LINE
  5
7C3
  8
NOTE
  6
CONTINUOUS
 62
     4
 10
165.0
 20
215.36499251967959
 30
0.0
 11
165.0
 21
152.30908936277859
 31
0.0
  0
LINE
  5
7C4
  8
NOTE
  6
CONTINUOUS
 62
     4
 10
286.24477328688948
 20
109.9999999999999
 30
0.0
 11
245.24270107701699
 21
109.9999999999999
 31
0.0
  0
LINE
  5
7C5
  8
NOTE
  6
CONTINUOUS
 62
     4
 10
286.24477328688948
 20
-110.0
 30
0.0
 11
245.24270107701699
 21
-110.0
 31
0.0
  0
LINE
  5
7C6
  8
NOTE
  6
CONTINUOUS
 62
     4
 10
191.99999999999969
 20
189.99999999999989
 30
0.0
 11
141.16050931533391
 21
189.99999999999989
 31
0.0
  0
LINE
  5
7C7
  8
NOTE
  6
CONTINUOUS
 62
     4
 10
191.99999999999969
 20
-189.99999999999989
 30
0.0
 11
141.16050931533391
 21
-190.0
 31
0.0
  0
LINE
  5
7C8
  8
NOTE
  6
CONTINUOUS
 62
     4
 10
-165.0
 20
-166.12241349999991
 30
0.0
 11
-165.0
 21
-222.2448269999999
 31
0.0
  0
LINE
  5
7C9
  8
NOTE
  6
CONTINUOUS
 62
     4
 10
165.0
 20
-153.5120383088524
 30
0.0
 11
165.0
 21
-222.2448269999999
 31
0.0
  0
LINE
  5
7CA
  8
NOTE
  6
CONTINUOUS
 62
     4
 10
268.0
 20
142.85070711510249
 30
0.0
 11
267.99999999999989
 21
82.947599995825826
 31
0.0
  0
LINE
  5
7CB
  8
NOTE
  6
CONTINUOUS
 62
     4
 10
-268.0
 20
136.54511503985299
 30
0.0
 11
-268.0
 21
82.94759999582584
 31
0.0
  0
LINE
  5
7D6
  8
NOTE
  6
CONTINUOUS
 62
     4
 10
-133.0
 20
189.99999999999989
 30
0.0
 11
-196.3181019468592
 21
189.99999999999989
 31
0.0
  0
LINE
  5
7D7
  8
NOTE
  6
CONTINUOUS
 62
     4
 10
-133.0
 20
-189.99999999999989
 30
0.0
 11
-196.3181019468592
 21
-189.99999999999989
 31
0.0
  0
LINE
  5
7D8
  8
NOTE
  6
CONTINUOUS
 62
     4
 10
268.0
 20
-77.8449510014525
 30
0.0
 11
268.0
 21
-134.5952620831039
 31
0.0
  0
LINE
  5
7D9
  8
NOTE
  6
CONTINUOUS
 62
     4
 10
-268.0
 20
-77.844951001452515
 30
0.0
 11
-268.0
 21
-137.7480581207291
 31
0.0
  0
LINE
  5
7DE
  8
NOTE
  6
CONTINUOUS
 62
     4
 10
-243.62819372564439
 20
-110.0
 30
0.0
 11
-300.40029370854251
 21
-110.0
 31
0.0
  0
LINE
  5
7DF
  8
NOTE
  6
CONTINUOUS
 62
     4
 10
-243.62819372564439
 20
110.0
 30
0.0
 11
-300.40029370854239
 21
110.0
 31
0.0
  0
TEXT
  5
81C
  8
NOTE
  6
CONTINUOUS
 62
     4
 10
397.96408849860012
 20
-432.77606633950012
 30
0.0
 40
64.0
  1

 41
0.9
  0
LINE
  5
820
  8
NOTE
  6
CONTINUOUS
 62
     4
 10
189.4036602183952
 20
-221.69323852093871
 30
0.0
 11
369.62059081140978
 21
-455.7424801380011
 31
0.0
1001
ACAD
1000
DSTYLE
1002
{
1070
    41
1040
40.0
1070
    42
1040
20.0
1070
    43
1040
200.0
1070
    44
1040
30.0
1070
    73
1070
     0
1070
    74
1070
     0
1070
    77
1070
     0
1070
    78
1070
     8
1070
   140
1040
64.0
1070
   147
1040
12.0
1070
   172
1070
     1
1070
   174
1070
     1
1070
   275
1070
     0
1070
   279
1070
     0
1070
   284
1070
     0
1070
   285
1070
     0
1070
   286
1070
     0
1070
   341
1005
6AE
1070
   342
1005
6A9
1002
}
  0
LINE
  5
821
  8
NOTE
  6
CONTINUOUS
 62
     4
 10
369.62059081140978
 20
-455.7424801380011
 30
0.0
 11
853.22510923070695
 21
-457.24307340744781
 31
0.0
1001
ACAD
1000
DSTYLE
1002
{
1070
    41
1040
40.0
1070
    42
1040
20.0
1070
    43
1040
200.0
1070
    44
1040
30.0
1070
    73
1070
     0
1070
    74
1070
     0
1070
    77
1070
     0
1070
    78
1070
     8
1070
   140
1040
64.0
1070
   147
1040
12.0
1070
   172
1070
     1
1070
   174
1070
     1
1070
   275
1070
     0
1070
   279
1070
     0
1070
   284
1070
     0
1070
   285
1070
     0
1070
   286
1070
     0
1070
   341
1005
6AE
1070
   342
1005
6A9
1002
}
  0
LINE
  5
822
  8
NOTE
  6
BYBLOCK
 62
     4
 10
180.91148262823279
 20
-228.23217950949291
 30
0.0
 11
165.0
 21
-190.0
 31
0.0
  0
LINE
  5
823
  8
NOTE
  6
BYBLOCK
 62
     4
 10
165.0
 20
-190.0
 30
0.0
 11
197.8958378085575
 21
-215.1542975323845
 31
0.0
  0
LINE
  5
824
  8
NOTE
  6
BYBLOCK
 62
     4
 10
165.0
 20
-190.0
 30
0.0
 11
189.4036602183952
 21
-221.69323852093871
 31
0.0
  0
LINE
  5
825
  8
SIZE
  6
CONTINUOUS
 62
    30
 10
-268.0
 20
-157.7480581207291
 30
0.0
 11
-268.0
 21
-590.22260399328843
 31
0.0
  0
LINE
  5
826
  8
SIZE
  6
CONTINUOUS
 62
    30
 10
268.0
 20
-154.5952620831039
 30
0.0
 11
268.0
 21
-590.22260399328843
 31
0.0
  0
LINE
  5
827
  8
SIZE
  6
CONTINUOUS
 62
    30
 10
-268.0
 20
-560.22260399328843
 30
0.0
 11
268.0
 21
-560.22260399328843
 31
0.0
  0
LINE
  5
82B
  8
SIZE
  6
CONTINUOUS
 62
    30
 10
-165.0
 20
-242.2448269999999
 30
0.0
 11
-165.0
 21
-457.8052114694346
 31
0.0
  0
LINE
  5
82C
  8
SIZE
  6
CONTINUOUS
 62
    30
 10
165.0
 20
-242.2448269999999
 30
0.0
 11
164.99999999999989
 21
-457.8052114694346
 31
0.0
  0
LINE
  5
82D
  8
SIZE
  6
CONTINUOUS
 62
    30
 10
-165.0
 20
-427.80521146943471
 30
0.0
 11
164.99999999999989
 21
-427.80521146943471
 31
0.0
  0
LINE
  5
831
  8
SIZE
  6
CONTINUOUS
 62
    30
 10
-216.3181019468592
 20
-189.99999999999989
 30
0.0
 11
-645.80086608849706
 21
-189.9999999999998
 31
0.0
  0
LINE
  5
832
  8
SIZE
  6
CONTINUOUS
 62
    30
 10
-216.3181019468592
 20
189.99999999999989
 30
0.0
 11
-645.80086608849706
 21
190.0
 31
0.0
  0
LINE
  5
833
  8
SIZE
  6
CONTINUOUS
 62
    30
 10
-615.80086608849695
 20
-189.9999999999998
 30
0.0
 11
-615.80086608849695
 21
190.00000000000011
 31
0.0
  0
LINE
  5
837
  8
SIZE
  6
CONTINUOUS
 62
    30
 10
-320.40029370854239
 20
110.0
 30
0.0
 11
-503.87060767154787
 21
110.0
 31
0.0
  0
LINE
  5
838
  8
SIZE
  6
CONTINUOUS
 62
    30
 10
-320.40029370854251
 20
-110.0
 30
0.0
 11
-503.87060767154787
 21
-109.9999999999999
 31
0.0
  0
LINE
  5
839
  8
SIZE
  6
CONTINUOUS
 62
    30
 10
-473.87060767154787
 20
110.0
 30
0.0
 11
-473.87060767154787
 21
-109.9999999999999
 31
0.0
  0
TEXT
  5
83D
  8
NOTE
  6
CONTINUOUS
 62
    30
 10
-74.057142857142864
 20
-415.8052114694346
 30
0.0
 40
64.0
  1
330
 41
0.9
  0
TEXT
  5
83E
  8
NOTE
  6
CONTINUOUS
 62
    30
 10
-72.685714285714283
 20
-548.22260399328843
 30
0.0
 40
64.0
  1
536
 41
0.9
  0
TEXT
  5
83F
  8
NOTE
  6
CONTINUOUS
 62
    30
 10
-485.87060767154787
 20
-74.057142857142892
 30
0.0
 40
64.0
  1
220
 50
90.0
 41
0.9
  0
TEXT
  5
840
  8
NOTE
  6
CONTINUOUS
 62
    30
 10
-627.80086608849695
 20
-74.057142857142821
 30
0.0
 40
64.0
  1
380
 50
90.0
 41
0.9
  0
CIRCLE
  5
853
  8
SIZE
  6
CONTINUOUS
 62
    30
 10
-615.80086608849695
 20
190.0
 30
0.0
 40
6.0
  0
CIRCLE
  5
854
  8
SIZE
  6
CONTINUOUS
 62
    30
 10
-615.80086608849695
 20
-189.9999999999998
 30
0.0
 40
6.0
  0
CIRCLE
  5
855
  8
SIZE
  6
CONTINUOUS
 62
    30
 10
-473.87060767154787
 20
-109.9999999999999
 30
0.0
 40
6.0
  0
CIRCLE
  5
856
  8
SIZE
  6
CONTINUOUS
 62
    30
 10
-473.87060767154787
 20
110.0
 30
0.0
 40
6.0
  0
CIRCLE
  5
857
  8
SIZE
  6
CONTINUOUS
 62
    30
 10
-165.0
 20
-427.80521146943471
 30
0.0
 40
6.0
  0
CIRCLE
  5
858
  8
SIZE
  6
CONTINUOUS
 62
    30
 10
-268.0
 20
-560.22260399328843
 30
0.0
 40
6.0
  0
CIRCLE
  5
859
  8
SIZE
  6
CONTINUOUS
 62
    30
 10
164.99999999999989
 20
-427.80521146943471
 30
0.0
 40
6.0
  0
CIRCLE
  5
85A
  8
SIZE
  6
CONTINUOUS
 62
    30
 10
268.0
 20
-560.22260399328843
 30
0.0
 40
6.0
  0
TEXT
  5
89F
  8
NOTE
  6
CONTINUOUS
 62
     4
 10
385.41042255410213
 20
-439.93925663094433
 30
0.0
 40
64.0
  1
8-7×5長穴
 41
0.9
  0
ENDSEC
  0
EOF
