  0
SECTION
  2
HEADER
  9
$ACADVER
  1
AC1009
  9
$INSBASE
 10
0.0
 20
0.0
 30
0.0
  9
$EXTMIN
 10
-412.890128
 20
-297.36417299999999
 30
0.0
  9
$EXTMAX
 10
1317.8095720503579
 20
651.57303300000024
 30
50.0
  9
$LIMMIN
 10
-2970.0
 20
-2100.0
  9
$LIMMAX
 10
2970.0
 20
2100.0
  9
$ORTHOMODE
 70
     0
  9
$REGENMODE
 70
     0
  9
$FILLMODE
 70
     1
  9
$QTEXTMODE
 70
     0
  9
$MIRRTEXT
 70
     0
  9
$DRAGMODE
 70
     2
  9
$LTSCALE
 40
20.0
  9
$OSMODE
 70
   167
  9
$ATTMODE
 70
     1
  9
$TEXTSIZE
 40
64.0
  9
$TRACEWID
 40
0.05
  9
$TEXTSTYLE
  7
STANDARD
  9
$CLAYER
  8
BASIS
  9
$CELTYPE
  6
CONTINUOUS
  9
$CECOLOR
 62
    30
  9
$DIMSCALE
 40
1.0
  9
$DIMASZ
 40
12.0
  9
$DIMEXO
 40
20.0
  9
$DIMDLI
 40
200.0
  9
$DIMRND
 40
0.0
  9
$DIMDLE
 40
0.0
  9
$DIMEXE
 40
20.0
  9
$DIMTP
 40
0.0
  9
$DIMTM
 40
0.0
  9
$DIMTXT
 40
64.0
  9
$DIMCEN
 40
0.09
  9
$DIMTSZ
 40
0.0
  9
$DIMTOL
 70
     0
  9
$DIMLIM
 70
     0
  9
$DIMTIH
 70
     0
  9
$DIMTOH
 70
     0
  9
$DIMSE1
 70
     0
  9
$DIMSE2
 70
     0
  9
$DIMTAD
 70
     1
  9
$DIMZIN
 70
     8
  9
$DIMBLK
  1
DOT1
  9
$DIMASO
 70
     1
  9
$DIMSHO
 70
     0
  9
$DIMPOST
  1

  9
$DIMAPOST
  1

  9
$DIMALT
 70
     0
  9
$DIMALTD
 70
     2
  9
$DIMALTF
 40
25.399999999999999
  9
$DIMLFAC
 40
1.0
  9
$DIMTOFL
 70
     1
  9
$DIMTVP
 40
0.0
  9
$DIMTIX
 70
     1
  9
$DIMSOXD
 70
     0
  9
$DIMSAH
 70
     1
  9
$DIMBLK1
  1
ORIGIN
  9
$DIMBLK2
  1
ORIGIN
  9
$DIMSTYLE
  2
STANDARD
  9
$DIMCLRD
 70
     7
  9
$DIMCLRE
 70
     7
  9
$DIMCLRT
 70
     7
  9
$DIMTFAC
 40
1.0
  9
$DIMGAP
 40
25.0
  9
$LUNITS
 70
     2
  9
$LUPREC
 70
     4
  9
$SKETCHINC
 40
0.1
  9
$FILLETRAD
 40
10.0
  9
$AUNITS
 70
     1
  9
$AUPREC
 70
     3
  9
$MENU
  1
ACAD
  9
$ELEVATION
 40
0.0
  9
$PELEVATION
 40
0.0
  9
$THICKNESS
 40
50.0
  9
$LIMCHECK
 70
     0
  9
$BLIPMODE
 70
     0
  9
$CHAMFERA
 40
0.0
  9
$CHAMFERB
 40
0.0
  9
$SKPOLY
 70
     0
  9
$TDCREATE
 40
2453103.7760589579
  9
$TDUPDATE
 40
2454153.3960082061
  9
$TDINDWG
 40
0.0597328356
  9
$TDUSRTIMER
 40
0.0597317477
  9
$USRTIMER
 70
     1
  9
$ANGBASE
 50
0.0
  9
$ANGDIR
 70
     0
  9
$PDMODE
 70
     3
  9
$PDSIZE
 40
-2.0
  9
$PLINEWID
 40
0.0
  9
$COORDS
 70
     0
  9
$SPLFRAME
 70
     0
  9
$SPLINETYPE
 70
     6
  9
$SPLINESEGS
 70
     8
  9
$ATTDIA
 70
     0
  9
$ATTREQ
 70
     1
  9
$HANDLING
 70
 22529
  9
$HANDSEED
  5
1EA
  9
$SURFTAB1
 70
     6
  9
$SURFTAB2
 70
     6
  9
$SURFTYPE
 70
     6
  9
$SURFU
 70
     6
  9
$SURFV
 70
     6
  9
$UCSNAME
  2

  9
$UCSORG
 10
0.0
 20
0.0
 30
0.0
  9
$UCSXDIR
 10
1.0
 20
0.0
 30
0.0
  9
$UCSYDIR
 10
0.0
 20
1.0
 30
0.0
  9
$PUCSNAME
  2

  9
$PUCSORG
 10
0.0
 20
0.0
 30
0.0
  9
$PUCSXDIR
 10
1.0
 20
0.0
 30
0.0
  9
$PUCSYDIR
 10
0.0
 20
1.0
 30
0.0
  9
$USERI1
 70
     0
  9
$USERI2
 70
     0
  9
$USERI3
 70
     0
  9
$USERI4
 70
     0
  9
$USERI5
 70
     0
  9
$USERR1
 40
20.0
  9
$USERR2
 40
0.0
  9
$USERR3
 40
0.0
  9
$USERR4
 40
0.0
  9
$USERR5
 40
0.0
  9
$WORLDVIEW
 70
     1
  9
$SHADEDGE
 70
     3
  9
$SHADEDIF
 70
    70
  9
$TILEMODE
 70
     1
  9
$MAXACTVP
 70
    48
  9
$PLIMCHECK
 70
     0
  9
$PEXTMIN
 10
-1.0000000000000000E+020
 20
-1.0000000000000000E+020
 30
-1.0000000000000000E+020
  9
$PEXTMAX
 10
1.0000000000000000E+020
 20
1.0000000000000000E+020
 30
1.0000000000000000E+020
  9
$PLIMMIN
 10
0.0
 20
0.0
  9
$PLIMMAX
 10
12.0
 20
9.0
  9
$UNITMODE
 70
     0
  9
$VISRETAIN
 70
     0
  9
$PLINEGEN
 70
     0
  9
$PSLTSCALE
 70
     0
  0
ENDSEC
  0
SECTION
  2
TABLES
  0
TABLE
  2
VPORT
 70
    11
  0
VPORT
  2
*ACTIVE
 70
     0
 10
0.0
 20
0.0
 11
1.0
 21
1.0
 12
420.42863658152868
 22
177.04010999999969
 13
0.0
 23
0.0
 14
1.0
 24
1.0
 15
0.0
 25
0.0
 16
0.0
 26
0.0
 36
1.0
 17
0.0
 27
0.0
 37
0.0
 40
1121.085243477957
 41
1.710526315789473
 42
50.0
 43
0.0
 44
0.0
 50
0.0
 51
0.0
 71
     0
 72
  1000
 73
     1
 74
     0
 75
     0
 76
     0
 77
     0
 78
     0
  0
ENDTAB
  0
TABLE
  2
LTYPE
 70
     2
  0
LTYPE
  2
CONTINUOUS
 70
     0
  3
実線
 72
    65
 73
     0
 40
0.0
  0
LTYPE
  2
DASHDOT
 70
     0
  3
____ _ ____ _ ____ _ ____ _ ____ _ ____ _ ____
 72
    65
 73
     4
 40
5.5
 49
4.0
 49
-0.6
 49
0.3
 49
-0.6
  0
ENDTAB
  0
TABLE
  2
LAYER
 70
    12
  0
LAYER
  2
0
 70
     0
 62
     7
  6
CONTINUOUS
  0
LAYER
  2
SIZE
 70
     0
 62
    30
  6
CONTINUOUS
  0
LAYER
  2
BASIS
 70
     0
 62
     6
  6
DASHDOT
  0
LAYER
  2
OUTLINE
 70
     0
 62
     3
  6
CONTINUOUS
  0
LAYER
  2
DETAIL
 70
     0
 62
     5
  6
CONTINUOUS
  0
LAYER
  2
ARRANGE
 70
     0
 62
     1
  6
CONTINUOUS
  0
LAYER
  2
DEFPOINTS
 70
     0
 62
     7
  6
CONTINUOUS
  0
LAYER
  2
ETC
 70
     0
 62
    61
  6
CONTINUOUS
  0
LAYER
  2
FIX
 70
     0
 62
    11
  6
CONTINUOUS
  0
LAYER
  2
NOTE
 70
     0
 62
     4
  6
CONTINUOUS
  0
LAYER
  2
SERVICESPACE
 70
     0
 62
     2
  6
DASHDOT
  0
LAYER
  2
SYMBOLLINE
 70
     0
 62
    15
  6
CONTINUOUS
  0
ENDTAB
  0
TABLE
  2
STYLE
 70
     1
  0
STYLE
  2
STANDARD
 70
     0
 40
64.0
 41
0.9
 50
0.0
 71
     0
 42
64.0
  3
SIMPLEX.shx
  4
BIGFONT.shx
  0
ENDTAB
  0
TABLE
  2
VIEW
 70
     1
  0
VIEW
  2
ALL
 70
     0
 40
4282.6198079999986
 10
0.0
 20
41.309903999999989
 41
5940.0
 11
0.0
 21
0.0
 31
1.0
 12
0.0
 22
0.0
 32
0.0
 42
50.0
 43
0.0
 44
0.0
 50
0.0
 71
     0
  0
ENDTAB
  0
TABLE
  2
UCS
 70
     0
  0
ENDTAB
  0
TABLE
  2
APPID
 70
     2
  0
APPID
  2
ACAD
 70
     0
  0
APPID
  2
AUTOCAD_POSTSCRIPT_FIGURE
 70
     0
  0
ENDTAB
  0
TABLE
  2
DIMSTYLE
 70
     1
  0
DIMSTYLE
  2
STANDARD
 70
     0
  3

  4

  5

  6

  7

 40
1.0
 41
0.18
 42
0.0625
 43
0.38
 44
0.18
 45
0.0
 46
0.0
 47
0.0
 48
0.0
140
0.18
141
0.09
142
0.0
143
25.399999999999999
144
1.0
145
0.0
146
1.0
147
0.09
 71
     0
 72
     0
 73
     1
 74
     1
 75
     0
 76
     0
 77
     0
 78
     0
170
     0
171
     2
172
     0
173
     0
174
     0
175
     0
176
     7
177
     7
178
     7
  0
ENDTAB
  0
ENDSEC
  0
SECTION
  2
BLOCKS
  0
BLOCK
  8
0
  2
$MODEL_SPACE
 70
     0
 10
0.0
 20
0.0
 30
0.0
  3
$MODEL_SPACE
  1

  0
ENDBLK
  5
20
  8
0
  0
BLOCK
 67
     1
  8
0
  2
$PAPER_SPACE
 70
     0
 10
0.0
 20
0.0
 30
0.0
  3
$PAPER_SPACE
  1

  0
ENDBLK
  5
1C
 67
     1
  8
0
  0
BLOCK
  8
0
  2
DOT1
 70
     0
 10
0.0
 20
0.0
 30
0.0
  3
DOT1
  1

  0
CIRCLE
  5
36
  8
SIZE
  6
CONTINUOUS
 62
     7
 10
0.0
 20
0.0
 30
0.0
 40
3.0
  0
ENDBLK
  5
37
  8
0
  0
BLOCK
  8
0
  2
_ORIGIN
 70
     0
 10
0.0
 20
0.0
 30
0.0
  3
_ORIGIN
  1

  0
CIRCLE
  5
3A
  8
0
  6
CONTINUOUS
 62
     7
 10
0.0
 20
0.0
 30
0.0
 40
0.5
  0
LINE
  5
3B
  8
0
  6
CONTINUOUS
 62
     7
 10
0.0
 20
0.0
 30
0.0
 11
-1.0
 21
0.0
 31
0.0
  0
ENDBLK
  5
3C
  8
0
  0
ENDSEC
  0
SECTION
  2
ENTITIES
  0
ARC
  5
3D
  8
DETAIL
  6
CONTINUOUS
 62
     5
 10
137.62176599999989
 20
271.0
 30
0.0
 40
3.0
 50
1.0
 51
90.0
  0
LINE
  5
3E
  8
DETAIL
  6
CONTINUOUS
 62
     5
 10
-135.264139
 20
274.0
 30
0.0
 11
137.62176599999989
 21
274.0
 31
0.0
  0
LINE
  5
3F
  8
DETAIL
  6
CONTINUOUS
 62
     5
 10
-140.621309
 20
264.5
 30
0.0
 11
-138.26368199999999
 21
264.5
 31
0.0
  0
LINE
  5
40
  8
DETAIL
  6
CONTINUOUS
 62
     5
 10
-138.26368199999999
 20
276.0
 30
0.0
 11
140.621309
 21
276.0
 31
0.0
  0
LINE
  5
41
  8
DETAIL
  6
CONTINUOUS
 62
     5
 10
-138.26368199999999
 20
264.5
 30
0.0
 11
143.78713200000001
 21
264.5
 31
0.0
  0
LINE
  5
42
  8
BASIS
  6
DASHDOT
 62
     6
 10
0.0
 20
322.54822899999988
 30
0.0
 11
0.0
 21
-54.874821999999988
 31
0.0
  0
ARC
  5
43
  8
DETAIL
  6
CONTINUOUS
 62
     5
 10
-79.394076999999996
 20
276.67024399999991
 30
0.0
 40
299.98478599999999
 50
252.31718499999999
 51
259.65526799999998
  0
ARC
  5
44
  8
DETAIL
  6
CONTINUOUS
 62
     5
 10
-167.1199719999999
 20
0.138886
 30
0.0
 40
9.881003999999999
 50
180.8053689999999
 51
249.91252299999999
  0
CIRCLE
  5
45
  8
ARRANGE
  6
CONTINUOUS
 62
     1
 39
50.0
 10
0.0
 20
0.0
 30
0.0
 40
40.0
  0
POINT
  5
46
  8
ARRANGE
  6
CONTINUOUS
 62
     1
 10
0.0
 20
0.0
 30
0.0
 39
50.0
  0
CIRCLE
  5
47
  8
FIX
  6
CONTINUOUS
 62
    11
 39
50.0
 10
160.0
 20
0.0
 30
0.0
 40
2.5
  0
LINE
  5
48
  8
NOTE
  6
CONTINUOUS
 62
     4
 10
140.0
 20
0.0
 30
0.0
 11
180.0
 21
0.0
 31
0.0
  0
LINE
  5
49
  8
NOTE
  6
CONTINUOUS
 62
     4
 10
160.0
 20
-20.0
 30
0.0
 11
160.0
 21
20.0
 31
0.0
  0
LINE
  5
4A
  8
NOTE
  6
CONTINUOUS
 62
     4
 10
-180.0
 20
0.0
 30
0.0
 11
-140.0
 21
0.0
 31
0.0
  0
LINE
  5
4B
  8
NOTE
  6
CONTINUOUS
 62
     4
 10
-160.0
 20
-20.0
 30
0.0
 11
-160.0
 21
20.0
 31
0.0
  0
CIRCLE
  5
4C
  8
FIX
  6
CONTINUOUS
 62
    11
 39
50.0
 10
-160.0
 20
0.0
 30
0.0
 40
2.5
  0
LINE
  5
4D
  8
DETAIL
  6
CONTINUOUS
 62
     5
 10
140.621309
 20
271.05235699999992
 30
0.0
 11
140.621309
 21
264.5
 31
0.0
  0
LINE
  5
4E
  8
SIZE
  6
CONTINUOUS
 62
    30
 10
147.5
 20
20.0
 30
0.0
 11
147.5
 21
432.71047499999997
 31
0.0
  0
LINE
  5
4F
  8
SIZE
  6
CONTINUOUS
 62
    30
 10
-147.5
 20
20.0
 30
0.0
 11
-147.5
 21
432.71047499999997
 31
0.0
  0
LINE
  5
50
  8
SIZE
  6
CONTINUOUS
 62
    30
 10
135.49999999999989
 20
412.71047499999992
 30
0.0
 11
-135.49999999999989
 21
412.71047499999992
 31
0.0
  0
CIRCLE
  5
51
  8
SIZE
  6
CONTINUOUS
 62
    30
 10
147.5
 20
412.71047499999992
 30
0.0
 40
6.0
  0
LINE
  5
52
  8
SIZE
  6
CONTINUOUS
 62
    30
 10
147.5
 20
412.71047499999992
 30
0.0
 11
135.49999999999989
 21
412.71047499999992
 31
0.0
  0
CIRCLE
  5
53
  8
SIZE
  6
CONTINUOUS
 62
    30
 10
-147.5
 20
412.71047499999992
 30
0.0
 40
6.0
  0
LINE
  5
54
  8
SIZE
  6
CONTINUOUS
 62
    30
 10
-147.5
 20
412.71047499999992
 30
0.0
 11
-135.49999999999989
 21
412.71047499999992
 31
0.0
  0
TEXT
  5
55
  8
SIZE
  6
CONTINUOUS
 62
    30
 10
-74.05714285714285
 20
437.71047499999992
 30
0.0
 40
64.0
  1
295
 41
0.9
 72
     1
 11
0.0
 21
437.71047499999992
 31
0.0
  0
LINE
  5
59
  8
SIZE
  6
CONTINUOUS
 62
    30
 10
160.0
 20
40.0
 30
0.0
 11
160.0
 21
561.67414799999995
 31
0.0
  0
LINE
  5
5A
  8
SIZE
  6
CONTINUOUS
 62
    30
 10
-160.0
 20
40.0
 30
0.0
 11
-160.0
 21
561.67414799999995
 31
0.0
  0
LINE
  5
5B
  8
SIZE
  6
CONTINUOUS
 62
    30
 10
148.0
 20
541.67414799999995
 30
0.0
 11
-148.0
 21
541.67414799999995
 31
0.0
  0
CIRCLE
  5
5C
  8
SIZE
  6
CONTINUOUS
 62
    30
 10
160.0
 20
541.67414799999995
 30
0.0
 40
6.0
  0
LINE
  5
5D
  8
SIZE
  6
CONTINUOUS
 62
    30
 10
160.0
 20
541.67414799999995
 30
0.0
 11
148.0
 21
541.67414799999995
 31
0.0
  0
CIRCLE
  5
5E
  8
SIZE
  6
CONTINUOUS
 62
    30
 10
-160.0
 20
541.67414799999995
 30
0.0
 40
6.0
  0
LINE
  5
5F
  8
SIZE
  6
CONTINUOUS
 62
    30
 10
-160.0
 20
541.67414799999995
 30
0.0
 11
-148.0
 21
541.67414799999995
 31
0.0
  0
TEXT
  5
60
  8
SIZE
  6
CONTINUOUS
 62
    30
 10
-74.05714285714285
 20
566.67414799999995
 30
0.0
 40
64.0
  1
320
 41
0.9
 72
     1
 11
0.0
 21
566.67414799999995
 31
0.0
  0
LINE
  5
64
  8
DETAIL
  6
CONTINUOUS
 62
     5
 10
-177.0
 20
0.0
 30
0.0
 11
177.0
 21
0.0
 31
0.0
  0
LINE
  5
65
  8
DETAIL
  6
CONTINUOUS
 62
     5
 10
-140.621309
 20
264.5
 30
0.0
 11
-147.5
 21
0.0
 31
0.0
  0
LINE
  5
66
  8
DETAIL
  6
CONTINUOUS
 62
     5
 10
143.78713200000001
 20
264.5
 30
0.0
 11
147.5
 21
0.0
 31
0.0
  0
ARC
  5
67
  8
DETAIL
  6
CONTINUOUS
 62
     5
 10
167.1199719999999
 20
0.138886
 30
0.0
 40
9.881003999999999
 50
290.08747699999992
 51
359.19463100000002
  0
ARC
  5
68
  8
DETAIL
  6
CONTINUOUS
 62
     5
 10
79.394076999999996
 20
276.67024399999991
 30
0.0
 40
299.98478599999999
 50
280.34473199999991
 51
287.68281500000001
  0
ARC
  5
69
  8
DETAIL
  6
CONTINUOUS
 62
     5
 10
0.0
 20
1331.5096939999989
 30
0.0
 40
1356.5096939999989
 50
264.36221499999999
 51
275.63778500000001
  0
LINE
  5
6A
  8
SIZE
  6
CONTINUOUS
 62
    30
 10
177.0
 20
-20.0
 30
0.0
 11
177.0
 21
-230.69428099999999
 31
0.0
  0
LINE
  5
6B
  8
SIZE
  6
CONTINUOUS
 62
    30
 10
-177.0
 20
-20.0
 30
0.0
 11
-177.0
 21
-230.69428099999999
 31
0.0
  0
LINE
  5
6C
  8
SIZE
  6
CONTINUOUS
 62
    30
 10
165.0
 20
-210.69428099999999
 30
0.0
 11
-165.0
 21
-210.69428099999999
 31
0.0
  0
CIRCLE
  5
6D
  8
SIZE
  6
CONTINUOUS
 62
    30
 10
177.0
 20
-210.69428099999999
 30
0.0
 40
6.0
  0
LINE
  5
6E
  8
SIZE
  6
CONTINUOUS
 62
    30
 10
177.0
 20
-210.69428099999999
 30
0.0
 11
165.0
 21
-210.69428099999999
 31
0.0
  0
CIRCLE
  5
6F
  8
SIZE
  6
CONTINUOUS
 62
    30
 10
-177.0
 20
-210.69428099999999
 30
0.0
 40
6.0
  0
LINE
  5
70
  8
SIZE
  6
CONTINUOUS
 62
    30
 10
-177.0
 20
-210.69428099999999
 30
0.0
 11
-165.0
 21
-210.69428099999999
 31
0.0
  0
TEXT
  5
71
  8
SIZE
  6
CONTINUOUS
 62
    30
 10
-75.428571428571416
 20
-185.69428099999999
 30
0.0
 40
64.0
  1
354
 41
0.9
 72
     1
 11
0.0
 21
-185.69428099999999
 31
0.0
  0
LINE
  5
75
  8
SIZE
  6
CONTINUOUS
 62
    30
 10
-155.62130899999991
 20
276.0
 30
0.0
 11
-343.890128
 21
276.0
 31
0.0
  0
LINE
  5
76
  8
SIZE
  6
CONTINUOUS
 62
    30
 10
-197.0
 20
0.0
 30
0.0
 11
-343.890128
 21
0.0
 31
0.0
  0
LINE
  5
77
  8
SIZE
  6
CONTINUOUS
 62
    30
 10
-323.890128
 20
264.0
 30
0.0
 11
-323.890128
 21
12.0
 31
0.0
  0
CIRCLE
  5
78
  8
SIZE
  6
CONTINUOUS
 62
    30
 10
-323.890128
 20
276.0
 30
0.0
 40
6.0
  0
LINE
  5
79
  8
SIZE
  6
CONTINUOUS
 62
    30
 10
-323.890128
 20
276.0
 30
0.0
 11
-323.890128
 21
264.0
 31
0.0
  0
CIRCLE
  5
7A
  8
SIZE
  6
CONTINUOUS
 62
    30
 10
-323.890128
 20
0.0
 30
0.0
 40
6.0
  0
LINE
  5
7B
  8
SIZE
  6
CONTINUOUS
 62
    30
 10
-323.890128
 20
0.0
 30
0.0
 11
-323.890128
 21
12.0
 31
0.0
  0
TEXT
  5
7C
  8
SIZE
  6
CONTINUOUS
 62
    30
 10
-348.890128
 20
65.314285714285717
 30
0.0
 40
64.0
  1
276
 50
90.0
 41
0.9
 72
     1
 11
-348.890128
 21
138.0
 31
0.0
  0
LINE
  5
80
  8
SIZE
  6
CONTINUOUS
 62
    30
 10
-197.0
 20
0.0
 30
0.0
 11
-343.890128
 21
0.0
 31
0.0
  0
LINE
  5
81
  8
SIZE
  6
CONTINUOUS
 62
    30
 10
-20.0
 20
-25.0
 30
0.0
 11
-343.890128
 21
-25.0
 31
0.0
  0
LINE
  5
82
  8
SIZE
  6
CONTINUOUS
 62
    30
 10
-323.890128
 20
12.0
 30
0.0
 11
-323.890128
 21
24.0
 31
0.0
  0
LINE
  5
83
  8
SIZE
  6
CONTINUOUS
 62
    30
 10
-323.890128
 20
-37.0
 30
0.0
 11
-323.890128
 21
-49.0
 31
0.0
  0
LINE
  5
84
  8
SIZE
  6
CONTINUOUS
 62
    30
 10
-323.890128
 20
-204.454092
 30
0.0
 11
-323.890128
 21
-25.0
 31
0.0
  0
TEXT
  5
85
  8
SIZE
  6
CONTINUOUS
 62
    30
 10
-348.890128
 20
-179.45409242857141
 30
0.0
 40
64.0
  1
25
 50
90.0
 41
0.9
 72
     1
 11
-348.890128
 21
-132.82552100000001
 31
0.0
  0
LINE
  5
86
  8
SIZE
  6
CONTINUOUS
 62
    30
 10
-323.890128
 20
0.0
 30
0.0
 11
-323.890128
 21
-25.0
 31
0.0
  0
LINE
  5
87
  8
SIZE
  6
CONTINUOUS
 62
    30
 10
-323.890128
 20
0.0
 30
0.0
 11
-323.890128
 21
-25.0
 31
0.0
  0
CIRCLE
  5
88
  8
SIZE
  6
CONTINUOUS
 62
    30
 10
-323.890128
 20
0.0
 30
0.0
 40
6.0
  0
LINE
  5
89
  8
SIZE
  6
CONTINUOUS
 62
    30
 10
-323.890128
 20
0.0
 30
0.0
 11
-323.890128
 21
12.0
 31
0.0
  0
CIRCLE
  5
8A
  8
SIZE
  6
CONTINUOUS
 62
    30
 10
-323.890128
 20
-25.0
 30
0.0
 40
6.0
  0
LINE
  5
8B
  8
SIZE
  6
CONTINUOUS
 62
    30
 10
-323.890128
 20
-25.0
 30
0.0
 11
-323.890128
 21
-37.0
 31
0.0
  0
TEXT
  5
8F
  8
NOTE
  6
CONTINUOUS
 62
     4
 10
274.97055
 20
144.69218599999999
 30
0.0
 40
64.0
  1
4-φ5
 41
0.9
  0
LINE
  5
90
  8
NOTE
  6
CONTINUOUS
 62
     4
 10
261.71238399999999
 20
118.1750499999999
 30
0.0
 11
514.82282299999997
 21
118.1750499999999
 31
0.0
  0
LINE
  5
91
  8
NOTE
  6
CONTINUOUS
 62
     4
 10
160.0
 20
0.0
 30
0.0
 11
261.71238399999999
 21
118.1750499999999
 31
0.0
  0
LINE
  5
92
  8
NOTE
  6
CONTINUOUS
 62
     4
 10
177.82329599999991
 20
35.809637000000002
 30
0.0
 11
160.0
 21
0.0
 31
0.0
  0
LINE
  5
93
  8
NOTE
  6
CONTINUOUS
 62
     4
 10
160.0
 20
0.0
 30
0.0
 11
193.34024600000001
 21
22.10040699999999
 31
0.0
  0
LINE
  5
94
  8
OUTLINE
  6
CONTINUOUS
 62
     3
 10
-177.0
 20
0.0
 30
0.0
 11
177.0
 21
0.0
 31
0.0
  0
LINE
  5
95
  8
DETAIL
  6
CONTINUOUS
 62
     5
 10
-138.26368199999999
 20
271.05235699999992
 30
0.0
 11
-138.26368199999999
 21
264.5
 31
0.0
  0
ARC
  5
96
  8
DETAIL
  6
CONTINUOUS
 62
     5
 10
-135.264139
 20
271.0
 30
0.0
 40
3.0
 50
90.0
 51
179.0
  0
LINE
  5
97
  8
DETAIL
  6
CONTINUOUS
 62
     5
 10
-138.26368199999999
 20
271.05235699999992
 30
0.0
 11
-138.26368199999999
 21
276.0
 31
0.0
  0
LINE
  5
98
  8
DETAIL
  6
CONTINUOUS
 62
     5
 10
140.621309
 20
271.05235699999992
 30
0.0
 11
140.621309
 21
276.0
 31
0.0
  0
LINE
  5
99
  8
OUTLINE
  6
CONTINUOUS
 62
     3
 10
-138.26368199999999
 20
276.0
 30
0.0
 11
140.621309
 21
276.0
 31
0.0
  0
LINE
  5
9A
  8
OUTLINE
  6
CONTINUOUS
 62
     3
 10
140.621309
 20
264.5
 30
0.0
 11
143.78713200000001
 21
264.5
 31
0.0
  0
LINE
  5
9B
  8
OUTLINE
  6
CONTINUOUS
 62
     3
 10
-140.621309
 20
264.5
 30
0.0
 11
-147.5
 21
0.0
 31
0.0
  0
LINE
  5
9C
  8
OUTLINE
  6
CONTINUOUS
 62
     3
 10
-138.26368199999999
 20
271.05235699999992
 30
0.0
 11
-138.26368199999999
 21
276.0
 31
0.0
  0
LINE
  5
9D
  8
OUTLINE
  6
CONTINUOUS
 62
     3
 10
-138.26368199999999
 20
271.05235699999992
 30
0.0
 11
-138.26368199999999
 21
264.5
 31
0.0
  0
LINE
  5
9E
  8
OUTLINE
  6
CONTINUOUS
 62
     3
 10
-140.621309
 20
264.5
 30
0.0
 11
-138.26368199999999
 21
264.5
 31
0.0
  0
LINE
  5
9F
  8
OUTLINE
  6
CONTINUOUS
 62
     3
 10
143.78713200000001
 20
264.5
 30
0.0
 11
147.5
 21
0.0
 31
0.0
  0
LINE
  5
A0
  8
OUTLINE
  6
CONTINUOUS
 62
     3
 10
140.621309
 20
271.05235699999992
 30
0.0
 11
140.621309
 21
276.0
 31
0.0
  0
LINE
  5
A1
  8
OUTLINE
  6
CONTINUOUS
 62
     3
 10
140.621309
 20
271.05235699999992
 30
0.0
 11
140.621309
 21
264.5
 31
0.0
  0
TEXT
  5
A2
  8
ETC
  6
CONTINUOUS
 62
    61
 10
567.36050799999987
 20
484.95758099999989
 30
0.0
 40
64.0
  1
換気扇
 41
0.9
  0
TEXT
  5
A3
  8
ETC
  6
CONTINUOUS
 62
    61
 10
558.051378
 20
587.57303300000001
 30
0.0
 40
64.0
  1
VL-12EKH2-D_1
 41
0.9
  0
TEXT
  5
A4
  8
ETC
  6
CONTINUOUS
 62
    61
 10
702.80957205035861
 20
414.20555831541571
 30
0.0
 40
50.0
  1
VL-12EKH2-D
 41
0.9
  0
TEXT
  5
A5
  8
ETC
  6
CONTINUOUS
 62
    61
 10
702.80957205035861
 20
317.29193731541562
 30
0.0
 40
50.0
  1
VL-12EKH2-BE-D
 41
0.9
  0
TEXT
  5
A6
  8
ETC
  6
CONTINUOUS
 62
    61
 10
702.80957205035861
 20
227.30071631541571
 30
0.0
 40
50.0
  1
VL-12EKH2
 41
0.9
  0
TEXT
  5
A8
  8
ETC
  6
CONTINUOUS
 62
    61
 10
702.80957205035861
 20
36.934675315415689
 30
0.0
 40
50.0
  1
VL-12EK2
 41
0.9
  0
TEXT
  5
A9
  8
ETC
  6
CONTINUOUS
 62
    61
 10
702.80957205035861
 20
133.84829531541561
 30
0.0
 40
50.0
  1
VL-12EK2-D
 41
0.9
  0
ENDSEC
  0
EOF
