  0
SECTION
  2
HEADER
  9
$ACADVER
  1
AC1009
  9
$INSBASE
 10
0.0
 20
0.0
 30
0.0
  9
$EXTMIN
 10
-672.51586700000007
 20
-517.31858599999998
 30
0.0
  9
$EXTMAX
 10
1106.274915376431
 20
431.61862000000002
 30
50.0
  9
$LIMMIN
 10
-2970.0
 20
-2100.0
  9
$LIMMAX
 10
2970.0
 20
2100.0
  9
$ORTHOMODE
 70
     0
  9
$REGENMODE
 70
     0
  9
$FILLMODE
 70
     1
  9
$QTEXTMODE
 70
     0
  9
$MIRRTEXT
 70
     0
  9
$DRAGMODE
 70
     2
  9
$LTSCALE
 40
20.0
  9
$OSMODE
 70
   167
  9
$ATTMODE
 70
     1
  9
$TEXTSIZE
 40
64.0
  9
$TRACEWID
 40
0.05
  9
$TEXTSTYLE
  7
STANDARD
  9
$CLAYER
  8
SIZE
  9
$CELTYPE
  6
CONTINUOUS
  9
$CECOLOR
 62
    30
  9
$DIMSCALE
 40
1.0
  9
$DIMASZ
 40
12.0
  9
$DIMEXO
 40
20.0
  9
$DIMDLI
 40
200.0
  9
$DIMRND
 40
0.0
  9
$DIMDLE
 40
0.0
  9
$DIMEXE
 40
20.0
  9
$DIMTP
 40
0.0
  9
$DIMTM
 40
0.0
  9
$DIMTXT
 40
64.0
  9
$DIMCEN
 40
0.09
  9
$DIMTSZ
 40
0.0
  9
$DIMTOL
 70
     0
  9
$DIMLIM
 70
     0
  9
$DIMTIH
 70
     0
  9
$DIMTOH
 70
     0
  9
$DIMSE1
 70
     0
  9
$DIMSE2
 70
     0
  9
$DIMTAD
 70
     1
  9
$DIMZIN
 70
     8
  9
$DIMBLK
  1
DOT1
  9
$DIMASO
 70
     1
  9
$DIMSHO
 70
     0
  9
$DIMPOST
  1

  9
$DIMAPOST
  1

  9
$DIMALT
 70
     0
  9
$DIMALTD
 70
     2
  9
$DIMALTF
 40
25.399999999999999
  9
$DIMLFAC
 40
1.0
  9
$DIMTOFL
 70
     1
  9
$DIMTVP
 40
0.0
  9
$DIMTIX
 70
     1
  9
$DIMSOXD
 70
     0
  9
$DIMSAH
 70
     1
  9
$DIMBLK1
  1
ORIGIN
  9
$DIMBLK2
  1
ORIGIN
  9
$DIMSTYLE
  2
STANDARD
  9
$DIMCLRD
 70
     7
  9
$DIMCLRE
 70
     7
  9
$DIMCLRT
 70
     7
  9
$DIMTFAC
 40
1.0
  9
$DIMGAP
 40
25.0
  9
$LUNITS
 70
     2
  9
$LUPREC
 70
     4
  9
$SKETCHINC
 40
0.1
  9
$FILLETRAD
 40
10.0
  9
$AUNITS
 70
     1
  9
$AUPREC
 70
     3
  9
$MENU
  1
ACAD
  9
$ELEVATION
 40
0.0
  9
$PELEVATION
 40
0.0
  9
$THICKNESS
 40
50.0
  9
$LIMCHECK
 70
     0
  9
$BLIPMODE
 70
     0
  9
$CHAMFERA
 40
0.0
  9
$CHAMFERB
 40
0.0
  9
$SKPOLY
 70
     0
  9
$TDCREATE
 40
2453103.7760589579
  9
$TDUPDATE
 40
2454153.4087934019
  9
$TDINDWG
 40
0.0353604167
  9
$TDUSRTIMER
 40
0.0353604167
  9
$USRTIMER
 70
     1
  9
$ANGBASE
 50
0.0
  9
$ANGDIR
 70
     0
  9
$PDMODE
 70
     3
  9
$PDSIZE
 40
-2.0
  9
$PLINEWID
 40
0.0
  9
$COORDS
 70
     0
  9
$SPLFRAME
 70
     0
  9
$SPLINETYPE
 70
     6
  9
$SPLINESEGS
 70
     8
  9
$ATTDIA
 70
     0
  9
$ATTREQ
 70
     1
  9
$HANDLING
 70
 22529
  9
$HANDSEED
  5
22F
  9
$SURFTAB1
 70
     6
  9
$SURFTAB2
 70
     6
  9
$SURFTYPE
 70
     6
  9
$SURFU
 70
     6
  9
$SURFV
 70
     6
  9
$UCSNAME
  2

  9
$UCSORG
 10
0.0
 20
0.0
 30
0.0
  9
$UCSXDIR
 10
1.0
 20
0.0
 30
0.0
  9
$UCSYDIR
 10
0.0
 20
1.0
 30
0.0
  9
$PUCSNAME
  2

  9
$PUCSORG
 10
0.0
 20
0.0
 30
0.0
  9
$PUCSXDIR
 10
1.0
 20
0.0
 30
0.0
  9
$PUCSYDIR
 10
0.0
 20
1.0
 30
0.0
  9
$USERI1
 70
     0
  9
$USERI2
 70
     0
  9
$USERI3
 70
     0
  9
$USERI4
 70
     0
  9
$USERI5
 70
     0
  9
$USERR1
 40
20.0
  9
$USERR2
 40
0.0
  9
$USERR3
 40
0.0
  9
$USERR4
 40
0.0
  9
$USERR5
 40
0.0
  9
$WORLDVIEW
 70
     1
  9
$SHADEDGE
 70
     3
  9
$SHADEDIF
 70
    70
  9
$TILEMODE
 70
     1
  9
$MAXACTVP
 70
    48
  9
$PLIMCHECK
 70
     0
  9
$PEXTMIN
 10
-1.0000000000000000E+020
 20
-1.0000000000000000E+020
 30
-1.0000000000000000E+020
  9
$PEXTMAX
 10
1.0000000000000000E+020
 20
1.0000000000000000E+020
 30
1.0000000000000000E+020
  9
$PLIMMIN
 10
0.0
 20
0.0
  9
$PLIMMAX
 10
12.0
 20
9.0
  9
$UNITMODE
 70
     0
  9
$VISRETAIN
 70
     0
  9
$PLINEGEN
 70
     0
  9
$PSLTSCALE
 70
     0
  0
ENDSEC
  0
SECTION
  2
TABLES
  0
TABLE
  2
VPORT
 70
    11
  0
VPORT
  2
*ACTIVE
 70
     0
 10
0.0
 20
0.0
 11
1.0
 21
1.0
 12
212.6944951701619
 22
-42.938223000000328
 13
0.0
 23
0.0
 14
1.0
 24
1.0
 15
0.0
 25
0.0
 16
0.0
 26
0.0
 36
1.0
 17
0.0
 27
0.0
 37
0.0
 40
1194.2196244439019
 41
1.710526315789473
 42
50.0
 43
0.0
 44
0.0
 50
0.0
 51
0.0
 71
     0
 72
  1000
 73
     1
 74
     0
 75
     0
 76
     0
 77
     0
 78
     0
  0
ENDTAB
  0
TABLE
  2
LTYPE
 70
     2
  0
LTYPE
  2
CONTINUOUS
 70
     0
  3
実線
 72
    65
 73
     0
 40
0.0
  0
LTYPE
  2
DASHDOT
 70
     0
  3
____ _ ____ _ ____ _ ____ _ ____ _ ____ _ ____
 72
    65
 73
     4
 40
5.5
 49
4.0
 49
-0.6
 49
0.3
 49
-0.6
  0
ENDTAB
  0
TABLE
  2
LAYER
 70
    12
  0
LAYER
  2
0
 70
     0
 62
     7
  6
CONTINUOUS
  0
LAYER
  2
SIZE
 70
     0
 62
    30
  6
CONTINUOUS
  0
LAYER
  2
BASIS
 70
     0
 62
     6
  6
DASHDOT
  0
LAYER
  2
OUTLINE
 70
     0
 62
     3
  6
CONTINUOUS
  0
LAYER
  2
DETAIL
 70
     0
 62
     5
  6
CONTINUOUS
  0
LAYER
  2
ARRANGE
 70
     0
 62
     1
  6
CONTINUOUS
  0
LAYER
  2
DEFPOINTS
 70
     0
 62
     7
  6
CONTINUOUS
  0
LAYER
  2
ETC
 70
     0
 62
    61
  6
CONTINUOUS
  0
LAYER
  2
FIX
 70
     0
 62
    11
  6
CONTINUOUS
  0
LAYER
  2
NOTE
 70
     0
 62
     4
  6
CONTINUOUS
  0
LAYER
  2
SERVICESPACE
 70
     0
 62
     2
  6
DASHDOT
  0
LAYER
  2
SYMBOLLINE
 70
     0
 62
    15
  6
CONTINUOUS
  0
ENDTAB
  0
TABLE
  2
STYLE
 70
     1
  0
STYLE
  2
STANDARD
 70
     0
 40
64.0
 41
0.9
 50
0.0
 71
     0
 42
64.0
  3
SIMPLEX.shx
  4
BIGFONT.shx
  0
ENDTAB
  0
TABLE
  2
VIEW
 70
     1
  0
VIEW
  2
ALL
 70
     0
 40
4282.6198079999986
 10
0.0
 20
41.309903999999989
 41
5940.0
 11
0.0
 21
0.0
 31
1.0
 12
0.0
 22
0.0
 32
0.0
 42
50.0
 43
0.0
 44
0.0
 50
0.0
 71
     0
  0
ENDTAB
  0
TABLE
  2
UCS
 70
     0
  0
ENDTAB
  0
TABLE
  2
APPID
 70
     2
  0
APPID
  2
ACAD
 70
     0
  0
APPID
  2
AUTOCAD_POSTSCRIPT_FIGURE
 70
     0
  0
ENDTAB
  0
TABLE
  2
DIMSTYLE
 70
     1
  0
DIMSTYLE
  2
STANDARD
 70
     0
  3

  4

  5

  6

  7

 40
1.0
 41
0.18
 42
0.0625
 43
0.38
 44
0.18
 45
0.0
 46
0.0
 47
0.0
 48
0.0
140
0.18
141
0.09
142
0.0
143
25.399999999999999
144
1.0
145
0.0
146
1.0
147
0.09
 71
     0
 72
     0
 73
     1
 74
     1
 75
     0
 76
     0
 77
     0
 78
     0
170
     0
171
     2
172
     0
173
     0
174
     0
175
     0
176
     7
177
     7
178
     7
  0
ENDTAB
  0
ENDSEC
  0
SECTION
  2
BLOCKS
  0
BLOCK
  8
0
  2
$MODEL_SPACE
 70
     0
 10
0.0
 20
0.0
 30
0.0
  3
$MODEL_SPACE
  1

  0
ENDBLK
  5
20
  8
0
  0
BLOCK
 67
     1
  8
0
  2
$PAPER_SPACE
 70
     0
 10
0.0
 20
0.0
 30
0.0
  3
$PAPER_SPACE
  1

  0
ENDBLK
  5
1C
 67
     1
  8
0
  0
BLOCK
  8
0
  2
DOT1
 70
     0
 10
0.0
 20
0.0
 30
0.0
  3
DOT1
  1

  0
CIRCLE
  5
36
  8
SIZE
  6
CONTINUOUS
 62
     7
 10
0.0
 20
0.0
 30
0.0
 40
3.0
  0
ENDBLK
  5
37
  8
0
  0
BLOCK
  8
0
  2
_ORIGIN
 70
     0
 10
0.0
 20
0.0
 30
0.0
  3
_ORIGIN
  1

  0
CIRCLE
  5
3A
  8
0
  6
CONTINUOUS
 62
     7
 10
0.0
 20
0.0
 30
0.0
 40
0.5
  0
LINE
  5
3B
  8
0
  6
CONTINUOUS
 62
     7
 10
0.0
 20
0.0
 30
0.0
 11
-1.0
 21
0.0
 31
0.0
  0
ENDBLK
  5
3C
  8
0
  0
ENDSEC
  0
SECTION
  2
ENTITIES
  0
ARC
  5
3D
  8
DETAIL
  6
CONTINUOUS
 62
     5
 10
-271.0
 20
137.62176599999989
 30
0.0
 40
3.0
 50
91.0
 51
180.0
  0
LINE
  5
3E
  8
DETAIL
  6
CONTINUOUS
 62
     5
 10
-272.34240799999998
 20
-135.6502429999999
 30
0.0
 11
-264.5
 21
-138.26368199999999
 31
0.0
  0
LINE
  5
3F
  8
DETAIL
  6
CONTINUOUS
 62
     5
 10
-274.0
 20
-25.929999999999989
 30
0.0
 11
-274.0
 21
137.62176599999989
 31
0.0
  0
LINE
  5
40
  8
DETAIL
  6
CONTINUOUS
 62
     5
 10
-264.5
 20
-140.621309
 30
0.0
 11
-264.5
 21
-138.26368199999999
 31
0.0
  0
LINE
  5
41
  8
DETAIL
  6
CONTINUOUS
 62
     5
 10
-257.5
 20
-140.621309
 30
0.0
 11
-257.5
 21
-142.4093179999999
 31
0.0
  0
LINE
  5
42
  8
DETAIL
  6
CONTINUOUS
 62
     5
 10
-255.5
 20
-142.4093179999999
 30
0.0
 11
-255.5
 21
-143.96308300000001
 31
0.0
  0
LINE
  5
43
  8
DETAIL
  6
CONTINUOUS
 62
     5
 10
-274.0
 20
-135.621309
 30
0.0
 11
-276.0
 21
-135.621309
 31
0.0
  0
LINE
  5
44
  8
DETAIL
  6
CONTINUOUS
 62
     5
 10
-257.5
 20
-142.4093179999999
 30
0.0
 11
-255.5
 21
-142.4093179999999
 31
0.0
  0
LINE
  5
45
  8
DETAIL
  6
CONTINUOUS
 62
     5
 10
-274.0
 20
-135.621309
 30
0.0
 11
-272.34240799999998
 21
-135.6502429999999
 31
0.0
  0
ARC
  5
46
  8
DETAIL
  6
CONTINUOUS
 62
     5
 10
-5.041366
 20
-118.0
 30
0.0
 40
1.0
 50
90.0
 51
180.0
  0
ARC
  5
47
  8
DETAIL
  6
CONTINUOUS
 62
     5
 10
-5.041366
 20
-132.0
 30
0.0
 40
1.0
 50
180.0
 51
270.0
  0
LINE
  5
48
  8
DETAIL
  6
CONTINUOUS
 62
     5
 10
-6.041366
 20
-132.0
 30
0.0
 11
-6.041366
 21
-118.0
 31
0.0
  0
LINE
  5
49
  8
DETAIL
  6
CONTINUOUS
 62
     5
 10
-274.0
 20
-25.929999999999989
 30
0.0
 11
-275.0
 21
-25.929999999999989
 31
0.0
  0
ARC
  5
4A
  8
DETAIL
  6
CONTINUOUS
 62
     5
 10
-275.0
 20
-26.93
 30
0.0
 40
1.0
 50
90.0
 51
180.0
  0
LINE
  5
4B
  8
DETAIL
  6
CONTINUOUS
 62
     5
 10
-276.0
 20
-135.621309
 30
0.0
 11
-276.0
 21
-26.93
 31
0.0
  0
LINE
  5
4C
  8
DETAIL
  6
CONTINUOUS
 62
     5
 10
-2.042243
 20
-117.0
 30
0.0
 11
-5.041366
 21
-117.0
 31
0.0
  0
LINE
  5
4D
  8
DETAIL
  6
CONTINUOUS
 62
     5
 10
-2.3215240000000001
 20
-133.0
 30
0.0
 11
-5.041366
 21
-133.0
 31
0.0
  0
LINE
  5
4E
  8
DETAIL
  6
CONTINUOUS
 62
     5
 10
-232.32786400000001
 20
-58.046424999999992
 30
0.0
 11
-274.0
 21
-8.3835069999999998
 31
0.0
  0
LINE
  5
4F
  8
DETAIL
  6
CONTINUOUS
 62
     5
 10
-242.32786399999989
 20
-144.174149
 30
0.0
 11
-242.32786399999989
 21
-46.128889000000001
 31
0.0
  0
LINE
  5
50
  8
DETAIL
  6
CONTINUOUS
 62
     5
 10
-232.32786400000001
 20
-144.34869900000001
 30
0.0
 11
-232.32786400000001
 21
-58.046424999999992
 31
0.0
  0
LINE
  5
51
  8
DETAIL
  6
CONTINUOUS
 62
     5
 10
-264.5
 20
4.2985429999999996
 30
0.0
 11
-274.0
 21
4.2985429999999996
 31
0.0
  0
LINE
  5
52
  8
DETAIL
  6
CONTINUOUS
 62
     5
 10
-264.5
 20
4.2985429999999996
 30
0.0
 11
-264.5
 21
143.78713200000001
 31
0.0
  0
LINE
  5
53
  8
BASIS
  6
DASHDOT
 62
     6
 10
-322.54822899999988
 20
0.0
 30
0.0
 11
54.874821999999988
 21
0.0
 31
0.0
  0
ARC
  5
54
  8
DETAIL
  6
CONTINUOUS
 62
     5
 10
-277.93804699999998
 20
-70.563399000000004
 30
0.0
 40
299.98478599999999
 50
341.31364600000001
 51
348.65172799999999
  0
ARC
  5
55
  8
DETAIL
  6
CONTINUOUS
 62
     5
 10
-277.94728199999992
 20
-70.532103000000006
 30
0.0
 40
300.0
 50
355.05725899999987
 51
356.65256099999988
  0
LINE
  5
56
  8
DETAIL
  6
CONTINUOUS
 62
     5
 10
-3.019725999999999
 20
-173.0
 30
0.0
 11
-2.984351999999999
 21
-170.97339600000001
 31
0.0
  0
LINE
  5
57
  8
DETAIL
  6
CONTINUOUS
 62
     5
 10
14.747526000000001
 20
-128.97708899999989
 30
0.0
 11
15.700316000000001
 21
-128.99371999999991
 31
0.0
  0
ARC
  5
58
  8
DETAIL
  6
CONTINUOUS
 62
     5
 10
15.691589
 20
-129.4936439999999
 30
0.0
 40
0.5
 50
348.64621499999998
 51
89.0
  0
ARC
  5
59
  8
DETAIL
  6
CONTINUOUS
 62
     5
 10
19.317883999999999
 20
-102.6945189999999
 30
0.0
 40
1.0
 50
293.35204800000002
 51
353.82493999999991
  0
ARC
  5
5A
  8
DETAIL
  6
CONTINUOUS
 62
     5
 10
-277.94728199999992
 20
-70.532103000000006
 30
0.0
 40
300.0
 50
353.82493999999991
 51
355.05725899999987
  0
LINE
  5
5B
  8
DETAIL
  6
CONTINUOUS
 62
     5
 10
14.747526000000001
 20
-128.97708899999989
 30
0.0
 11
14.24760199999999
 21
-128.9683629999999
 31
0.0
  0
LINE
  5
5C
  8
DETAIL
  6
CONTINUOUS
 62
     5
 10
19.714264
 20
-103.6126059999999
 30
0.0
 11
14.652037999999999
 21
-105.798198
 31
0.0
  0
LINE
  5
5D
  8
DETAIL
  6
CONTINUOUS
 62
     5
 10
14.24760199999999
 20
-128.9683629999999
 30
0.0
 11
14.652037999999999
 21
-105.798198
 31
0.0
  0
ARC
  5
5E
  8
DETAIL
  6
CONTINUOUS
 62
     5
 10
-275.31643100000002
 20
80.189226000000005
 30
0.0
 40
300.0
 50
12.224050999999999
 51
16.591989999999999
  0
ARC
  5
5F
  8
DETAIL
  6
CONTINUOUS
 62
     5
 10
-275.31643100000002
 20
80.189226000000005
 30
0.0
 40
300.0
 50
1.7348170000000001
 51
12.224050999999999
  0
ARC
  5
60
  8
DETAIL
  6
CONTINUOUS
 62
     5
 10
2.6381030000000001
 20
-78.057929999999999
 30
0.0
 40
2.0
 50
359.0
 51
89.0
  0
LINE
  5
61
  8
DETAIL
  6
CONTINUOUS
 62
     5
 10
-0.326535
 20
-76.005876999999998
 30
0.0
 11
1.950515
 21
-76.045622999999992
 31
0.0
  0
LINE
  5
62
  8
DETAIL
  6
CONTINUOUS
 62
     5
 10
1.950515
 20
-76.045622999999992
 30
0.0
 11
2.6730079999999998
 21
-76.058233999999999
 31
0.0
  0
LINE
  5
63
  8
DETAIL
  6
CONTINUOUS
 62
     5
 10
-2.984351999999999
 20
-170.97339600000001
 30
0.0
 11
-1.7277880000000001
 21
-98.984921999999983
 31
0.0
  0
ARC
  5
64
  8
DETAIL
  6
CONTINUOUS
 62
     5
 10
-0.727941
 20
-99.002374000000003
 30
0.0
 40
1.0
 50
89.0
 51
179.0
  0
LINE
  5
65
  8
DETAIL
  6
CONTINUOUS
 62
     5
 10
-0.710488
 20
-98.002527000000015
 30
0.0
 11
1.95075
 21
-98.048979000000003
 31
0.0
  0
ARC
  5
66
  8
DETAIL
  6
CONTINUOUS
 62
     5
 10
2.32396
 20
-96.055188000000001
 30
0.0
 40
2.0
 50
259.24528500000002
 51
359.0
  0
LINE
  5
67
  8
DETAIL
  6
CONTINUOUS
 62
     5
 10
4.3236549999999996
 20
-96.090093000000024
 30
0.0
 11
4.6377980000000001
 21
-78.092834999999994
 31
0.0
  0
LINE
  5
68
  8
DETAIL
  6
CONTINUOUS
 62
     5
 10
-1.308929999999999
 20
-74.988577000000006
 30
0.0
 11
3.019725999999999
 21
173.0
 31
0.0
  0
ARC
  5
69
  8
DETAIL
  6
CONTINUOUS
 62
     5
 10
-0.309083
 20
-75.00603000000001
 30
0.0
 40
1.0
 50
179.0
 51
269.0
  0
LINE
  5
6A
  8
NOTE
  6
CONTINUOUS
 62
     4
 10
-352.48065699999989
 20
232.49587999999989
 30
0.0
 11
-99.370218999999992
 21
232.49587999999989
 31
0.0
  0
TEXT
  5
6B
  8
NOTE
  6
CONTINUOUS
 62
     4
 10
-339.22249099999988
 20
259.01301699999999
 30
0.0
 40
64.0
  1
4-φ5
 41
0.9
  0
LINE
  5
6C
  8
DETAIL
  6
CONTINUOUS
 62
     5
 10
-264.5
 20
-140.621309
 30
0.0
 11
-257.5
 21
-140.621309
 31
0.0
  0
ARC
  5
6D
  8
DETAIL
  6
CONTINUOUS
 62
     5
 10
2.6164119999999991
 20
163.02173099999999
 30
0.0
 40
9.9864169999999994
 50
16.485144999999999
 51
87.685405000000003
  0
ARC
  5
6E
  8
DETAIL
  6
CONTINUOUS
 62
     5
 10
-2.9855509999999992
 20
-163.119055
 30
0.0
 40
9.881003999999999
 50
269.80183
 51
338.90898399999998
  0
ARC
  5
6F
  8
DETAIL
  6
CONTINUOUS
 62
     5
 10
-1974.702959
 20
34.468502999999998
 30
0.0
 40
2000.0
 50
356.48792500000002
 51
1.5701819999999991
  0
CIRCLE
  5
70
  8
ARRANGE
  6
CONTINUOUS
 62
     1
 39
50.0
 10
0.0
 20
0.0
 30
0.0
 40
40.0
  0
POINT
  5
71
  8
ARRANGE
  6
CONTINUOUS
 62
     1
 10
0.0
 20
0.0
 30
0.0
 39
50.0
  0
CIRCLE
  5
72
  8
FIX
  6
CONTINUOUS
 62
    11
 39
50.0
 10
2.7928099999999989
 20
160.0
 30
0.0
 40
2.5
  0
LINE
  5
73
  8
NOTE
  6
CONTINUOUS
 62
     4
 10
2.7928099999999989
 20
140.0
 30
0.0
 11
2.7928099999999989
 21
180.0
 31
0.0
  0
LINE
  5
74
  8
NOTE
  6
CONTINUOUS
 62
     4
 10
22.792809999999999
 20
160.0
 30
0.0
 11
-17.207190000000001
 21
160.0
 31
0.0
  0
LINE
  5
75
  8
NOTE
  6
CONTINUOUS
 62
     4
 10
-2.7928099999999989
 20
-180.0
 30
0.0
 11
-2.7928099999999989
 21
-140.0
 31
0.0
  0
LINE
  5
76
  8
NOTE
  6
CONTINUOUS
 62
     4
 10
17.207190000000001
 20
-160.0
 30
0.0
 11
-22.792809999999999
 21
-160.0
 31
0.0
  0
CIRCLE
  5
77
  8
FIX
  6
CONTINUOUS
 62
    11
 39
50.0
 10
-2.7928099999999989
 20
-160.0
 30
0.0
 40
2.5
  0
LINE
  5
78
  8
DETAIL
  6
CONTINUOUS
 62
     5
 10
-271.05235699999992
 20
140.621309
 30
0.0
 11
-264.5
 21
140.621309
 31
0.0
  0
LINE
  5
79
  8
DETAIL
  6
CONTINUOUS
 62
     5
 10
-264.5
 20
143.78713200000001
 30
0.0
 11
2.6008049999999989
 21
149.0
 31
0.0
  0
LINE
  5
7A
  8
DETAIL
  6
CONTINUOUS
 62
     5
 10
-255.5
 20
-143.96308300000001
 30
0.0
 11
-2.6008049999999989
 21
-149.0
 31
0.0
  0
LINE
  5
7B
  8
SIZE
  6
CONTINUOUS
 62
    30
 10
-17.399194999999999
 20
149.0
 30
0.0
 11
-474.55219399999999
 21
149.0
 31
0.0
  0
LINE
  5
7C
  8
SIZE
  6
CONTINUOUS
 62
    30
 10
-22.60080499999999
 20
-149.0
 30
0.0
 11
-474.55219399999999
 21
-149.0
 31
0.0
  0
LINE
  5
7D
  8
SIZE
  6
CONTINUOUS
 62
    30
 10
-454.55219399999999
 20
137.0
 30
0.0
 11
-454.55219399999999
 21
-137.0
 31
0.0
  0
CIRCLE
  5
7E
  8
SIZE
  6
CONTINUOUS
 62
    30
 10
-454.55219399999999
 20
149.0
 30
0.0
 40
6.0
  0
LINE
  5
7F
  8
SIZE
  6
CONTINUOUS
 62
    30
 10
-454.55219399999999
 20
149.0
 30
0.0
 11
-454.55219399999999
 21
137.0
 31
0.0
  0
CIRCLE
  5
80
  8
SIZE
  6
CONTINUOUS
 62
    30
 10
-454.55219399999999
 20
-149.0
 30
0.0
 40
6.0
  0
LINE
  5
81
  8
SIZE
  6
CONTINUOUS
 62
    30
 10
-454.55219399999999
 20
-149.0
 30
0.0
 11
-454.55219399999999
 21
-137.0
 31
0.0
  0
TEXT
  5
82
  8
SIZE
  6
CONTINUOUS
 62
    30
 10
-479.55219399999999
 20
-74.05714285714285
 30
0.0
 40
64.0
  1
298
 50
90.0
 41
0.9
 72
     1
 11
-479.55219399999999
 21
0.0
 31
0.0
  0
LINE
  5
86
  8
SIZE
  6
CONTINUOUS
 62
    30
 10
-37.207189999999997
 20
160.0
 30
0.0
 11
-603.51586699999984
 21
160.0
 31
0.0
  0
LINE
  5
87
  8
SIZE
  6
CONTINUOUS
 62
    30
 10
-42.792810000000003
 20
-160.0
 30
0.0
 11
-603.51586699999984
 21
-160.0
 31
0.0
  0
LINE
  5
88
  8
SIZE
  6
CONTINUOUS
 62
    30
 10
-583.51586699999984
 20
148.0
 30
0.0
 11
-583.51586699999984
 21
-148.0
 31
0.0
  0
CIRCLE
  5
89
  8
SIZE
  6
CONTINUOUS
 62
    30
 10
-583.51586699999984
 20
160.0
 30
0.0
 40
6.0
  0
LINE
  5
8A
  8
SIZE
  6
CONTINUOUS
 62
    30
 10
-583.51586699999984
 20
160.0
 30
0.0
 11
-583.51586699999984
 21
148.0
 31
0.0
  0
CIRCLE
  5
8B
  8
SIZE
  6
CONTINUOUS
 62
    30
 10
-583.51586699999984
 20
-160.0
 30
0.0
 40
6.0
  0
LINE
  5
8C
  8
SIZE
  6
CONTINUOUS
 62
    30
 10
-583.51586699999984
 20
-160.0
 30
0.0
 11
-583.51586699999984
 21
-148.0
 31
0.0
  0
TEXT
  5
8D
  8
SIZE
  6
CONTINUOUS
 62
    30
 10
-608.51586699999984
 20
-74.05714285714285
 30
0.0
 40
64.0
  1
320
 50
90.0
 41
0.9
 72
     1
 11
-608.51586699999984
 21
0.0
 31
0.0
  0
LINE
  5
91
  8
SIZE
  6
CONTINUOUS
 62
    30
 10
23.019725999999999
 20
173.0
 30
0.0
 11
208.73919399999991
 21
173.0
 31
0.0
  0
LINE
  5
92
  8
SIZE
  6
CONTINUOUS
 62
    30
 10
16.980273999999991
 20
-173.0
 30
0.0
 11
208.73919399999991
 21
-173.0
 31
0.0
  0
LINE
  5
93
  8
SIZE
  6
CONTINUOUS
 62
    30
 10
188.739194
 20
161.0
 30
0.0
 11
188.739194
 21
-161.0
 31
0.0
  0
CIRCLE
  5
94
  8
SIZE
  6
CONTINUOUS
 62
    30
 10
188.739194
 20
173.0
 30
0.0
 40
6.0
  0
LINE
  5
95
  8
SIZE
  6
CONTINUOUS
 62
    30
 10
188.739194
 20
173.0
 30
0.0
 11
188.739194
 21
161.0
 31
0.0
  0
CIRCLE
  5
96
  8
SIZE
  6
CONTINUOUS
 62
    30
 10
188.739194
 20
-173.0
 30
0.0
 40
6.0
  0
LINE
  5
97
  8
SIZE
  6
CONTINUOUS
 62
    30
 10
188.739194
 20
-173.0
 30
0.0
 11
188.739194
 21
-161.0
 31
0.0
  0
TEXT
  5
98
  8
SIZE
  6
CONTINUOUS
 62
    30
 10
163.739194
 20
-72.685714285714297
 30
0.0
 40
64.0
  1
346
 50
90.0
 41
0.9
 72
     1
 11
163.739194
 21
0.0
 31
0.0
  0
LINE
  5
9C
  8
SIZE
  6
CONTINUOUS
 62
    30
 10
-276.0
 20
-155.62130899999991
 30
0.0
 11
-276.0
 21
-403.66665899999998
 31
0.0
  0
LINE
  5
9D
  8
SIZE
  6
CONTINUOUS
 62
    30
 10
0.0
 20
-20.0
 30
0.0
 11
0.0
 21
-403.66665899999998
 31
0.0
  0
LINE
  5
9E
  8
SIZE
  6
CONTINUOUS
 62
    30
 10
-264.0
 20
-383.66665899999998
 30
0.0
 11
-12.0
 21
-383.66665899999998
 31
0.0
  0
CIRCLE
  5
9F
  8
SIZE
  6
CONTINUOUS
 62
    30
 10
-276.0
 20
-383.66665899999998
 30
0.0
 40
6.0
  0
LINE
  5
A0
  8
SIZE
  6
CONTINUOUS
 62
    30
 10
-276.0
 20
-383.66665899999998
 30
0.0
 11
-264.0
 21
-383.66665899999998
 31
0.0
  0
CIRCLE
  5
A1
  8
SIZE
  6
CONTINUOUS
 62
    30
 10
0.0
 20
-383.66665899999998
 30
0.0
 40
6.0
  0
LINE
  5
A2
  8
SIZE
  6
CONTINUOUS
 62
    30
 10
0.0
 20
-383.66665899999998
 30
0.0
 11
-12.0
 21
-383.66665899999998
 31
0.0
  0
TEXT
  5
A3
  8
SIZE
  6
CONTINUOUS
 62
    30
 10
-210.6857142857142
 20
-358.66665899999998
 30
0.0
 40
64.0
  1
276
 41
0.9
 72
     1
 11
-138.0
 21
-358.66665899999998
 31
0.0
  0
LINE
  5
A7
  8
SIZE
  6
CONTINUOUS
 62
    30
 10
0.0
 20
-20.0
 30
0.0
 11
0.0
 21
-403.66665899999998
 31
0.0
  0
LINE
  5
A8
  8
SIZE
  6
CONTINUOUS
 62
    30
 10
25.0
 20
-20.0
 30
0.0
 11
25.0
 21
-403.66665899999998
 31
0.0
  0
LINE
  5
A9
  8
SIZE
  6
CONTINUOUS
 62
    30
 10
-12.0
 20
-383.66665899999998
 30
0.0
 11
-24.0
 21
-383.66665899999998
 31
0.0
  0
LINE
  5
AA
  8
SIZE
  6
CONTINUOUS
 62
    30
 10
37.0
 20
-383.66665899999998
 30
0.0
 11
49.0
 21
-383.66665899999998
 31
0.0
  0
LINE
  5
AB
  8
SIZE
  6
CONTINUOUS
 62
    30
 10
196.2931889999999
 20
-383.66665899999998
 30
0.0
 11
25.0
 21
-383.66665899999998
 31
0.0
  0
TEXT
  5
AC
  8
SIZE
  6
CONTINUOUS
 62
    30
 10
78.036045571428573
 20
-358.66665899999998
 30
0.0
 40
64.0
  1
25
 41
0.9
 72
     1
 11
124.66461699999989
 21
-358.66665899999998
 31
0.0
  0
LINE
  5
AD
  8
SIZE
  6
CONTINUOUS
 62
    30
 10
0.0
 20
-383.66665899999998
 30
0.0
 11
25.0
 21
-383.66665899999998
 31
0.0
  0
LINE
  5
AE
  8
SIZE
  6
CONTINUOUS
 62
    30
 10
0.0
 20
-383.66665899999998
 30
0.0
 11
25.0
 21
-383.66665899999998
 31
0.0
  0
CIRCLE
  5
AF
  8
SIZE
  6
CONTINUOUS
 62
    30
 10
0.0
 20
-383.66665899999998
 30
0.0
 40
6.0
  0
LINE
  5
B0
  8
SIZE
  6
CONTINUOUS
 62
    30
 10
0.0
 20
-383.66665899999998
 30
0.0
 11
-12.0
 21
-383.66665899999998
 31
0.0
  0
CIRCLE
  5
B1
  8
SIZE
  6
CONTINUOUS
 62
    30
 10
25.0
 20
-383.66665899999998
 30
0.0
 40
6.0
  0
LINE
  5
B2
  8
SIZE
  6
CONTINUOUS
 62
    30
 10
25.0
 20
-383.66665899999998
 30
0.0
 11
37.0
 21
-383.66665899999998
 31
0.0
  0
LINE
  5
B6
  8
NOTE
  6
CONTINUOUS
 62
     4
 10
2.7928099999999989
 20
160.0
 30
0.0
 11
-99.370218999999992
 21
232.49587999999989
 31
0.0
  0
LINE
  5
B7
  8
NOTE
  6
CONTINUOUS
 62
     4
 10
-22.247278000000001
 20
191.19285199999999
 30
0.0
 11
2.7928099999999989
 21
160.0
 31
0.0
  0
LINE
  5
B8
  8
NOTE
  6
CONTINUOUS
 62
     4
 10
2.7928099999999989
 20
160.0
 30
0.0
 11
-34.488967999999993
 21
174.49375800000001
 31
0.0
  0
LINE
  5
B9
  8
OUTLINE
  6
CONTINUOUS
 62
     3
 10
-255.5
 20
-143.96308300000001
 30
0.0
 11
-2.6008049999999989
 21
-149.0
 31
0.0
  0
LINE
  5
BA
  8
OUTLINE
  6
CONTINUOUS
 62
     3
 10
-264.5
 20
143.78713200000001
 30
0.0
 11
2.6008049999999989
 21
149.0
 31
0.0
  0
LINE
  5
BB
  8
OUTLINE
  6
CONTINUOUS
 62
     3
 10
-1.308929999999999
 20
-74.988577000000006
 30
0.0
 11
3.019725999999999
 21
173.0
 31
0.0
  0
LINE
  5
BC
  8
OUTLINE
  6
CONTINUOUS
 62
     3
 10
-2.984351999999999
 20
-170.97339600000001
 30
0.0
 11
-1.7277880000000001
 21
-98.984921999999983
 31
0.0
  0
LINE
  5
BD
  8
OUTLINE
  6
CONTINUOUS
 62
     3
 10
-3.019725999999999
 20
-173.0
 30
0.0
 11
-2.984351999999999
 21
-170.97339600000001
 31
0.0
  0
LINE
  5
BE
  8
OUTLINE
  6
CONTINUOUS
 62
     3
 10
4.3236549999999996
 20
-96.090093000000024
 30
0.0
 11
4.6377980000000001
 21
-78.092834999999994
 31
0.0
  0
ARC
  5
BF
  8
OUTLINE
  6
CONTINUOUS
 62
     3
 10
2.32396
 20
-96.055188000000001
 30
0.0
 40
2.0
 50
259.24528500000002
 51
359.0
  0
LINE
  5
C0
  8
OUTLINE
  6
CONTINUOUS
 62
     3
 10
-0.710488
 20
-98.002527000000015
 30
0.0
 11
1.95075
 21
-98.048979000000003
 31
0.0
  0
ARC
  5
C1
  8
OUTLINE
  6
CONTINUOUS
 62
     3
 10
-0.727941
 20
-99.002374000000003
 30
0.0
 40
1.0
 50
89.0
 51
179.0
  0
ARC
  5
C2
  8
OUTLINE
  6
CONTINUOUS
 62
     3
 10
-0.309083
 20
-75.00603000000001
 30
0.0
 40
1.0
 50
179.0
 51
269.0
  0
LINE
  5
C3
  8
OUTLINE
  6
CONTINUOUS
 62
     3
 10
1.950515
 20
-76.045622999999992
 30
0.0
 11
2.6730079999999998
 21
-76.058233999999999
 31
0.0
  0
LINE
  5
C4
  8
OUTLINE
  6
CONTINUOUS
 62
     3
 10
-0.326535
 20
-76.005876999999998
 30
0.0
 11
1.950515
 21
-76.045622999999992
 31
0.0
  0
ARC
  5
C5
  8
OUTLINE
  6
CONTINUOUS
 62
     3
 10
2.6381030000000001
 20
-78.057929999999999
 30
0.0
 40
2.0
 50
359.0
 51
89.0
  0
LINE
  5
C6
  8
OUTLINE
  6
CONTINUOUS
 62
     3
 10
-274.0
 20
-25.929999999999989
 30
0.0
 11
-274.0
 21
137.62176599999989
 31
0.0
  0
LINE
  5
C7
  8
OUTLINE
  6
CONTINUOUS
 62
     3
 10
-276.0
 20
-135.621309
 30
0.0
 11
-276.0
 21
-26.93
 31
0.0
  0
LINE
  5
C8
  8
OUTLINE
  6
CONTINUOUS
 62
     3
 10
-264.5
 20
-140.621309
 30
0.0
 11
-257.5
 21
-140.621309
 31
0.0
  0
LINE
  5
C9
  8
OUTLINE
  6
CONTINUOUS
 62
     3
 10
-274.0
 20
-135.621309
 30
0.0
 11
-272.34240799999998
 21
-135.6502429999999
 31
0.0
  0
LINE
  5
CA
  8
OUTLINE
  6
CONTINUOUS
 62
     3
 10
-257.5
 20
-142.4093179999999
 30
0.0
 11
-255.5
 21
-142.4093179999999
 31
0.0
  0
LINE
  5
CB
  8
OUTLINE
  6
CONTINUOUS
 62
     3
 10
-274.0
 20
-135.621309
 30
0.0
 11
-276.0
 21
-135.621309
 31
0.0
  0
LINE
  5
CC
  8
OUTLINE
  6
CONTINUOUS
 62
     3
 10
-255.5
 20
-142.4093179999999
 30
0.0
 11
-255.5
 21
-143.96308300000001
 31
0.0
  0
LINE
  5
CD
  8
OUTLINE
  6
CONTINUOUS
 62
     3
 10
-257.5
 20
-140.621309
 30
0.0
 11
-257.5
 21
-142.4093179999999
 31
0.0
  0
LINE
  5
CE
  8
OUTLINE
  6
CONTINUOUS
 62
     3
 10
-264.5
 20
-140.621309
 30
0.0
 11
-264.5
 21
-138.26368199999999
 31
0.0
  0
LINE
  5
CF
  8
OUTLINE
  6
CONTINUOUS
 62
     3
 10
-272.34240799999998
 20
-135.6502429999999
 30
0.0
 11
-264.5
 21
-138.26368199999999
 31
0.0
  0
ARC
  5
D0
  8
OUTLINE
  6
CONTINUOUS
 62
     3
 10
-275.0
 20
-26.93
 30
0.0
 40
1.0
 50
90.0
 51
180.0
  0
LINE
  5
D1
  8
OUTLINE
  6
CONTINUOUS
 62
     3
 10
-274.0
 20
-25.929999999999989
 30
0.0
 11
-275.0
 21
-25.929999999999989
 31
0.0
  0
LINE
  5
D2
  8
OUTLINE
  6
CONTINUOUS
 62
     3
 10
-264.5
 20
140.621309
 30
0.0
 11
-264.5
 21
143.78713200000001
 31
0.0
  0
LINE
  5
D3
  8
OUTLINE
  6
CONTINUOUS
 62
     3
 10
-271.05235699999992
 20
140.621309
 30
0.0
 11
-264.5
 21
140.621309
 31
0.0
  0
ARC
  5
D4
  8
OUTLINE
  6
CONTINUOUS
 62
     3
 10
-271.0
 20
137.62176599999989
 30
0.0
 40
3.0
 50
91.0
 51
180.0
  0
TEXT
  5
EB
  8
ETC
  6
CONTINUOUS
 62
    61
 10
491.27491537643152
 20
168.53106259946941
 30
0.0
 40
50.0
  1
VL-12EKH2-D
 41
0.9
  0
TEXT
  5
EC
  8
ETC
  6
CONTINUOUS
 62
    61
 10
491.27491537643152
 20
71.617441599469373
 30
0.0
 40
50.0
  1
VL-12EKH2-BE-D
 41
0.9
  0
TEXT
  5
ED
  8
ETC
  6
CONTINUOUS
 62
    61
 10
491.27491537643152
 20
-18.373779400530559
 30
0.0
 40
50.0
  1
VL-12EKH2
 41
0.9
  0
TEXT
  5
EE
  8
ETC
  6
CONTINUOUS
 62
    61
 10
491.27491537643152
 20
-111.8262004005305
 30
0.0
 40
50.0
  1
VL-12EK2-D
 41
0.9
  0
TEXT
  5
EF
  8
ETC
  6
CONTINUOUS
 62
    61
 10
491.27491537643152
 20
-208.7398204005305
 30
0.0
 40
50.0
  1
VL-12EK2
 41
0.9
  0
TEXT
  5
F0
  8
ETC
  6
CONTINUOUS
 62
    61
 10
346.51672132607268
 20
341.8985372840537
 30
0.0
 40
64.0
  1
VL-12EKH2-D_5
 41
0.9
  0
TEXT
  5
F1
  8
ETC
  6
CONTINUOUS
 62
    61
 10
355.82585132607278
 20
239.28308528405361
 30
0.0
 40
64.0
  1
換気扇
 41
0.9
  0
ENDSEC
  0
EOF
