  0
SECTION
  2
HEADER
  9
$ACADVER
  1
AC1009
  9
$DWGCODEPAGE
  3
ansi_932
  9
$INSBASE
 10
0.0
 20
0.0
 30
0.0
  9
$EXTMIN
 10
-270.220145
 20
-766.9026150000004
 30
0.0
  9
$EXTMAX
 10
1597.257353857143
 20
443.5100090000002
 30
50.0
  9
$LIMMIN
 10
-2970.0
 20
-2100.0
  9
$LIMMAX
 10
2970.0
 20
2100.0
  9
$ORTHOMODE
 70
     0
  9
$REGENMODE
 70
     0
  9
$FILLMODE
 70
     1
  9
$QTEXTMODE
 70
     0
  9
$MIRRTEXT
 70
     0
  9
$DRAGMODE
 70
     2
  9
$LTSCALE
 40
20.0
  9
$OSMODE
 70
    37
  9
$ATTMODE
 70
     1
  9
$TEXTSIZE
 40
64.0
  9
$TRACEWID
 40
0.05
  9
$TEXTSTYLE
  7
STANDARD
  9
$CLAYER
  8
SIZE
  9
$CELTYPE
  6
CONTINUOUS
  9
$CECOLOR
 62
    30
  9
$DIMSCALE
 40
1.0
  9
$DIMASZ
 40
12.0
  9
$DIMEXO
 40
20.0
  9
$DIMDLI
 40
200.0
  9
$DIMRND
 40
0.0
  9
$DIMDLE
 40
0.0
  9
$DIMEXE
 40
20.0
  9
$DIMTP
 40
0.0
  9
$DIMTM
 40
0.0
  9
$DIMTXT
 40
64.0
  9
$DIMCEN
 40
0.09
  9
$DIMTSZ
 40
0.0
  9
$DIMTOL
 70
     0
  9
$DIMLIM
 70
     0
  9
$DIMTIH
 70
     0
  9
$DIMTOH
 70
     0
  9
$DIMSE1
 70
     0
  9
$DIMSE2
 70
     0
  9
$DIMTAD
 70
     1
  9
$DIMZIN
 70
     8
  9
$DIMBLK
  1
DOT1
  9
$DIMASO
 70
     1
  9
$DIMSHO
 70
     0
  9
$DIMPOST
  1

  9
$DIMAPOST
  1

  9
$DIMALT
 70
     0
  9
$DIMALTD
 70
     2
  9
$DIMALTF
 40
25.4
  9
$DIMLFAC
 40
1.0
  9
$DIMTOFL
 70
     1
  9
$DIMTVP
 40
0.0
  9
$DIMTIX
 70
     1
  9
$DIMSOXD
 70
     0
  9
$DIMSAH
 70
     1
  9
$DIMBLK1
  1
ORIGIN
  9
$DIMBLK2
  1
ORIGIN
  9
$DIMSTYLE
  2
STANDARD
  9
$DIMCLRD
 70
     7
  9
$DIMCLRE
 70
     7
  9
$DIMCLRT
 70
     7
  9
$DIMTFAC
 40
1.0
  9
$DIMGAP
 40
25.0
  9
$LUNITS
 70
     2
  9
$LUPREC
 70
     4
  9
$SKETCHINC
 40
0.1
  9
$FILLETRAD
 40
10.0
  9
$AUNITS
 70
     1
  9
$AUPREC
 70
     3
  9
$MENU
  1
ACAD
  9
$ELEVATION
 40
0.0
  9
$PELEVATION
 40
0.0
  9
$THICKNESS
 40
50.0
  9
$LIMCHECK
 70
     0
  9
$CHAMFERA
 40
0.0
  9
$CHAMFERB
 40
0.0
  9
$SKPOLY
 70
     0
  9
$TDCREATE
 40
2453103.776058947
  9
$TDUPDATE
 40
2457485.601746389
  9
$TDINDWG
 40
0.0394481944
  9
$TDUSRTIMER
 40
0.0394481944
  9
$USRTIMER
 70
     1
  9
$ANGBASE
 50
0.0
  9
$ANGDIR
 70
     0
  9
$PDMODE
 70
     3
  9
$PDSIZE
 40
-2.0
  9
$PLINEWID
 40
0.0
  9
$COORDS
 70
     1
  9
$SPLFRAME
 70
     0
  9
$SPLINETYPE
 70
     6
  9
$SPLINESEGS
 70
     8
  9
$ATTDIA
 70
     0
  9
$ATTREQ
 70
     1
  9
$HANDLING
 70
     1
  9
$HANDSEED
  5
267
  9
$SURFTAB1
 70
     6
  9
$SURFTAB2
 70
     6
  9
$SURFTYPE
 70
     6
  9
$SURFU
 70
     6
  9
$SURFV
 70
     6
  9
$UCSNAME
  2

  9
$UCSORG
 10
0.0
 20
0.0
 30
0.0
  9
$UCSXDIR
 10
1.0
 20
0.0
 30
0.0
  9
$UCSYDIR
 10
0.0
 20
1.0
 30
0.0
  9
$PUCSNAME
  2

  9
$PUCSORG
 10
0.0
 20
0.0
 30
0.0
  9
$PUCSXDIR
 10
1.0
 20
0.0
 30
0.0
  9
$PUCSYDIR
 10
0.0
 20
1.0
 30
0.0
  9
$USERI1
 70
     0
  9
$USERI2
 70
     0
  9
$USERI3
 70
     0
  9
$USERI4
 70
     0
  9
$USERI5
 70
     0
  9
$USERR1
 40
20.0
  9
$USERR2
 40
0.0
  9
$USERR3
 40
0.0
  9
$USERR4
 40
0.0
  9
$USERR5
 40
0.0
  9
$WORLDVIEW
 70
     1
  9
$SHADEDGE
 70
     3
  9
$SHADEDIF
 70
    70
  9
$TILEMODE
 70
     1
  9
$MAXACTVP
 70
    48
  9
$PLIMCHECK
 70
     0
  9
$PEXTMIN
 10
-1.000000000000000E+20
 20
-1.000000000000000E+20
 30
-1.000000000000000E+20
  9
$PEXTMAX
 10
1.000000000000000E+20
 20
1.000000000000000E+20
 30
1.000000000000000E+20
  9
$PLIMMIN
 10
0.0
 20
0.0
  9
$PLIMMAX
 10
12.0
 20
9.0
  9
$UNITMODE
 70
     0
  9
$VISRETAIN
 70
     0
  9
$PLINEGEN
 70
     0
  9
$PSLTSCALE
 70
     0
  0
ENDSEC
  0
SECTION
  2
TABLES
  0
TABLE
  2
VPORT
 70
     1
  0
VPORT
  2
*ACTIVE
 70
     0
 10
0.0
 20
0.0
 11
1.0
 21
1.0
 12
660.7714288675388
 22
-161.6592310000001
 13
0.0
 23
0.0
 14
1.0
 24
1.0
 15
0.0
 25
0.0
 16
0.0
 26
0.0
 36
1.0
 17
0.0
 27
0.0
 37
0.0
 40
1272.200407867825
 41
1.710526315789473
 42
50.0
 43
0.0
 44
0.0
 50
0.0
 51
0.0
 71
     0
 72
  1000
 73
     1
 74
     0
 75
     0
 76
     0
 77
     0
 78
     0
  0
ENDTAB
  0
TABLE
  2
LTYPE
 70
     2
  0
LTYPE
  2
CONTINUOUS
 70
     0
  3
実線
 72
    65
 73
     0
 40
0.0
  0
LTYPE
  2
DASHDOT
 70
     0
  3
____ _ ____ _ ____ _ ____ _ ____ _ ____ _ ____
 72
    65
 73
     4
 40
5.5
 49
4.0
 49
-0.6
 49
0.3
 49
-0.6
  0
ENDTAB
  0
TABLE
  2
LAYER
 70
    12
  0
LAYER
  2
0
 70
     0
 62
     7
  6
CONTINUOUS
  0
LAYER
  2
SIZE
 70
     0
 62
    30
  6
CONTINUOUS
  0
LAYER
  2
BASIS
 70
     0
 62
     6
  6
DASHDOT
  0
LAYER
  2
OUTLINE
 70
     0
 62
     3
  6
CONTINUOUS
  0
LAYER
  2
DETAIL
 70
     0
 62
     5
  6
CONTINUOUS
  0
LAYER
  2
ARRANGE
 70
     0
 62
     1
  6
CONTINUOUS
  0
LAYER
  2
DEFPOINTS
 70
     0
 62
     7
  6
CONTINUOUS
  0
LAYER
  2
ETC
 70
     0
 62
    61
  6
CONTINUOUS
  0
LAYER
  2
FIX
 70
     0
 62
    11
  6
CONTINUOUS
  0
LAYER
  2
NOTE
 70
     0
 62
     4
  6
CONTINUOUS
  0
LAYER
  2
SERVICESPACE
 70
     0
 62
     2
  6
DASHDOT
  0
LAYER
  2
SYMBOLLINE
 70
     0
 62
    15
  6
CONTINUOUS
  0
ENDTAB
  0
TABLE
  2
STYLE
 70
     1
  0
STYLE
  2
STANDARD
 70
     0
 40
64.0
 41
0.9
 50
0.0
 71
     0
 42
64.0
  3
SIMPLEX.shx
  4
BIGFONT.shx
  0
ENDTAB
  0
TABLE
  2
VIEW
 70
     1
  0
VIEW
  2
ALL
 70
     0
 40
4282.619807999999
 10
0.0
 20
41.30990399999999
 41
5940.0
 11
0.0
 21
0.0
 31
1.0
 12
0.0
 22
0.0
 32
0.0
 42
50.0
 43
0.0
 44
0.0
 50
0.0
 71
     0
  0
ENDTAB
  0
TABLE
  2
UCS
 70
     0
  0
ENDTAB
  0
TABLE
  2
APPID
 70
     2
  0
APPID
  2
ACAD
 70
     0
  0
APPID
  2
AUTOCAD_POSTSCRIPT_FIGURE
 70
     0
  0
ENDTAB
  0
TABLE
  2
DIMSTYLE
 70
     1
  0
DIMSTYLE
  2
STANDARD
 70
     0
  3

  4

  5

  6

  7

 40
1.0
 41
0.18
 42
0.0625
 43
0.38
 44
0.18
 45
0.0
 46
0.0
 47
0.0
 48
0.0
140
0.18
141
0.09
142
0.0
143
25.4
144
1.0
145
0.0
146
1.0
147
0.09
 71
     0
 72
     0
 73
     1
 74
     1
 75
     0
 76
     0
 77
     0
 78
     0
170
     0
171
     2
172
     0
173
     0
174
     0
175
     0
176
     7
177
     7
178
     7
  0
ENDTAB
  0
ENDSEC
  0
SECTION
  2
BLOCKS
  0
BLOCK
  8
0
  2
$MODEL_SPACE
 70
     0
 10
0.0
 20
0.0
 30
0.0
  3
$MODEL_SPACE
  1

  0
ENDBLK
  5
20
  8
0
  0
BLOCK
 67
     1
  8
0
  2
$PAPER_SPACE
 70
     0
 10
0.0
 20
0.0
 30
0.0
  3
$PAPER_SPACE
  1

  0
ENDBLK
  5
1C
 67
     1
  8
0
  0
BLOCK
  8
0
  2
DOT1
 70
     0
 10
0.0
 20
0.0
 30
0.0
  3
DOT1
  1

  0
CIRCLE
  5
36
  8
SIZE
  6
CONTINUOUS
 62
     7
 10
0.0
 20
0.0
 30
0.0
 40
3.0
  0
ENDBLK
  5
37
  8
0
  0
BLOCK
  8
0
  2
_ORIGIN
 70
     0
 10
0.0
 20
0.0
 30
0.0
  3
_ORIGIN
  1

  0
CIRCLE
  5
3A
  8
0
  6
CONTINUOUS
 62
     7
 10
0.0
 20
0.0
 30
0.0
 40
0.5
  0
LINE
  5
3B
  8
0
  6
CONTINUOUS
 62
     7
 10
0.0
 20
0.0
 30
0.0
 11
-1.0
 21
0.0
 31
0.0
  0
ENDBLK
  5
3C
  8
0
  0
BLOCK
  8
0
  2
A$C465C2775
 70
     0
 10
0.0
 20
0.0
 30
0.0
  3
A$C465C2775
  1

  0
TEXT
  5
10D
  8
ETC
  6
CONTINUOUS
 62
    61
 10
-0.0000014324359654
 20
181.8072562240718
 30
0.0
 40
50.0
  1
VL-12K2-BE-D
 41
0.9
  0
TEXT
  5
10E
  8
ETC
  6
CONTINUOUS
 62
    61
 10
-0.0000014324359654
 20
274.0283252240718
 30
0.0
 40
50.0
  1
VL-12K2-D
 41
0.9
  0
TEXT
  5
10F
  8
ETC
  6
CONTINUOUS
 62
    61
 10
-0.0000014324359654
 20
89.58618622407187
 30
0.0
 40
50.0
  1
VL-12K2
 41
0.9
  0
TEXT
  5
110
  8
ETC
  6
CONTINUOUS
 62
    61
 10
-0.0000014324359654
 20
0.0000002240718544
 30
0.0
 40
50.0
  1
VL-12K2-BE
 41
0.9
  0
ENDBLK
  5
112
  8
0
 62
    30
  0
ENDSEC
  0
SECTION
  2
ENTITIES
  0
ARC
  5
3D
  8
DETAIL
  6
CONTINUOUS
 62
     5
 10
271.0
 20
137.621766
 30
0.0
 40
3.0
 50
0.0
 51
89.0000000000004
  0
LINE
  5
3E
  8
DETAIL
  6
CONTINUOUS
 62
     5
 10
272.342408
 20
-135.6502429999999
 30
0.0
 11
264.5
 21
-138.263682
 31
0.0
  0
LINE
  5
3F
  8
DETAIL
  6
CONTINUOUS
 62
     5
 10
274.0
 20
-25.92999999999998
 30
0.0
 11
274.0
 21
137.621766
 31
0.0
  0
LINE
  5
40
  8
DETAIL
  6
CONTINUOUS
 62
     5
 10
264.5
 20
-140.621309
 30
0.0
 11
264.5
 21
-138.263682
 31
0.0
  0
LINE
  5
41
  8
DETAIL
  6
CONTINUOUS
 62
     5
 10
257.5
 20
-140.621309
 30
0.0
 11
257.5
 21
-142.4093179999999
 31
0.0
  0
LINE
  5
42
  8
DETAIL
  6
CONTINUOUS
 62
     5
 10
255.5
 20
-142.4093179999999
 30
0.0
 11
255.5
 21
-143.963083
 31
0.0
  0
LINE
  5
43
  8
DETAIL
  6
CONTINUOUS
 62
     5
 10
274.0
 20
-135.621309
 30
0.0
 11
276.0
 21
-135.621309
 31
0.0
  0
LINE
  5
44
  8
DETAIL
  6
CONTINUOUS
 62
     5
 10
257.5
 20
-142.4093179999999
 30
0.0
 11
255.5
 21
-142.4093179999999
 31
0.0
  0
LINE
  5
45
  8
DETAIL
  6
CONTINUOUS
 62
     5
 10
274.0
 20
-135.621309
 30
0.0
 11
272.342408
 21
-135.6502429999999
 31
0.0
  0
ARC
  5
46
  8
DETAIL
  6
CONTINUOUS
 62
     5
 10
5.041366000000053
 20
-118.0
 30
0.0
 40
1.0
 50
0.0
 51
90.0
  0
ARC
  5
47
  8
DETAIL
  6
CONTINUOUS
 62
     5
 10
5.041366000000053
 20
-132.0
 30
0.0
 40
1.0
 50
270.0
 51
0.0
  0
LINE
  5
48
  8
DETAIL
  6
CONTINUOUS
 62
     5
 10
6.041366000000039
 20
-132.0
 30
0.0
 11
6.041366000000039
 21
-118.0
 31
0.0
  0
LINE
  5
49
  8
DETAIL
  6
CONTINUOUS
 62
     5
 10
274.0
 20
-25.92999999999998
 30
0.0
 11
275.0
 21
-25.92999999999998
 31
0.0
  0
ARC
  5
4A
  8
DETAIL
  6
CONTINUOUS
 62
     5
 10
275.0
 20
-26.92999999999998
 30
0.0
 40
1.0
 50
0.0
 51
90.0
  0
LINE
  5
4B
  8
DETAIL
  6
CONTINUOUS
 62
     5
 10
276.0
 20
-135.621309
 30
0.0
 11
276.0
 21
-26.92999999999998
 31
0.0
  0
LINE
  5
4C
  8
DETAIL
  6
CONTINUOUS
 62
     5
 10
2.042242999999985
 20
-116.9999999999999
 30
0.0
 11
5.041366000000053
 21
-116.9999999999999
 31
0.0
  0
LINE
  5
4D
  8
DETAIL
  6
CONTINUOUS
 62
     5
 10
2.321523999999954
 20
-133.0
 30
0.0
 11
5.041366000000053
 21
-133.0
 31
0.0
  0
LINE
  5
4E
  8
DETAIL
  6
CONTINUOUS
 62
     5
 10
232.327864
 20
-58.046425
 30
0.0
 11
274.0
 21
-8.38350699999998
 31
0.0
  0
LINE
  5
4F
  8
DETAIL
  6
CONTINUOUS
 62
     5
 10
242.3278639999999
 20
-144.174149
 30
0.0
 11
242.3278639999999
 21
-46.12888899999999
 31
0.0
  0
LINE
  5
50
  8
DETAIL
  6
CONTINUOUS
 62
     5
 10
232.327864
 20
-144.348699
 30
0.0
 11
232.327864
 21
-58.046425
 31
0.0
  0
LINE
  5
51
  8
DETAIL
  6
CONTINUOUS
 62
     5
 10
264.5
 20
4.298543000000024
 30
0.0
 11
274.0
 21
4.298543000000024
 31
0.0
  0
LINE
  5
52
  8
DETAIL
  6
CONTINUOUS
 62
     5
 10
264.5
 20
4.298543000000024
 30
0.0
 11
264.5
 21
143.787132
 31
0.0
  0
LINE
  5
53
  8
BASIS
  6
DASHDOT
 62
     6
 10
322.548229
 20
0.0
 30
0.0
 11
-54.874822
 21
0.0
 31
0.0
  0
ARC
  5
54
  8
DETAIL
  6
CONTINUOUS
 62
     5
 10
277.938047
 20
-70.56339899999998
 30
0.0
 40
299.984786
 50
191.3482719999999
 51
198.686354
  0
ARC
  5
55
  8
DETAIL
  6
CONTINUOUS
 62
     5
 10
277.9472819999999
 20
-70.53210299999998
 30
0.0
 40
300.0
 50
183.3474389999999
 51
184.9427409999998
  0
LINE
  5
56
  8
DETAIL
  6
CONTINUOUS
 62
     5
 10
3.019725999999991
 20
-172.9999999999999
 30
0.0
 11
2.984351999999944
 21
-170.9733959999999
 31
0.0
  0
LINE
  5
57
  8
DETAIL
  6
CONTINUOUS
 62
     5
 10
-14.74752599999999
 20
-128.9770889999999
 30
0.0
 11
-15.70031600000004
 21
-128.99372
 31
0.0
  0
ARC
  5
58
  8
DETAIL
  6
CONTINUOUS
 62
     5
 10
-15.69158900000002
 20
-129.493644
 30
0.0
 40
0.5
 50
91.00000000000014
 51
191.3537849999979
  0
ARC
  5
59
  8
DETAIL
  6
CONTINUOUS
 62
     5
 10
-19.31788400000005
 20
-102.694519
 30
0.0
 40
1.0
 50
186.1750600000003
 51
246.6479519999999
  0
ARC
  5
5A
  8
DETAIL
  6
CONTINUOUS
 62
     5
 10
277.9472819999999
 20
-70.53210299999998
 30
0.0
 40
300.0
 50
184.9427409999998
 51
186.17506
  0
LINE
  5
5B
  8
DETAIL
  6
CONTINUOUS
 62
     5
 10
-14.74752599999999
 20
-128.9770889999999
 30
0.0
 11
-14.24760200000003
 21
-128.9683629999999
 31
0.0
  0
LINE
  5
5C
  8
DETAIL
  6
CONTINUOUS
 62
     5
 10
-19.71426399999996
 20
-103.612606
 30
0.0
 11
-14.65203799999995
 21
-105.798198
 31
0.0
  0
LINE
  5
5D
  8
DETAIL
  6
CONTINUOUS
 62
     5
 10
-14.24760200000003
 20
-128.9683629999999
 30
0.0
 11
-14.65203799999995
 21
-105.798198
 31
0.0
  0
ARC
  5
5E
  8
DETAIL
  6
CONTINUOUS
 62
     5
 10
275.316431
 20
80.18922599999999
 30
0.0
 40
300.0
 50
163.40801
 51
167.7759489999999
  0
ARC
  5
5F
  8
DETAIL
  6
CONTINUOUS
 62
     5
 10
275.316431
 20
80.18922599999999
 30
0.0
 40
300.0
 50
167.7759489999999
 51
178.2651829999999
  0
ARC
  5
60
  8
DETAIL
  6
CONTINUOUS
 62
     5
 10
-2.638103000000001
 20
-78.05793
 30
0.0
 40
2.0
 50
91.00000000000016
 51
180.9999999999999
  0
LINE
  5
61
  8
DETAIL
  6
CONTINUOUS
 62
     5
 10
0.3265350000000211
 20
-76.005877
 30
0.0
 11
-1.950514999999996
 21
-76.04562299999989
 31
0.0
  0
LINE
  5
62
  8
DETAIL
  6
CONTINUOUS
 62
     5
 10
-1.950514999999996
 20
-76.04562299999989
 30
0.0
 11
-2.673007999999982
 21
-76.058234
 31
0.0
  0
LINE
  5
63
  8
DETAIL
  6
CONTINUOUS
 62
     5
 10
2.984351999999944
 20
-170.9733959999999
 30
0.0
 11
1.727788000000032
 21
-98.9849219999999
 31
0.0
  0
ARC
  5
64
  8
DETAIL
  6
CONTINUOUS
 62
     5
 10
0.7279409999999871
 20
-99.002374
 30
0.0
 40
1.0
 50
0.9999999999999003
 51
91.00000000000014
  0
LINE
  5
65
  8
DETAIL
  6
CONTINUOUS
 62
     5
 10
0.7104879999999412
 20
-98.00252699999999
 30
0.0
 11
-1.950749999999971
 21
-98.048979
 31
0.0
  0
ARC
  5
66
  8
DETAIL
  6
CONTINUOUS
 62
     5
 10
-2.323959999999943
 20
-96.05518799999999
 30
0.0
 40
2.0
 50
180.9999999999999
 51
280.754715
  0
LINE
  5
67
  8
DETAIL
  6
CONTINUOUS
 62
     5
 10
-4.323655000000031
 20
-96.090093
 30
0.0
 11
-4.637797999999975
 21
-78.0928349999999
 31
0.0
  0
LINE
  5
68
  8
DETAIL
  6
CONTINUOUS
 62
     5
 10
1.308930000000032
 20
-74.98857699999999
 30
0.0
 11
-3.019725999999991
 21
173.0
 31
0.0
  0
ARC
  5
69
  8
DETAIL
  6
CONTINUOUS
 62
     5
 10
0.3090829999999869
 20
-75.00602999999998
 30
0.0
 40
1.0
 50
271.0000000000002
 51
0.9999999999999003
  0
LINE
  5
6A
  8
NOTE
  6
CONTINUOUS
 62
     4
 10
352.480657
 20
232.49588
 30
0.0
 11
99.37021899999999
 21
232.49588
 31
0.0
  0
TEXT
  5
6B
  8
NOTE
  6
CONTINUOUS
 62
     4
 10
105.531062
 20
259.0130169999999
 30
0.0
 40
64.0
  1
4-φ5
 41
0.9
  0
LINE
  5
6C
  8
DETAIL
  6
CONTINUOUS
 62
     5
 10
264.5
 20
-140.621309
 30
0.0
 11
257.5
 21
-140.621309
 31
0.0
  0
ARC
  5
6D
  8
DETAIL
  6
CONTINUOUS
 62
     5
 10
-2.616411999999968
 20
163.021731
 30
0.0
 40
9.986417
 50
92.31459500000003
 51
163.514855
  0
ARC
  5
6E
  8
DETAIL
  6
CONTINUOUS
 62
     5
 10
2.985550999999973
 20
-163.119055
 30
0.0
 40
9.881003999999999
 50
201.0910159999998
 51
270.1981699999999
  0
ARC
  5
6F
  8
DETAIL
  6
CONTINUOUS
 62
     5
 10
1974.702959
 20
34.46850300000001
 30
0.0
 40
2000.0
 50
178.4298179999999
 51
183.5120749999999
  0
CIRCLE
  5
70
  8
ARRANGE
  6
CONTINUOUS
 62
     1
 39
50.0
 10
0.0
 20
0.0
 30
0.0
 40
40.0
  0
POINT
  5
71
  8
ARRANGE
  6
CONTINUOUS
 62
     1
 39
50.0
 10
0.0
 20
0.0
 30
0.0
  0
CIRCLE
  5
72
  8
FIX
  6
CONTINUOUS
 62
    11
 39
50.0
 10
-2.792810000000031
 20
160.0
 30
0.0
 40
2.5
  0
LINE
  5
73
  8
NOTE
  6
CONTINUOUS
 62
     4
 10
-2.792810000000031
 20
140.0
 30
0.0
 11
-2.792810000000031
 21
180.0
 31
0.0
  0
LINE
  5
74
  8
NOTE
  6
CONTINUOUS
 62
     4
 10
-22.79281000000003
 20
160.0
 30
0.0
 11
17.20718999999998
 21
160.0
 31
0.0
  0
LINE
  5
75
  8
NOTE
  6
CONTINUOUS
 62
     4
 10
2.792810000000031
 20
-180.0
 30
0.0
 11
2.792810000000031
 21
-140.0
 31
0.0
  0
LINE
  5
76
  8
NOTE
  6
CONTINUOUS
 62
     4
 10
-17.20718999999997
 20
-160.0
 30
0.0
 11
22.79281000000003
 21
-160.0
 31
0.0
  0
CIRCLE
  5
77
  8
FIX
  6
CONTINUOUS
 62
    11
 39
50.0
 10
2.792810000000031
 20
-160.0
 30
0.0
 40
2.5
  0
LINE
  5
78
  8
DETAIL
  6
CONTINUOUS
 62
     5
 10
271.0523569999999
 20
140.621309
 30
0.0
 11
264.5
 21
140.621309
 31
0.0
  0
LINE
  5
79
  8
DETAIL
  6
CONTINUOUS
 62
     5
 10
264.5
 20
143.787132
 30
0.0
 11
-2.600805000000037
 21
149.0
 31
0.0
  0
LINE
  5
7A
  8
DETAIL
  6
CONTINUOUS
 62
     5
 10
255.5
 20
-143.963083
 30
0.0
 11
2.600805000000037
 21
-149.0
 31
0.0
  0
LINE
  5
7B
  8
SIZE
  6
CONTINUOUS
 62
    30
 10
17.39919499999996
 20
149.0
 30
0.0
 11
474.5521940000001
 21
149.0
 31
0.0
  0
LINE
  5
7C
  8
SIZE
  6
CONTINUOUS
 62
    30
 10
22.60080500000005
 20
-149.0
 30
0.0
 11
474.5521940000001
 21
-149.0
 31
0.0
  0
LINE
  5
7D
  8
SIZE
  6
CONTINUOUS
 62
    30
 10
454.5521940000001
 20
137.0
 30
0.0
 11
454.5521940000001
 21
-137.0
 31
0.0
  0
CIRCLE
  5
7E
  8
SIZE
  6
CONTINUOUS
 62
    30
 10
454.5521940000001
 20
149.0
 30
0.0
 40
6.0
  0
LINE
  5
7F
  8
SIZE
  6
CONTINUOUS
 62
    30
 10
454.5521940000001
 20
149.0
 30
0.0
 11
454.5521940000001
 21
137.0
 31
0.0
  0
CIRCLE
  5
80
  8
SIZE
  6
CONTINUOUS
 62
    30
 10
454.5521940000001
 20
-149.0
 30
0.0
 40
6.0
  0
LINE
  5
81
  8
SIZE
  6
CONTINUOUS
 62
    30
 10
454.5521940000001
 20
-149.0
 30
0.0
 11
454.5521940000001
 21
-137.0
 31
0.0
  0
TEXT
  5
82
  8
SIZE
  6
CONTINUOUS
 62
    30
 10
429.552194
 20
-82.28571428571429
 30
0.0
 40
64.0
  1
298
 50
90.0
 41
0.9
 72
     1
 11
429.552194
 21
0.0
 31
0.0
  0
LINE
  5
86
  8
SIZE
  6
CONTINUOUS
 62
    30
 10
37.20718999999988
 20
160.0
 30
0.0
 11
603.515867
 21
160.0
 31
0.0
  0
LINE
  5
87
  8
SIZE
  6
CONTINUOUS
 62
    30
 10
42.79280999999997
 20
-160.0
 30
0.0
 11
603.515867
 21
-160.0
 31
0.0
  0
LINE
  5
88
  8
SIZE
  6
CONTINUOUS
 62
    30
 10
583.515867
 20
148.0
 30
0.0
 11
583.515867
 21
-147.9999999999999
 31
0.0
  0
CIRCLE
  5
89
  8
SIZE
  6
CONTINUOUS
 62
    30
 10
583.515867
 20
160.0
 30
0.0
 40
6.0
  0
LINE
  5
8A
  8
SIZE
  6
CONTINUOUS
 62
    30
 10
583.515867
 20
160.0
 30
0.0
 11
583.515867
 21
148.0
 31
0.0
  0
CIRCLE
  5
8B
  8
SIZE
  6
CONTINUOUS
 62
    30
 10
583.515867
 20
-160.0
 30
0.0
 40
6.0
  0
LINE
  5
8C
  8
SIZE
  6
CONTINUOUS
 62
    30
 10
583.515867
 20
-160.0
 30
0.0
 11
583.515867
 21
-147.9999999999999
 31
0.0
  0
TEXT
  5
8D
  8
SIZE
  6
CONTINUOUS
 62
    30
 10
558.515867
 20
-82.28571428571429
 30
0.0
 40
64.0
  1
320
 50
90.0
 41
0.9
 72
     1
 11
558.515867
 21
0.0
 31
0.0
  0
LINE
  5
91
  8
SIZE
  6
CONTINUOUS
 62
    30
 10
276.0
 20
-155.621309
 30
0.0
 11
276.0
 21
-403.6666589999999
 31
0.0
  0
LINE
  5
92
  8
SIZE
  6
CONTINUOUS
 62
    30
 10
0.0
 20
-20.0
 30
0.0
 11
0.0
 21
-403.6666589999999
 31
0.0
  0
LINE
  5
93
  8
SIZE
  6
CONTINUOUS
 62
    30
 10
264.0
 20
-383.6666589999999
 30
0.0
 11
12.0
 21
-383.6666589999999
 31
0.0
  0
CIRCLE
  5
94
  8
SIZE
  6
CONTINUOUS
 62
    30
 10
276.0
 20
-383.6666589999999
 30
0.0
 40
6.0
  0
LINE
  5
95
  8
SIZE
  6
CONTINUOUS
 62
    30
 10
276.0
 20
-383.6666589999999
 30
0.0
 11
264.0
 21
-383.6666589999999
 31
0.0
  0
CIRCLE
  5
96
  8
SIZE
  6
CONTINUOUS
 62
    30
 10
0.0
 20
-383.6666589999999
 30
0.0
 40
6.0
  0
LINE
  5
97
  8
SIZE
  6
CONTINUOUS
 62
    30
 10
0.0
 20
-383.6666589999999
 30
0.0
 11
12.0
 21
-383.6666589999999
 31
0.0
  0
TEXT
  5
98
  8
SIZE
  6
CONTINUOUS
 62
    30
 10
55.71428571428568
 20
-358.6666589999999
 30
0.0
 40
64.0
  1
276
 41
0.9
 72
     1
 11
138.0
 21
-358.6666589999999
 31
0.0
  0
LINE
  5
9C
  8
SIZE
  6
CONTINUOUS
 62
    30
 10
0.0
 20
-20.0
 30
0.0
 11
0.0
 21
-403.6666589999999
 31
0.0
  0
LINE
  5
9D
  8
SIZE
  6
CONTINUOUS
 62
    30
 10
-25.0
 20
-20.0
 30
0.0
 11
-25.0
 21
-403.6666589999999
 31
0.0
  0
LINE
  5
9E
  8
SIZE
  6
CONTINUOUS
 62
    30
 10
12.0
 20
-383.6666589999999
 30
0.0
 11
23.99999999999997
 21
-383.6666589999999
 31
0.0
  0
LINE
  5
9F
  8
SIZE
  6
CONTINUOUS
 62
    30
 10
-37.0
 20
-383.6666589999999
 30
0.0
 11
-49.0
 21
-383.6666589999999
 31
0.0
  0
LINE
  5
A0
  8
SIZE
  6
CONTINUOUS
 62
    30
 10
-196.2931889999999
 20
-383.6666589999999
 30
0.0
 11
-25.0
 21
-383.6666589999999
 31
0.0
  0
TEXT
  5
A1
  8
SIZE
  6
CONTINUOUS
 62
    30
 10
-179.5217598571429
 20
-358.6666589999999
 30
0.0
 40
64.0
  1
25
 41
0.9
 72
     1
 11
-124.664617
 21
-358.6666589999999
 31
0.0
  0
LINE
  5
A2
  8
SIZE
  6
CONTINUOUS
 62
    30
 10
0.0
 20
-383.6666589999999
 30
0.0
 11
-25.0
 21
-383.6666589999999
 31
0.0
  0
LINE
  5
A3
  8
SIZE
  6
CONTINUOUS
 62
    30
 10
0.0
 20
-383.6666589999999
 30
0.0
 11
-25.0
 21
-383.6666589999999
 31
0.0
  0
CIRCLE
  5
A4
  8
SIZE
  6
CONTINUOUS
 62
    30
 10
0.0
 20
-383.6666589999999
 30
0.0
 40
6.0
  0
LINE
  5
A5
  8
SIZE
  6
CONTINUOUS
 62
    30
 10
0.0
 20
-383.6666589999999
 30
0.0
 11
12.0
 21
-383.6666589999999
 31
0.0
  0
CIRCLE
  5
A6
  8
SIZE
  6
CONTINUOUS
 62
    30
 10
-25.0
 20
-383.6666589999999
 30
0.0
 40
6.0
  0
LINE
  5
A7
  8
SIZE
  6
CONTINUOUS
 62
    30
 10
-25.0
 20
-383.6666589999999
 30
0.0
 11
-37.0
 21
-383.6666589999999
 31
0.0
  0
LINE
  5
AB
  8
NOTE
  6
CONTINUOUS
 62
     4
 10
-2.792810000000031
 20
160.0
 30
0.0
 11
99.37021899999999
 21
232.49588
 31
0.0
  0
LINE
  5
AC
  8
NOTE
  6
CONTINUOUS
 62
     4
 10
22.24727800000005
 20
191.192852
 30
0.0
 11
-2.792810000000031
 21
160.0
 31
0.0
  0
LINE
  5
AD
  8
NOTE
  6
CONTINUOUS
 62
     4
 10
-2.792810000000031
 20
160.0
 30
0.0
 11
34.48896799999997
 21
174.493758
 31
0.0
  0
LINE
  5
AE
  8
OUTLINE
  6
CONTINUOUS
 62
     3
 10
255.5
 20
-143.963083
 30
0.0
 11
2.600805000000037
 21
-149.0
 31
0.0
  0
LINE
  5
AF
  8
OUTLINE
  6
CONTINUOUS
 62
     3
 10
264.5
 20
143.787132
 30
0.0
 11
-2.600805000000037
 21
149.0
 31
0.0
  0
LINE
  5
B0
  8
OUTLINE
  6
CONTINUOUS
 62
     3
 10
1.308930000000032
 20
-74.98857699999999
 30
0.0
 11
-3.019725999999991
 21
173.0
 31
0.0
  0
LINE
  5
B1
  8
OUTLINE
  6
CONTINUOUS
 62
     3
 10
2.984351999999944
 20
-170.9733959999999
 30
0.0
 11
1.727788000000032
 21
-98.9849219999999
 31
0.0
  0
LINE
  5
B2
  8
OUTLINE
  6
CONTINUOUS
 62
     3
 10
3.019725999999991
 20
-172.9999999999999
 30
0.0
 11
2.984351999999944
 21
-170.9733959999999
 31
0.0
  0
LINE
  5
B3
  8
OUTLINE
  6
CONTINUOUS
 62
     3
 10
-4.323655000000031
 20
-96.090093
 30
0.0
 11
-4.637797999999975
 21
-78.0928349999999
 31
0.0
  0
ARC
  5
B4
  8
OUTLINE
  6
CONTINUOUS
 62
     3
 10
-2.323959999999943
 20
-96.05518799999999
 30
0.0
 40
2.0
 50
180.9999999999999
 51
280.754715
  0
LINE
  5
B5
  8
OUTLINE
  6
CONTINUOUS
 62
     3
 10
0.7104879999999412
 20
-98.00252699999999
 30
0.0
 11
-1.950749999999971
 21
-98.048979
 31
0.0
  0
ARC
  5
B6
  8
OUTLINE
  6
CONTINUOUS
 62
     3
 10
0.7279409999999871
 20
-99.002374
 30
0.0
 40
1.0
 50
0.9999999999999003
 51
91.00000000000014
  0
ARC
  5
B7
  8
OUTLINE
  6
CONTINUOUS
 62
     3
 10
0.3090829999999869
 20
-75.00602999999998
 30
0.0
 40
1.0
 50
271.0000000000002
 51
0.9999999999999003
  0
LINE
  5
B8
  8
OUTLINE
  6
CONTINUOUS
 62
     3
 10
-1.950514999999996
 20
-76.04562299999989
 30
0.0
 11
-2.673007999999982
 21
-76.058234
 31
0.0
  0
LINE
  5
B9
  8
OUTLINE
  6
CONTINUOUS
 62
     3
 10
0.3265350000000211
 20
-76.005877
 30
0.0
 11
-1.950514999999996
 21
-76.04562299999989
 31
0.0
  0
ARC
  5
BA
  8
OUTLINE
  6
CONTINUOUS
 62
     3
 10
-2.638103000000001
 20
-78.05793
 30
0.0
 40
2.0
 50
91.00000000000016
 51
180.9999999999999
  0
LINE
  5
BB
  8
OUTLINE
  6
CONTINUOUS
 62
     3
 10
274.0
 20
-25.92999999999998
 30
0.0
 11
274.0
 21
137.621766
 31
0.0
  0
LINE
  5
BC
  8
OUTLINE
  6
CONTINUOUS
 62
     3
 10
276.0
 20
-135.621309
 30
0.0
 11
276.0
 21
-26.92999999999998
 31
0.0
  0
LINE
  5
BD
  8
OUTLINE
  6
CONTINUOUS
 62
     3
 10
264.5
 20
-140.621309
 30
0.0
 11
257.5
 21
-140.621309
 31
0.0
  0
LINE
  5
BE
  8
OUTLINE
  6
CONTINUOUS
 62
     3
 10
274.0
 20
-135.621309
 30
0.0
 11
272.342408
 21
-135.6502429999999
 31
0.0
  0
LINE
  5
BF
  8
OUTLINE
  6
CONTINUOUS
 62
     3
 10
257.5
 20
-142.4093179999999
 30
0.0
 11
255.5
 21
-142.4093179999999
 31
0.0
  0
LINE
  5
C0
  8
OUTLINE
  6
CONTINUOUS
 62
     3
 10
274.0
 20
-135.621309
 30
0.0
 11
276.0
 21
-135.621309
 31
0.0
  0
LINE
  5
C1
  8
OUTLINE
  6
CONTINUOUS
 62
     3
 10
255.5
 20
-142.4093179999999
 30
0.0
 11
255.5
 21
-143.963083
 31
0.0
  0
LINE
  5
C2
  8
OUTLINE
  6
CONTINUOUS
 62
     3
 10
257.5
 20
-140.621309
 30
0.0
 11
257.5
 21
-142.4093179999999
 31
0.0
  0
LINE
  5
C3
  8
OUTLINE
  6
CONTINUOUS
 62
     3
 10
264.5
 20
-140.621309
 30
0.0
 11
264.5
 21
-138.263682
 31
0.0
  0
LINE
  5
C4
  8
OUTLINE
  6
CONTINUOUS
 62
     3
 10
272.342408
 20
-135.6502429999999
 30
0.0
 11
264.5
 21
-138.263682
 31
0.0
  0
ARC
  5
C5
  8
OUTLINE
  6
CONTINUOUS
 62
     3
 10
275.0
 20
-26.92999999999998
 30
0.0
 40
1.0
 50
0.0
 51
90.0
  0
LINE
  5
C6
  8
OUTLINE
  6
CONTINUOUS
 62
     3
 10
274.0
 20
-25.92999999999998
 30
0.0
 11
275.0
 21
-25.92999999999998
 31
0.0
  0
LINE
  5
C7
  8
OUTLINE
  6
CONTINUOUS
 62
     3
 10
264.5
 20
140.621309
 30
0.0
 11
264.5
 21
143.787132
 31
0.0
  0
LINE
  5
C8
  8
OUTLINE
  6
CONTINUOUS
 62
     3
 10
271.0523569999999
 20
140.621309
 30
0.0
 11
264.5
 21
140.621309
 31
0.0
  0
ARC
  5
C9
  8
OUTLINE
  6
CONTINUOUS
 62
     3
 10
271.0
 20
137.621766
 30
0.0
 40
3.0
 50
0.0
 51
89.0000000000004
  0
ARC
  5
CA
  8
DETAIL
  6
CONTINUOUS
 62
     5
 10
-6.233524999999986
 20
-232.712903
 30
0.0
 40
5.04
 50
6.417465000000271
 51
173.5825370000001
  0
LINE
  5
CB
  8
DETAIL
  6
CONTINUOUS
 62
     5
 10
-11.27352499999995
 20
-253.8809029999999
 30
0.0
 11
-1.193525000000022
 21
-253.8809029999999
 31
0.0
  0
LINE
  5
CC
  8
DETAIL
  6
CONTINUOUS
 62
     5
 10
-5.225525000000061
 20
-227.672903
 30
0.0
 11
-5.225525000000061
 21
-213.9680349999999
 31
0.0
  0
LINE
  5
CD
  8
DETAIL
  6
CONTINUOUS
 62
     5
 10
-7.241525000000024
 20
-227.672903
 30
0.0
 11
-7.241525000000024
 21
-213.9680349999999
 31
0.0
  0
ARC
  5
CE
  8
DETAIL
  6
CONTINUOUS
 62
     5
 10
-6.737525000000005
 20
-213.0950649999999
 30
0.0
 40
1.008
 50
239.9999820000001
 51
299.9999820000006
  0
ARC
  5
CF
  8
DETAIL
  6
CONTINUOUS
 62
     5
 10
-5.729524999999967
 20
-214.840972
 30
0.0
 40
1.008
 50
59.99998200000014
 51
119.9999820000006
  0
ARC
  5
D0
  8
DETAIL
  6
CONTINUOUS
 62
     5
 10
-6.737525000000005
 20
-214.840972
 30
0.0
 40
1.008
 50
59.99998200000014
 51
119.9999820000006
  0
LINE
  5
D1
  8
DETAIL
  6
CONTINUOUS
 62
     5
 10
-13.79352500000005
 20
-251.8649029999999
 30
0.0
 11
1.326474999999959
 21
-251.8649029999999
 31
0.0
  0
LINE
  5
D2
  8
DETAIL
  6
CONTINUOUS
 62
     5
 10
-12.28152499999999
 20
-250.3529029999999
 30
0.0
 11
-0.1855249999999842
 21
-250.3529029999999
 31
0.0
  0
ARC
  5
D3
  8
DETAIL
  6
CONTINUOUS
 62
     5
 10
-11.27352499999995
 20
-251.8649029999999
 30
0.0
 40
2.016
 50
180.0000190144419
 51
270.0
  0
ARC
  5
D4
  8
DETAIL
  6
CONTINUOUS
 62
     5
 10
-1.193525000000022
 20
-251.8649029999999
 30
0.0
 40
2.016
 50
270.0
 51
359.9999279939232
  0
LINE
  5
D5
  8
DETAIL
  6
CONTINUOUS
 62
     5
 10
-11.24202500000001
 20
-232.149556
 30
0.0
 11
-13.33775900000001
 21
-250.783046
 31
0.0
  0
LINE
  5
D6
  8
DETAIL
  6
CONTINUOUS
 62
     5
 10
0.8709929999999986
 20
-250.7832419999999
 30
0.0
 11
-1.224987999999939
 21
-232.149579
 31
0.0
  0
ARC
  5
D7
  8
DETAIL
  6
CONTINUOUS
 62
     5
 10
-12.28152499999999
 20
-251.8649029999999
 30
0.0
 40
1.511999999999999
 50
90.0
 51
180.0000189952644
  0
ARC
  5
D8
  8
DETAIL
  6
CONTINUOUS
 62
     5
 10
-0.1855249999999842
 20
-251.8649029999999
 30
0.0
 40
1.511999999999999
 50
0.0
 51
90.0
  0
ARC
  5
D9
  8
DETAIL
  6
CONTINUOUS
 62
     5
 10
-6.233524999999986
 20
-232.712903
 30
0.0
 40
5.04
 50
6.417465000000271
 51
173.5825370000001
  0
LINE
  5
DA
  8
DETAIL
  6
CONTINUOUS
 62
     5
 10
-11.27352499999995
 20
-253.8809029999999
 30
0.0
 11
-1.193525000000022
 21
-253.8809029999999
 31
0.0
  0
LINE
  5
DB
  8
DETAIL
  6
CONTINUOUS
 62
     5
 10
-5.225525000000061
 20
-227.672903
 30
0.0
 11
-5.225525000000061
 21
-213.9680349999999
 31
0.0
  0
LINE
  5
DC
  8
DETAIL
  6
CONTINUOUS
 62
     5
 10
-7.241525000000024
 20
-227.672903
 30
0.0
 11
-7.241525000000024
 21
-213.9680349999999
 31
0.0
  0
ARC
  5
DD
  8
DETAIL
  6
CONTINUOUS
 62
     5
 10
-6.737525000000005
 20
-213.0950649999999
 30
0.0
 40
1.008
 50
239.9999820000001
 51
299.9999820000006
  0
ARC
  5
DE
  8
DETAIL
  6
CONTINUOUS
 62
     5
 10
-5.729524999999967
 20
-214.840972
 30
0.0
 40
1.008
 50
59.99998200000014
 51
119.9999820000006
  0
ARC
  5
DF
  8
DETAIL
  6
CONTINUOUS
 62
     5
 10
-6.737525000000005
 20
-214.840972
 30
0.0
 40
1.008
 50
59.99998200000014
 51
119.9999820000006
  0
LINE
  5
E0
  8
DETAIL
  6
CONTINUOUS
 62
     5
 10
-13.79352500000005
 20
-251.8649029999999
 30
0.0
 11
1.326474999999959
 21
-251.8649029999999
 31
0.0
  0
LINE
  5
E1
  8
DETAIL
  6
CONTINUOUS
 62
     5
 10
-12.28152499999999
 20
-250.3529029999999
 30
0.0
 11
-0.1855249999999842
 21
-250.3529029999999
 31
0.0
  0
ARC
  5
E2
  8
DETAIL
  6
CONTINUOUS
 62
     5
 10
-11.27352499999995
 20
-251.8649029999999
 30
0.0
 40
2.016
 50
180.0000190144419
 51
270.0
  0
ARC
  5
E3
  8
DETAIL
  6
CONTINUOUS
 62
     5
 10
-1.193525000000022
 20
-251.8649029999999
 30
0.0
 40
2.016
 50
270.0
 51
359.9999279939232
  0
LINE
  5
E4
  8
DETAIL
  6
CONTINUOUS
 62
     5
 10
-11.24202500000001
 20
-232.149556
 30
0.0
 11
-13.33775900000001
 21
-250.783046
 31
0.0
  0
LINE
  5
E5
  8
DETAIL
  6
CONTINUOUS
 62
     5
 10
0.8709929999999986
 20
-250.7832419999999
 30
0.0
 11
-1.224987999999939
 21
-232.149579
 31
0.0
  0
ARC
  5
E6
  8
DETAIL
  6
CONTINUOUS
 62
     5
 10
-12.28152499999999
 20
-251.8649029999999
 30
0.0
 40
1.511999999999999
 50
90.0
 51
180.0000189952644
  0
ARC
  5
E7
  8
DETAIL
  6
CONTINUOUS
 62
     5
 10
-0.1855249999999842
 20
-251.8649029999999
 30
0.0
 40
1.511999999999999
 50
0.0
 51
90.0
  0
LINE
  5
E8
  8
DETAIL
  6
CONTINUOUS
 62
     5
 10
-5.225525000000061
 20
-168.615643
 30
0.0
 11
-5.225525000000061
 21
-198.4770939999999
 31
0.0
  0
LINE
  5
E9
  8
DETAIL
  6
CONTINUOUS
 62
     5
 10
-7.241525000000024
 20
-163.641236
 30
0.0
 11
-7.241525000000024
 21
-198.4770939999999
 31
0.0
  0
ARC
  5
EA
  8
DETAIL
  6
CONTINUOUS
 62
     5
 10
-5.729524999999967
 20
-193.022905
 30
0.0
 40
1.008
 50
59.99998200000014
 51
119.9999820000006
  0
ARC
  5
EB
  8
DETAIL
  6
CONTINUOUS
 62
     5
 10
-6.737525000000005
 20
-191.276997
 30
0.0
 40
1.008
 50
239.9999820000001
 51
299.9999820000006
  0
ARC
  5
EC
  8
DETAIL
  6
CONTINUOUS
 62
     5
 10
-5.729524999999967
 20
-191.276998
 30
0.0
 40
1.008
 50
239.9999820000001
 51
299.9999820000006
  0
LINE
  5
ED
  8
DETAIL
  6
CONTINUOUS
 62
     5
 10
-7.241525000000024
 20
-170.8611369999999
 30
0.0
 11
-7.241525000000024
 21
-192.14992
 31
0.0
  0
LINE
  5
EE
  8
DETAIL
  6
CONTINUOUS
 62
     5
 10
-5.225525000000061
 20
-170.8611369999999
 30
0.0
 11
-5.225525000000061
 21
-192.14992
 31
0.0
  0
ARC
  5
EF
  8
DETAIL
  6
CONTINUOUS
 62
     5
 10
-5.729524999999967
 20
-193.022905
 30
0.0
 40
1.008
 50
59.99998200000014
 51
119.9999820000006
  0
ARC
  5
F0
  8
DETAIL
  6
CONTINUOUS
 62
     5
 10
-6.737525000000005
 20
-191.276997
 30
0.0
 40
1.008
 50
239.9999820000001
 51
299.9999820000006
  0
ARC
  5
F1
  8
DETAIL
  6
CONTINUOUS
 62
     5
 10
-5.729524999999967
 20
-191.276998
 30
0.0
 40
1.008
 50
239.9999820000001
 51
299.9999820000006
  0
LINE
  5
F2
  8
BASIS
  6
DASHDOT
 62
     6
 10
-6.233524999999986
 20
-163.895393
 30
0.0
 11
-6.233524999999986
 21
-265.0292889999999
 31
0.0
  0
LINE
  5
F3
  8
SIZE
  6
CONTINUOUS
 62
    30
 10
-23.01972599999999
 20
173.0
 30
0.0
 11
-201.2201449999999
 21
173.0
 31
0.0
  0
LINE
  5
F4
  8
SIZE
  6
CONTINUOUS
 62
    30
 10
-16.980274
 20
-172.9999999999999
 30
0.0
 11
-201.2201449999999
 21
-172.9999999999999
 31
0.0
  0
LINE
  5
F5
  8
SIZE
  6
CONTINUOUS
 62
    30
 10
-181.2201449999999
 20
161.0
 30
0.0
 11
-181.2201449999999
 21
-161.0
 31
0.0
  0
CIRCLE
  5
F6
  8
SIZE
  6
CONTINUOUS
 62
    30
 10
-181.2201449999999
 20
173.0
 30
0.0
 40
6.0
  0
LINE
  5
F7
  8
SIZE
  6
CONTINUOUS
 62
    30
 10
-181.2201449999999
 20
173.0
 30
0.0
 11
-181.2201449999999
 21
161.0
 31
0.0
  0
CIRCLE
  5
F8
  8
SIZE
  6
CONTINUOUS
 62
    30
 10
-181.2201449999999
 20
-172.9999999999999
 30
0.0
 40
6.0
  0
LINE
  5
F9
  8
SIZE
  6
CONTINUOUS
 62
    30
 10
-181.2201449999999
 20
-172.9999999999999
 30
0.0
 11
-181.2201449999999
 21
-161.0
 31
0.0
  0
TEXT
  5
FA
  8
SIZE
  6
CONTINUOUS
 62
    30
 10
-206.2201449999999
 20
-82.28571428571429
 30
0.0
 40
64.0
  1
346
 50
90.0
 41
0.9
 72
     1
 11
-206.2201449999999
 21
0.0
 31
0.0
  0
TEXT
  5
11D
  8
ETC
  6
CONTINUOUS
 62
    61
 10
906.922485196167
 20
164.8801810192775
 30
0.0
 40
50.0
  1
VL-12K2-D
 41
0.9
  0
TEXT
  5
11E
  8
ETC
  6
CONTINUOUS
 62
    61
 10
906.922485196167
 20
-109.1481439807224
 30
0.0
 40
50.0
  1
VL-12K2-BE
 41
0.9
  0
TEXT
  5
11F
  8
ETC
  6
CONTINUOUS
 62
    61
 10
906.922485196167
 20
72.65911201927753
 30
0.0
 40
50.0
  1
VL-12K2-BE-D
 41
0.9
  0
TEXT
  5
120
  8
ETC
  6
CONTINUOUS
 62
    61
 10
906.922485196167
 20
-19.56195798072238
 30
0.0
 40
50.0
  1
VL-12K2
 41
0.9
  0
TEXT
  5
121
  8
ETC
  6
CONTINUOUS
 62
    61
 10
794.1004984843905
 20
338.2185521078355
 30
0.0
 40
64.0
  1
VL-12K2-D_4
 41
0.9
  0
TEXT
  5
122
  8
ETC
  6
CONTINUOUS
 62
    61
 10
786.1847924843905
 20
235.6031001078355
 30
0.0
 40
64.0
  1
換気扇
 41
0.9
  0
ENDSEC
  0
EOF
