  0
SECTION
  2
HEADER
  9
$ACADVER
  1
AC1009
  9
$INSBASE
 10
0.0
 20
0.0
 30
0.0
  9
$EXTMIN
 10
-470.0624499999999
 20
-240.76991200000001
 30
0.0
  9
$EXTMAX
 10
1084.119167056931
 20
473.96290354520619
 30
50.0
  9
$LIMMIN
 10
-2970.0
 20
-2100.0
  9
$LIMMAX
 10
2970.0
 20
2100.0
  9
$ORTHOMODE
 70
     0
  9
$REGENMODE
 70
     0
  9
$FILLMODE
 70
     1
  9
$QTEXTMODE
 70
     0
  9
$MIRRTEXT
 70
     0
  9
$DRAGMODE
 70
     2
  9
$LTSCALE
 40
20.0
  9
$OSMODE
 70
   167
  9
$ATTMODE
 70
     1
  9
$TEXTSIZE
 40
64.0
  9
$TRACEWID
 40
0.05
  9
$TEXTSTYLE
  7
STANDARD
  9
$CLAYER
  8
SIZE
  9
$CELTYPE
  6
CONTINUOUS
  9
$CECOLOR
 62
    30
  9
$DIMSCALE
 40
1.0
  9
$DIMASZ
 40
12.0
  9
$DIMEXO
 40
20.0
  9
$DIMDLI
 40
200.0
  9
$DIMRND
 40
0.0
  9
$DIMDLE
 40
0.0
  9
$DIMEXE
 40
20.0
  9
$DIMTP
 40
0.0
  9
$DIMTM
 40
0.0
  9
$DIMTXT
 40
64.0
  9
$DIMCEN
 40
0.09
  9
$DIMTSZ
 40
0.0
  9
$DIMTOL
 70
     0
  9
$DIMLIM
 70
     0
  9
$DIMTIH
 70
     0
  9
$DIMTOH
 70
     0
  9
$DIMSE1
 70
     0
  9
$DIMSE2
 70
     0
  9
$DIMTAD
 70
     1
  9
$DIMZIN
 70
     8
  9
$DIMBLK
  1
DOT1
  9
$DIMASO
 70
     1
  9
$DIMSHO
 70
     0
  9
$DIMPOST
  1

  9
$DIMAPOST
  1

  9
$DIMALT
 70
     0
  9
$DIMALTD
 70
     2
  9
$DIMALTF
 40
25.399999999999999
  9
$DIMLFAC
 40
1.0
  9
$DIMTOFL
 70
     1
  9
$DIMTVP
 40
0.0
  9
$DIMTIX
 70
     1
  9
$DIMSOXD
 70
     0
  9
$DIMSAH
 70
     1
  9
$DIMBLK1
  1
ORIGIN
  9
$DIMBLK2
  1
ORIGIN
  9
$DIMSTYLE
  2
STANDARD
  9
$DIMCLRD
 70
     7
  9
$DIMCLRE
 70
     7
  9
$DIMCLRT
 70
     7
  9
$DIMTFAC
 40
1.0
  9
$DIMGAP
 40
25.0
  9
$LUNITS
 70
     2
  9
$LUPREC
 70
     4
  9
$SKETCHINC
 40
0.1
  9
$FILLETRAD
 40
4.0
  9
$AUNITS
 70
     1
  9
$AUPREC
 70
     3
  9
$MENU
  1
ACAD
  9
$ELEVATION
 40
0.0
  9
$PELEVATION
 40
0.0
  9
$THICKNESS
 40
50.0
  9
$LIMCHECK
 70
     0
  9
$BLIPMODE
 70
     0
  9
$CHAMFERA
 40
0.0
  9
$CHAMFERB
 40
0.0
  9
$SKPOLY
 70
     0
  9
$TDCREATE
 40
2453103.741191342
  9
$TDUPDATE
 40
2454153.5622274652
  9
$TDINDWG
 40
0.0552953241
  9
$TDUSRTIMER
 40
0.0552953241
  9
$USRTIMER
 70
     1
  9
$ANGBASE
 50
0.0
  9
$ANGDIR
 70
     0
  9
$PDMODE
 70
     3
  9
$PDSIZE
 40
-2.0
  9
$PLINEWID
 40
0.0
  9
$COORDS
 70
     0
  9
$SPLFRAME
 70
     0
  9
$SPLINETYPE
 70
     6
  9
$SPLINESEGS
 70
     8
  9
$ATTDIA
 70
     0
  9
$ATTREQ
 70
     1
  9
$HANDLING
 70
 22529
  9
$HANDSEED
  5
19B
  9
$SURFTAB1
 70
     6
  9
$SURFTAB2
 70
     6
  9
$SURFTYPE
 70
     6
  9
$SURFU
 70
     6
  9
$SURFV
 70
     6
  9
$UCSNAME
  2

  9
$UCSORG
 10
0.0
 20
0.0
 30
0.0
  9
$UCSXDIR
 10
1.0
 20
0.0
 30
0.0
  9
$UCSYDIR
 10
0.0
 20
1.0
 30
0.0
  9
$PUCSNAME
  2

  9
$PUCSORG
 10
0.0
 20
0.0
 30
0.0
  9
$PUCSXDIR
 10
1.0
 20
0.0
 30
0.0
  9
$PUCSYDIR
 10
0.0
 20
1.0
 30
0.0
  9
$USERI1
 70
     0
  9
$USERI2
 70
     0
  9
$USERI3
 70
     0
  9
$USERI4
 70
     0
  9
$USERI5
 70
     0
  9
$USERR1
 40
20.0
  9
$USERR2
 40
0.0
  9
$USERR3
 40
0.0
  9
$USERR4
 40
0.0
  9
$USERR5
 40
0.0
  9
$WORLDVIEW
 70
     1
  9
$SHADEDGE
 70
     3
  9
$SHADEDIF
 70
    70
  9
$TILEMODE
 70
     1
  9
$MAXACTVP
 70
    48
  9
$PLIMCHECK
 70
     0
  9
$PEXTMIN
 10
-1.0000000000000000E+020
 20
-1.0000000000000000E+020
 30
-1.0000000000000000E+020
  9
$PEXTMAX
 10
1.0000000000000000E+020
 20
1.0000000000000000E+020
 30
1.0000000000000000E+020
  9
$PLIMMIN
 10
0.0
 20
0.0
  9
$PLIMMAX
 10
12.0
 20
9.0
  9
$UNITMODE
 70
     0
  9
$VISRETAIN
 70
     0
  9
$PLINEGEN
 70
     0
  9
$PSLTSCALE
 70
     0
  0
ENDSEC
  0
SECTION
  2
TABLES
  0
TABLE
  2
VPORT
 70
     3
  0
VPORT
  2
*ACTIVE
 70
     0
 10
0.0
 20
0.0
 11
1.0
 21
1.0
 12
303.8999837978119
 22
35.728464000000258
 13
0.0
 23
0.0
 14
1.0
 24
1.0
 15
0.0
 25
0.0
 16
0.0
 26
0.0
 36
1.0
 17
0.0
 27
0.0
 37
0.0
 40
1006.7138439017669
 41
1.710526315789473
 42
50.0
 43
0.0
 44
0.0
 50
0.0
 51
0.0
 71
     0
 72
  1000
 73
     1
 74
     0
 75
     0
 76
     0
 77
     0
 78
     0
  0
ENDTAB
  0
TABLE
  2
LTYPE
 70
     2
  0
LTYPE
  2
CONTINUOUS
 70
     0
  3
実線
 72
    65
 73
     0
 40
0.0
  0
LTYPE
  2
DASHDOT
 70
     0
  3
____ _ ____ _ ____ _ ____ _ ____ _ ____ _ ____
 72
    65
 73
     4
 40
5.5
 49
4.0
 49
-0.6
 49
0.3
 49
-0.6
  0
ENDTAB
  0
TABLE
  2
LAYER
 70
    12
  0
LAYER
  2
0
 70
     0
 62
     7
  6
CONTINUOUS
  0
LAYER
  2
SIZE
 70
     0
 62
    30
  6
CONTINUOUS
  0
LAYER
  2
BASIS
 70
     0
 62
     6
  6
DASHDOT
  0
LAYER
  2
OUTLINE
 70
     0
 62
     3
  6
CONTINUOUS
  0
LAYER
  2
DETAIL
 70
     0
 62
     5
  6
CONTINUOUS
  0
LAYER
  2
ARRANGE
 70
     0
 62
     1
  6
CONTINUOUS
  0
LAYER
  2
DEFPOINTS
 70
     0
 62
     7
  6
CONTINUOUS
  0
LAYER
  2
ETC
 70
     0
 62
    61
  6
CONTINUOUS
  0
LAYER
  2
NOTE
 70
     0
 62
     4
  6
CONTINUOUS
  0
LAYER
  2
FIX
 70
     0
 62
    11
  6
CONTINUOUS
  0
LAYER
  2
SERVICESPACE
 70
     0
 62
     2
  6
DASHDOT
  0
LAYER
  2
SYMBOLLINE
 70
     0
 62
    15
  6
CONTINUOUS
  0
ENDTAB
  0
TABLE
  2
STYLE
 70
     1
  0
STYLE
  2
STANDARD
 70
     0
 40
64.0
 41
0.9
 50
0.0
 71
     0
 42
64.0
  3
SIMPLEX.shx
  4
BIGFONT.shx
  0
ENDTAB
  0
TABLE
  2
VIEW
 70
     1
  0
VIEW
  2
ALL
 70
     0
 40
4282.6198079999986
 10
0.0
 20
41.309903999999989
 41
5940.0
 11
0.0
 21
0.0
 31
1.0
 12
0.0
 22
0.0
 32
0.0
 42
50.0
 43
0.0
 44
0.0
 50
0.0
 71
     0
  0
ENDTAB
  0
TABLE
  2
UCS
 70
     0
  0
ENDTAB
  0
TABLE
  2
APPID
 70
     2
  0
APPID
  2
ACAD
 70
     0
  0
APPID
  2
AUTOCAD_POSTSCRIPT_FIGURE
 70
     0
  0
ENDTAB
  0
TABLE
  2
DIMSTYLE
 70
     1
  0
DIMSTYLE
  2
STANDARD
 70
     0
  3

  4

  5

  6

  7

 40
1.0
 41
0.18
 42
0.0625
 43
0.38
 44
0.18
 45
0.0
 46
0.0
 47
0.0
 48
0.0
140
0.18
141
0.09
142
0.0
143
25.399999999999999
144
1.0
145
0.0
146
1.0
147
0.09
 71
     0
 72
     0
 73
     1
 74
     1
 75
     0
 76
     0
 77
     0
 78
     0
170
     0
171
     2
172
     0
173
     0
174
     0
175
     0
176
     7
177
     7
178
     7
  0
ENDTAB
  0
ENDSEC
  0
SECTION
  2
BLOCKS
  0
BLOCK
  8
0
  2
$MODEL_SPACE
 70
     0
 10
0.0
 20
0.0
 30
0.0
  3
$MODEL_SPACE
  1

  0
ENDBLK
  5
20
  8
0
  0
BLOCK
 67
     1
  8
0
  2
$PAPER_SPACE
 70
     0
 10
0.0
 20
0.0
 30
0.0
  3
$PAPER_SPACE
  1

  0
ENDBLK
  5
1C
 67
     1
  8
0
  0
BLOCK
  8
0
  2
DOT1
 70
     0
 10
0.0
 20
0.0
 30
0.0
  3
DOT1
  1

  0
CIRCLE
  5
36
  8
SIZE
  6
CONTINUOUS
 62
     7
 10
0.0
 20
0.0
 30
0.0
 40
3.0
  0
ENDBLK
  5
37
  8
0
  0
BLOCK
  8
0
  2
_ORIGIN
 70
     0
 10
0.0
 20
0.0
 30
0.0
  3
_ORIGIN
  1

  0
CIRCLE
  5
3A
  8
0
  6
CONTINUOUS
 62
     7
 10
0.0
 20
0.0
 30
0.0
 40
0.5
  0
LINE
  5
3B
  8
0
  6
CONTINUOUS
 62
     7
 10
0.0
 20
0.0
 30
0.0
 11
-1.0
 21
0.0
 31
0.0
  0
ENDBLK
  5
3C
  8
0
  0
ENDSEC
  0
SECTION
  2
ENTITIES
  0
CIRCLE
  5
3D
  8
ARRANGE
  6
CONTINUOUS
 62
     1
 10
0.0
 20
0.0
 30
0.0
 40
40.0
  0
POINT
  5
3E
  8
ARRANGE
  6
CONTINUOUS
 62
     1
 10
0.0
 20
0.0
 30
0.0
  0
LINE
  5
3F
  8
BASIS
  6
DASHDOT
 62
     6
 10
0.0
 20
-240.76991200000001
 30
0.0
 11
0.0
 21
233.6541069999999
 31
0.0
  0
LINE
  5
40
  8
BASIS
  6
DASHDOT
 62
     6
 10
242.085543
 20
0.0
 30
0.0
 11
-252.138665
 21
0.0
 31
0.0
  0
LINE
  5
41
  8
DETAIL
  6
CONTINUOUS
 62
     5
 10
188.0
 20
-178.0
 30
0.0
 11
188.0
 21
178.0
 31
0.0
  0
LINE
  5
42
  8
DETAIL
  6
CONTINUOUS
 62
     5
 10
173.0
 20
-173.0
 30
0.0
 11
173.0
 21
173.0
 31
0.0
  0
LINE
  5
43
  8
DETAIL
  6
CONTINUOUS
 62
     5
 10
174.0
 20
-174.0
 30
0.0
 11
174.0
 21
174.0
 31
0.0
  0
LINE
  5
44
  8
DETAIL
  6
CONTINUOUS
 62
     5
 10
-188.0
 20
-178.0
 30
0.0
 11
-188.0
 21
178.0
 31
0.0
  0
LINE
  5
45
  8
DETAIL
  6
CONTINUOUS
 62
     5
 10
-173.0
 20
-173.0
 30
0.0
 11
-173.0
 21
173.0
 31
0.0
  0
LINE
  5
46
  8
DETAIL
  6
CONTINUOUS
 62
     5
 10
-174.0
 20
-174.0
 30
0.0
 11
-174.0
 21
174.0
 31
0.0
  0
LINE
  5
47
  8
SIZE
  6
CONTINUOUS
 62
    30
 10
-188.0
 20
198.0
 30
0.0
 11
-188.0
 21
400.151636
 31
0.0
  0
LINE
  5
48
  8
SIZE
  6
CONTINUOUS
 62
    30
 10
188.0
 20
198.0
 30
0.0
 11
188.0
 21
400.151636
 31
0.0
  0
LINE
  5
49
  8
SIZE
  6
CONTINUOUS
 62
    30
 10
-176.0
 20
380.15163599999988
 30
0.0
 11
176.0
 21
380.15163599999988
 31
0.0
  0
CIRCLE
  5
4A
  8
SIZE
  6
CONTINUOUS
 62
    30
 10
-188.0
 20
380.15163599999988
 30
0.0
 40
6.0
  0
LINE
  5
4B
  8
SIZE
  6
CONTINUOUS
 62
    30
 10
-188.0
 20
380.15163599999988
 30
0.0
 11
-176.0
 21
380.15163599999988
 31
0.0
  0
CIRCLE
  5
4C
  8
SIZE
  6
CONTINUOUS
 62
    30
 10
188.0
 20
380.15163599999988
 30
0.0
 40
6.0
  0
LINE
  5
4D
  8
SIZE
  6
CONTINUOUS
 62
    30
 10
188.0
 20
380.15163599999988
 30
0.0
 11
176.0
 21
380.15163599999988
 31
0.0
  0
TEXT
  5
4E
  8
SIZE
  6
CONTINUOUS
 62
    30
 10
-109.1657142857142
 20
405.15163599999988
 30
0.0
 40
64.0
  1
□376
 41
0.9
 72
     1
 11
0.0
 21
405.15163599999988
 31
0.0
  0
LINE
  5
52
  8
DETAIL
  6
CONTINUOUS
 62
     5
 10
-178.0
 20
-188.0
 30
0.0
 11
178.0
 21
-188.0
 31
0.0
  0
LINE
  5
53
  8
DETAIL
  6
CONTINUOUS
 62
     5
 10
173.0
 20
-173.0
 30
0.0
 11
-173.0
 21
-173.0
 31
0.0
  0
LINE
  5
54
  8
DETAIL
  6
CONTINUOUS
 62
     5
 10
174.0
 20
-174.0
 30
0.0
 11
-174.0
 21
-174.0
 31
0.0
  0
LINE
  5
55
  8
DETAIL
  6
CONTINUOUS
 62
     5
 10
0.0
 20
-174.0
 30
0.0
 11
-174.0
 21
-174.0
 31
0.0
  0
LINE
  5
56
  8
DETAIL
  6
CONTINUOUS
 62
     5
 10
0.0
 20
-173.0
 30
0.0
 11
-173.0
 21
-173.0
 31
0.0
  0
ARC
  5
57
  8
DETAIL
  6
CONTINUOUS
 62
     5
 10
-178.0
 20
-178.0
 30
0.0
 40
10.0
 50
180.0
 51
270.0
  0
LINE
  5
58
  8
DETAIL
  6
CONTINUOUS
 62
     5
 10
-173.0
 20
-173.0
 30
0.0
 11
-174.0
 21
-174.0
 31
0.0
  0
ARC
  5
59
  8
DETAIL
  6
CONTINUOUS
 62
     5
 10
178.0
 20
-178.0
 30
0.0
 40
10.0
 50
270.0
 51
0.0
  0
LINE
  5
5A
  8
DETAIL
  6
CONTINUOUS
 62
     5
 10
173.0
 20
-173.0
 30
0.0
 11
174.0
 21
-174.0
 31
0.0
  0
LINE
  5
5B
  8
DETAIL
  6
CONTINUOUS
 62
     5
 10
174.0
 20
174.0
 30
0.0
 11
-174.0
 21
174.0
 31
0.0
  0
LINE
  5
5C
  8
DETAIL
  6
CONTINUOUS
 62
     5
 10
173.0
 20
173.0
 30
0.0
 11
-173.0
 21
173.0
 31
0.0
  0
LINE
  5
5D
  8
DETAIL
  6
CONTINUOUS
 62
     5
 10
-178.0
 20
188.0
 30
0.0
 11
178.0
 21
188.0
 31
0.0
  0
ARC
  5
5E
  8
DETAIL
  6
CONTINUOUS
 62
     5
 10
-178.0
 20
178.0
 30
0.0
 40
10.0
 50
90.0
 51
180.0
  0
LINE
  5
5F
  8
DETAIL
  6
CONTINUOUS
 62
     5
 10
-173.0
 20
173.0
 30
0.0
 11
-174.0
 21
174.0
 31
0.0
  0
ARC
  5
60
  8
DETAIL
  6
CONTINUOUS
 62
     5
 10
178.0
 20
178.0
 30
0.0
 40
10.0
 50
0.0
 51
90.0
  0
LINE
  5
61
  8
DETAIL
  6
CONTINUOUS
 62
     5
 10
173.0
 20
173.0
 30
0.0
 11
174.0
 21
174.0
 31
0.0
  0
LINE
  5
62
  8
OUTLINE
  6
CONTINUOUS
 62
     3
 10
-178.0
 20
-188.0
 30
0.0
 11
178.0
 21
-188.0
 31
0.0
  0
LINE
  5
63
  8
OUTLINE
  6
CONTINUOUS
 62
     3
 10
-178.0
 20
188.0
 30
0.0
 11
178.0
 21
188.0
 31
0.0
  0
LINE
  5
64
  8
OUTLINE
  6
CONTINUOUS
 62
     3
 10
-188.0
 20
-178.0
 30
0.0
 11
-188.0
 21
178.0
 31
0.0
  0
ARC
  5
65
  8
OUTLINE
  6
CONTINUOUS
 62
     3
 10
-178.0
 20
-178.0
 30
0.0
 40
10.0
 50
180.0
 51
270.0
  0
ARC
  5
66
  8
OUTLINE
  6
CONTINUOUS
 62
     3
 10
-178.0
 20
178.0
 30
0.0
 40
10.0
 50
90.0
 51
180.0
  0
LINE
  5
67
  8
OUTLINE
  6
CONTINUOUS
 62
     3
 10
188.0
 20
-178.0
 30
0.0
 11
188.0
 21
178.0
 31
0.0
  0
ARC
  5
68
  8
OUTLINE
  6
CONTINUOUS
 62
     3
 10
178.0
 20
-178.0
 30
0.0
 40
10.0
 50
270.0
 51
0.0
  0
ARC
  5
69
  8
OUTLINE
  6
CONTINUOUS
 62
     3
 10
178.0
 20
178.0
 30
0.0
 40
10.0
 50
0.0
 51
90.0
  0
LINE
  5
A7
  8
SIZE
  6
CONTINUOUS
 62
    30
 10
-272.13866499999989
 20
0.0
 30
0.0
 11
-401.06245000000001
 21
0.0
 31
0.0
  0
LINE
  5
A8
  8
SIZE
  6
CONTINUOUS
 62
    30
 10
-228.0
 20
-125.0
 30
0.0
 11
-401.06245000000001
 21
-125.0
 31
0.0
  0
LINE
  5
A9
  8
SIZE
  6
CONTINUOUS
 62
    30
 10
-381.06245000000001
 20
12.0
 30
0.0
 11
-381.06245000000001
 21
24.0
 31
0.0
  0
LINE
  5
AA
  8
SIZE
  6
CONTINUOUS
 62
    30
 10
-381.06245000000001
 20
-137.0
 30
0.0
 11
-381.06245000000001
 21
-149.0
 31
0.0
  0
LINE
  5
AB
  8
SIZE
  6
CONTINUOUS
 62
    30
 10
-381.06245000000001
 20
0.0
 30
0.0
 11
-381.06245000000001
 21
-125.0
 31
0.0
  0
CIRCLE
  5
AC
  8
SIZE
  6
CONTINUOUS
 62
    30
 10
-381.06245000000001
 20
0.0
 30
0.0
 40
6.0
  0
LINE
  5
AD
  8
SIZE
  6
CONTINUOUS
 62
    30
 10
-381.06245000000001
 20
0.0
 30
0.0
 11
-381.06245000000001
 21
12.0
 31
0.0
  0
CIRCLE
  5
AE
  8
SIZE
  6
CONTINUOUS
 62
    30
 10
-381.06245000000001
 20
-125.0
 30
0.0
 40
6.0
  0
LINE
  5
AF
  8
SIZE
  6
CONTINUOUS
 62
    30
 10
-381.06245000000001
 20
-125.0
 30
0.0
 11
-381.06245000000001
 21
-137.0
 31
0.0
  0
TEXT
  5
B0
  8
SIZE
  6
CONTINUOUS
 62
    30
 10
-406.06245000000001
 20
-131.0714285714285
 30
0.0
 40
64.0
  1
125
 50
90.0
 41
0.9
 72
     1
 11
-406.06245000000001
 21
-62.5
 31
0.0
  0
TEXT
  5
B4
  8
NOTE
  6
CONTINUOUS
 62
     4
 39
50.0
 10
-379.99351699999988
 20
74.620306999999997
 30
0.0
 40
64.0
  1
EL
 41
0.9
  0
LINE
  5
B5
  8
NOTE
  6
CONTINUOUS
 62
     4
 39
50.0
 10
-287.94465999999989
 20
52.453307999999993
 30
0.0
 11
-390.47506900000002
 21
52.453307999999993
 31
0.0
  0
LINE
  5
B6
  8
NOTE
  6
CONTINUOUS
 62
     4
 39
50.0
 10
-188.0
 20
-125.0
 30
0.0
 11
-287.94465999999989
 21
52.453307999999993
 31
0.0
  0
LINE
  5
B7
  8
NOTE
  6
CONTINUOUS
 62
     4
 10
-216.56224800000001
 20
-96.996465000000001
 30
0.0
 11
-188.0
 21
-125.0
 31
0.0
  0
LINE
  5
B8
  8
NOTE
  6
CONTINUOUS
 62
     4
 10
-188.0
 20
-125.0
 30
0.0
 11
-198.73386499999989
 21
-86.467102999999994
 31
0.0
  0
LINE
  5
B9
  8
DETAIL
  6
CONTINUOUS
 62
     5
 10
-220.45653300000001
 20
-214.06155000000001
 30
0.0
 11
-220.45653300000001
 21
-136.28960000000001
 31
0.0
  0
LINE
  5
BA
  8
DETAIL
  6
CONTINUOUS
 62
     5
 10
-222.875733
 20
-214.06155000000001
 30
0.0
 11
-222.875733
 21
-136.28960000000001
 31
0.0
  0
LINE
  5
BB
  8
DETAIL
  6
CONTINUOUS
 62
     5
 10
-220.45653300000001
 20
-214.06155000000001
 30
0.0
 11
-220.45653300000001
 21
-136.28960000000001
 31
0.0
  0
LINE
  5
BC
  8
DETAIL
  6
CONTINUOUS
 62
     5
 10
-222.875733
 20
-214.06155000000001
 30
0.0
 11
-222.875733
 21
-136.28960000000001
 31
0.0
  0
ARC
  5
BD
  8
DETAIL
  6
CONTINUOUS
 62
     5
 10
-210.37653299999991
 20
-136.28960000000001
 30
0.0
 40
10.08
 50
90.0
 51
180.0
  0
ARC
  5
BE
  8
DETAIL
  6
CONTINUOUS
 62
     5
 10
-210.37653299999991
 20
-136.28960000000001
 30
0.0
 40
12.4992
 50
90.0
 51
180.0
  0
ARC
  5
BF
  8
DETAIL
  6
CONTINUOUS
 62
     5
 10
-210.37653299999991
 20
-136.28960000000001
 30
0.0
 40
10.08
 50
90.0
 51
180.0
  0
ARC
  5
C0
  8
DETAIL
  6
CONTINUOUS
 62
     5
 10
-210.37653299999991
 20
-136.28960000000001
 30
0.0
 40
12.4992
 50
90.0
 51
180.0
  0
ARC
  5
C1
  8
DETAIL
  6
CONTINUOUS
 62
     5
 10
-221.06133299999999
 20
-214.86795000000001
 30
0.0
 40
1.008
 50
53.130080999999997
 51
126.869944
  0
ARC
  5
C2
  8
DETAIL
  6
CONTINUOUS
 62
     5
 10
-221.06133299999999
 20
-213.2551489999999
 30
0.0
 40
1.008
 50
233.13009299999999
 51
306.86990800000001
  0
ARC
  5
C3
  8
DETAIL
  6
CONTINUOUS
 62
     5
 10
-222.27093300000001
 20
-214.86795000000001
 30
0.0
 40
1.008
 50
53.13009799999999
 51
126.869944
  0
ARC
  5
C4
  8
DETAIL
  6
CONTINUOUS
 62
     5
 10
-221.06133299999999
 20
-214.86795000000001
 30
0.0
 40
1.008
 50
53.130080999999997
 51
126.869944
  0
ARC
  5
C5
  8
DETAIL
  6
CONTINUOUS
 62
     5
 10
-221.06133299999999
 20
-213.2551489999999
 30
0.0
 40
1.008
 50
233.13009299999999
 51
306.86990800000001
  0
ARC
  5
C6
  8
DETAIL
  6
CONTINUOUS
 62
     5
 10
-222.27093300000001
 20
-214.86795000000001
 30
0.0
 40
1.008
 50
53.13009799999999
 51
126.869944
  0
LINE
  5
C7
  8
DETAIL
  6
CONTINUOUS
 62
     5
 10
-191.1468219999999
 20
-127.5199999999999
 30
0.0
 11
-188.0
 21
-127.5199999999999
 31
0.0
  0
LINE
  5
C8
  8
DETAIL
  6
CONTINUOUS
 62
     5
 10
-191.1468219999999
 20
-122.48
 30
0.0
 11
-188.0
 21
-122.48
 31
0.0
  0
LINE
  5
C9
  8
DETAIL
  6
CONTINUOUS
 62
     5
 10
-191.1468219999999
 20
-122.48
 30
0.0
 11
-191.1468219999999
 21
-127.5199999999999
 31
0.0
  0
LINE
  5
CA
  8
DETAIL
  6
CONTINUOUS
 62
     5
 10
-210.37653299999991
 20
-123.79040000000001
 30
0.0
 11
-191.1468219999999
 21
-123.79040000000001
 31
0.0
  0
LINE
  5
CB
  8
DETAIL
  6
CONTINUOUS
 62
     5
 10
-210.37653299999991
 20
-126.2095999999999
 30
0.0
 11
-191.1468219999999
 21
-126.2095999999999
 31
0.0
  0
LINE
  5
CC
  8
DETAIL
  6
CONTINUOUS
 62
     5
 10
-191.1468219999999
 20
-122.48
 30
0.0
 11
-191.1468219999999
 21
-127.5199999999999
 31
0.0
  0
LINE
  5
CD
  8
DETAIL
  6
CONTINUOUS
 62
     5
 10
-210.37653299999991
 20
-123.79040000000001
 30
0.0
 11
-191.1468219999999
 21
-123.79040000000001
 31
0.0
  0
LINE
  5
CE
  8
DETAIL
  6
CONTINUOUS
 62
     5
 10
-210.37653299999991
 20
-126.2095999999999
 30
0.0
 11
-191.1468219999999
 21
-126.2095999999999
 31
0.0
  0
LINE
  5
CF
  8
DETAIL
  6
CONTINUOUS
 62
     5
 10
-191.1468219999999
 20
-122.48
 30
0.0
 11
-188.0
 21
-122.48
 31
0.0
  0
LINE
  5
D0
  8
DETAIL
  6
CONTINUOUS
 62
     5
 10
-191.1468219999999
 20
-127.5199999999999
 30
0.0
 11
-188.0
 21
-127.5199999999999
 31
0.0
  0
LINE
  5
D1
  8
NOTE
  6
CONTINUOUS
 62
     4
 10
-188.0
 20
-145.0
 30
0.0
 11
-188.0
 21
-105.0
 31
0.0
  0
LINE
  5
D2
  8
NOTE
  6
CONTINUOUS
 62
     4
 10
-208.0
 20
-125.0
 30
0.0
 11
-168.0
 21
-125.0
 31
0.0
  0
TEXT
  5
DE
  8
ETC
  6
CONTINUOUS
 62
    61
 10
477.1040037855746
 20
230.2497866767516
 30
0.0
 40
50.0
  1
VL-12RKX2-D
 41
0.9
  0
TEXT
  5
DF
  8
ETC
  6
CONTINUOUS
 62
    61
 10
354.5191670569306
 20
409.96290354520607
 30
0.0
 40
64.0
  1
VL-12RKX2-D_2
 41
0.9
  0
TEXT
  5
E0
  8
ETC
  6
CONTINUOUS
 62
    61
 10
357.8674130569305
 20
307.34745154520601
 30
0.0
 40
64.0
  1
換気扇
 41
0.9
  0
ENDSEC
  0
EOF
