  0
SECTION
  2
HEADER
  9
$ACADVER
  1
AC1009
  9
$INSBASE
 10
0.0
 20
0.0
 30
0.0
  9
$EXTMIN
 10
-538.43320900000003
 20
-416.76870099999991
 30
0.0
  9
$EXTMAX
 10
1327.179511915017
 20
616.21937600000001
 30
50.0
  9
$LIMMIN
 10
-2970.0
 20
-2100.0
  9
$LIMMAX
 10
2970.0
 20
2100.0
  9
$ORTHOMODE
 70
     0
  9
$REGENMODE
 70
     0
  9
$FILLMODE
 70
     1
  9
$QTEXTMODE
 70
     0
  9
$MIRRTEXT
 70
     0
  9
$DRAGMODE
 70
     2
  9
$LTSCALE
 40
20.0
  9
$OSMODE
 70
   167
  9
$ATTMODE
 70
     1
  9
$TEXTSIZE
 40
64.0
  9
$TRACEWID
 40
0.05
  9
$TEXTSTYLE
  7
STANDARD
  9
$CLAYER
  8
BASIS
  9
$CELTYPE
  6
CONTINUOUS
  9
$CECOLOR
 62
    30
  9
$DIMSCALE
 40
1.0
  9
$DIMASZ
 40
12.0
  9
$DIMEXO
 40
20.0
  9
$DIMDLI
 40
200.0
  9
$DIMRND
 40
0.0
  9
$DIMDLE
 40
0.0
  9
$DIMEXE
 40
20.0
  9
$DIMTP
 40
0.0
  9
$DIMTM
 40
0.0
  9
$DIMTXT
 40
64.0
  9
$DIMCEN
 40
0.09
  9
$DIMTSZ
 40
0.0
  9
$DIMTOL
 70
     0
  9
$DIMLIM
 70
     0
  9
$DIMTIH
 70
     0
  9
$DIMTOH
 70
     0
  9
$DIMSE1
 70
     0
  9
$DIMSE2
 70
     0
  9
$DIMTAD
 70
     1
  9
$DIMZIN
 70
     8
  9
$DIMBLK
  1
DOT1
  9
$DIMASO
 70
     1
  9
$DIMSHO
 70
     0
  9
$DIMPOST
  1

  9
$DIMAPOST
  1

  9
$DIMALT
 70
     0
  9
$DIMALTD
 70
     2
  9
$DIMALTF
 40
25.399999999999999
  9
$DIMLFAC
 40
1.0
  9
$DIMTOFL
 70
     1
  9
$DIMTVP
 40
0.0
  9
$DIMTIX
 70
     1
  9
$DIMSOXD
 70
     0
  9
$DIMSAH
 70
     1
  9
$DIMBLK1
  1
ORIGIN
  9
$DIMBLK2
  1
ORIGIN
  9
$DIMSTYLE
  2
STANDARD
  9
$DIMCLRD
 70
     7
  9
$DIMCLRE
 70
     7
  9
$DIMCLRT
 70
     7
  9
$DIMTFAC
 40
1.0
  9
$DIMGAP
 40
25.0
  9
$LUNITS
 70
     2
  9
$LUPREC
 70
     4
  9
$SKETCHINC
 40
0.1
  9
$FILLETRAD
 40
10.0
  9
$AUNITS
 70
     1
  9
$AUPREC
 70
     3
  9
$MENU
  1
ACAD
  9
$ELEVATION
 40
0.0
  9
$PELEVATION
 40
0.0
  9
$THICKNESS
 40
50.0
  9
$LIMCHECK
 70
     0
  9
$BLIPMODE
 70
     0
  9
$CHAMFERA
 40
0.0
  9
$CHAMFERB
 40
0.0
  9
$SKPOLY
 70
     0
  9
$TDCREATE
 40
2453103.7760589579
  9
$TDUPDATE
 40
2454153.4291682872
  9
$TDINDWG
 40
0.0641609375
  9
$TDUSRTIMER
 40
0.0641607639
  9
$USRTIMER
 70
     1
  9
$ANGBASE
 50
0.0
  9
$ANGDIR
 70
     0
  9
$PDMODE
 70
     3
  9
$PDSIZE
 40
-2.0
  9
$PLINEWID
 40
0.0
  9
$COORDS
 70
     0
  9
$SPLFRAME
 70
     0
  9
$SPLINETYPE
 70
     6
  9
$SPLINESEGS
 70
     8
  9
$ATTDIA
 70
     0
  9
$ATTREQ
 70
     1
  9
$HANDLING
 70
 22529
  9
$HANDSEED
  5
142
  9
$SURFTAB1
 70
     6
  9
$SURFTAB2
 70
     6
  9
$SURFTYPE
 70
     6
  9
$SURFU
 70
     6
  9
$SURFV
 70
     6
  9
$UCSNAME
  2

  9
$UCSORG
 10
0.0
 20
0.0
 30
0.0
  9
$UCSXDIR
 10
1.0
 20
0.0
 30
0.0
  9
$UCSYDIR
 10
0.0
 20
1.0
 30
0.0
  9
$PUCSNAME
  2

  9
$PUCSORG
 10
0.0
 20
0.0
 30
0.0
  9
$PUCSXDIR
 10
1.0
 20
0.0
 30
0.0
  9
$PUCSYDIR
 10
0.0
 20
1.0
 30
0.0
  9
$USERI1
 70
     0
  9
$USERI2
 70
     0
  9
$USERI3
 70
     0
  9
$USERI4
 70
     0
  9
$USERI5
 70
     0
  9
$USERR1
 40
20.0
  9
$USERR2
 40
0.0
  9
$USERR3
 40
0.0
  9
$USERR4
 40
0.0
  9
$USERR5
 40
0.0
  9
$WORLDVIEW
 70
     1
  9
$SHADEDGE
 70
     3
  9
$SHADEDIF
 70
    70
  9
$TILEMODE
 70
     1
  9
$MAXACTVP
 70
    48
  9
$PLIMCHECK
 70
     0
  9
$PEXTMIN
 10
-1.0000000000000000E+020
 20
-1.0000000000000000E+020
 30
-1.0000000000000000E+020
  9
$PEXTMAX
 10
1.0000000000000000E+020
 20
1.0000000000000000E+020
 30
1.0000000000000000E+020
  9
$PLIMMIN
 10
0.0
 20
0.0
  9
$PLIMMAX
 10
12.0
 20
9.0
  9
$UNITMODE
 70
     0
  9
$VISRETAIN
 70
     0
  9
$PLINEGEN
 70
     0
  9
$PSLTSCALE
 70
     0
  0
ENDSEC
  0
SECTION
  2
TABLES
  0
TABLE
  2
VPORT
 70
     3
  0
VPORT
  2
*ACTIVE
 70
     0
 10
0.0
 20
0.0
 11
1.0
 21
1.0
 12
393.34384522066699
 22
99.815379000000334
 13
0.0
 23
0.0
 14
1.0
 24
1.0
 15
0.0
 25
0.0
 16
0.0
 26
0.0
 36
1.0
 17
0.0
 27
0.0
 37
0.0
 40
1167.3728264564029
 41
1.710526315789473
 42
50.0
 43
0.0
 44
0.0
 50
0.0
 51
0.0
 71
     0
 72
  1000
 73
     1
 74
     0
 75
     0
 76
     0
 77
     0
 78
     0
  0
ENDTAB
  0
TABLE
  2
LTYPE
 70
     2
  0
LTYPE
  2
CONTINUOUS
 70
     0
  3
実線
 72
    65
 73
     0
 40
0.0
  0
LTYPE
  2
DASHDOT
 70
     0
  3
____ _ ____ _ ____ _ ____ _ ____ _ ____ _ ____
 72
    65
 73
     4
 40
5.5
 49
4.0
 49
-0.6
 49
0.3
 49
-0.6
  0
ENDTAB
  0
TABLE
  2
LAYER
 70
    12
  0
LAYER
  2
0
 70
     0
 62
     7
  6
CONTINUOUS
  0
LAYER
  2
SIZE
 70
     0
 62
    30
  6
CONTINUOUS
  0
LAYER
  2
BASIS
 70
     0
 62
     6
  6
DASHDOT
  0
LAYER
  2
OUTLINE
 70
     0
 62
     3
  6
CONTINUOUS
  0
LAYER
  2
DETAIL
 70
     0
 62
     5
  6
CONTINUOUS
  0
LAYER
  2
ARRANGE
 70
     0
 62
     1
  6
CONTINUOUS
  0
LAYER
  2
DEFPOINTS
 70
     0
 62
     7
  6
CONTINUOUS
  0
LAYER
  2
ETC
 70
     0
 62
    61
  6
CONTINUOUS
  0
LAYER
  2
FIX
 70
     0
 62
    11
  6
CONTINUOUS
  0
LAYER
  2
NOTE
 70
     0
 62
     4
  6
CONTINUOUS
  0
LAYER
  2
SERVICESPACE
 70
     0
 62
     2
  6
DASHDOT
  0
LAYER
  2
SYMBOLLINE
 70
     0
 62
    15
  6
CONTINUOUS
  0
ENDTAB
  0
TABLE
  2
STYLE
 70
     1
  0
STYLE
  2
STANDARD
 70
     0
 40
64.0
 41
0.9
 50
0.0
 71
     0
 42
64.0
  3
SIMPLEX.shx
  4
BIGFONT.shx
  0
ENDTAB
  0
TABLE
  2
VIEW
 70
     1
  0
VIEW
  2
ALL
 70
     0
 40
4282.6198079999986
 10
0.0
 20
41.309903999999989
 41
5940.0
 11
0.0
 21
0.0
 31
1.0
 12
0.0
 22
0.0
 32
0.0
 42
50.0
 43
0.0
 44
0.0
 50
0.0
 71
     0
  0
ENDTAB
  0
TABLE
  2
UCS
 70
     0
  0
ENDTAB
  0
TABLE
  2
APPID
 70
     2
  0
APPID
  2
ACAD
 70
     0
  0
APPID
  2
AUTOCAD_POSTSCRIPT_FIGURE
 70
     0
  0
ENDTAB
  0
TABLE
  2
DIMSTYLE
 70
     1
  0
DIMSTYLE
  2
STANDARD
 70
     0
  3

  4

  5

  6

  7

 40
1.0
 41
0.18
 42
0.0625
 43
0.38
 44
0.18
 45
0.0
 46
0.0
 47
0.0
 48
0.0
140
0.18
141
0.09
142
0.0
143
25.399999999999999
144
1.0
145
0.0
146
1.0
147
0.09
 71
     0
 72
     0
 73
     1
 74
     1
 75
     0
 76
     0
 77
     0
 78
     0
170
     0
171
     2
172
     0
173
     0
174
     0
175
     0
176
     7
177
     7
178
     7
  0
ENDTAB
  0
ENDSEC
  0
SECTION
  2
BLOCKS
  0
BLOCK
  8
0
  2
$MODEL_SPACE
 70
     0
 10
0.0
 20
0.0
 30
0.0
  3
$MODEL_SPACE
  1

  0
ENDBLK
  5
20
  8
0
  0
BLOCK
 67
     1
  8
0
  2
$PAPER_SPACE
 70
     0
 10
0.0
 20
0.0
 30
0.0
  3
$PAPER_SPACE
  1

  0
ENDBLK
  5
1C
 67
     1
  8
0
  0
BLOCK
  8
0
  2
DOT1
 70
     0
 10
0.0
 20
0.0
 30
0.0
  3
DOT1
  1

  0
CIRCLE
  5
36
  8
SIZE
  6
CONTINUOUS
 62
     7
 10
0.0
 20
0.0
 30
0.0
 40
3.0
  0
ENDBLK
  5
37
  8
0
  0
BLOCK
  8
0
  2
_ORIGIN
 70
     0
 10
0.0
 20
0.0
 30
0.0
  3
_ORIGIN
  1

  0
CIRCLE
  5
3A
  8
0
  6
CONTINUOUS
 62
     7
 10
0.0
 20
0.0
 30
0.0
 40
0.5
  0
LINE
  5
3B
  8
0
  6
CONTINUOUS
 62
     7
 10
0.0
 20
0.0
 30
0.0
 11
-1.0
 21
0.0
 31
0.0
  0
ENDBLK
  5
3C
  8
0
  0
ENDSEC
  0
SECTION
  2
ENTITIES
  0
ARC
  5
3D
  8
DETAIL
  6
CONTINUOUS
 62
     5
 10
-137.62176599999989
 20
271.0
 30
0.0
 40
3.0
 50
90.0
 51
179.0
  0
LINE
  5
3E
  8
DETAIL
  6
CONTINUOUS
 62
     5
 10
137.62176599999989
 20
274.0
 30
0.0
 11
-137.62176599999989
 21
274.0
 31
0.0
  0
LINE
  5
3F
  8
DETAIL
  6
CONTINUOUS
 62
     5
 10
140.621309
 20
276.0
 30
0.0
 11
-140.621309
 21
276.0
 31
0.0
  0
LINE
  5
40
  8
DETAIL
  6
CONTINUOUS
 62
     5
 10
143.78565699999999
 20
264.5
 30
0.0
 11
-143.78713200000001
 21
264.5
 31
0.0
  0
LINE
  5
41
  8
BASIS
  6
DASHDOT
 62
     6
 10
0.0
 20
322.54822899999988
 30
0.0
 11
0.0
 21
-106.17331
 31
0.0
  0
LINE
  5
42
  8
NOTE
  6
CONTINUOUS
 62
     4
 10
-285.32277099999999
 20
-114.45434399999991
 30
0.0
 11
-538.43320900000003
 21
-114.45434399999991
 31
0.0
  0
TEXT
  5
43
  8
NOTE
  6
CONTINUOUS
 62
     4
 10
-532.27236600000003
 20
-87.937206999999987
 30
0.0
 40
64.0
  1
4-φ5
 41
0.9
  0
CIRCLE
  5
44
  8
ARRANGE
  6
CONTINUOUS
 62
     1
 39
50.0
 10
0.0
 20
0.0
 30
0.0
 40
40.0
  0
POINT
  5
45
  8
ARRANGE
  6
CONTINUOUS
 62
     1
 10
0.0
 20
0.0
 30
0.0
 39
50.0
  0
CIRCLE
  5
46
  8
FIX
  6
CONTINUOUS
 62
    11
 39
50.0
 10
-160.0
 20
0.0
 30
0.0
 40
2.5
  0
LINE
  5
47
  8
NOTE
  6
CONTINUOUS
 62
     4
 10
-140.0
 20
0.0
 30
0.0
 11
-180.0
 21
0.0
 31
0.0
  0
LINE
  5
48
  8
NOTE
  6
CONTINUOUS
 62
     4
 10
-160.0
 20
-20.0
 30
0.0
 11
-160.0
 21
20.0
 31
0.0
  0
LINE
  5
49
  8
NOTE
  6
CONTINUOUS
 62
     4
 10
180.0
 20
0.0
 30
0.0
 11
140.0
 21
0.0
 31
0.0
  0
LINE
  5
4A
  8
NOTE
  6
CONTINUOUS
 62
     4
 10
160.0
 20
-20.0
 30
0.0
 11
160.0
 21
20.0
 31
0.0
  0
CIRCLE
  5
4B
  8
FIX
  6
CONTINUOUS
 62
    11
 39
50.0
 10
160.0
 20
0.0
 30
0.0
 40
2.5
  0
LINE
  5
4C
  8
DETAIL
  6
CONTINUOUS
 62
     5
 10
-140.621309
 20
276.0
 30
0.0
 11
-140.621309
 21
264.5
 31
0.0
  0
LINE
  5
4D
  8
SIZE
  6
CONTINUOUS
 62
    30
 10
-149.0
 20
20.0
 30
0.0
 11
-149.0
 21
418.25570299999993
 31
0.0
  0
LINE
  5
4E
  8
SIZE
  6
CONTINUOUS
 62
    30
 10
149.0
 20
20.0
 30
0.0
 11
149.0
 21
418.25570299999993
 31
0.0
  0
LINE
  5
4F
  8
SIZE
  6
CONTINUOUS
 62
    30
 10
-137.0
 20
398.25570299999993
 30
0.0
 11
137.0
 21
398.25570299999993
 31
0.0
  0
CIRCLE
  5
50
  8
SIZE
  6
CONTINUOUS
 62
    30
 10
-149.0
 20
398.25570299999993
 30
0.0
 40
6.0
  0
LINE
  5
51
  8
SIZE
  6
CONTINUOUS
 62
    30
 10
-149.0
 20
398.25570299999993
 30
0.0
 11
-137.0
 21
398.25570299999993
 31
0.0
  0
CIRCLE
  5
52
  8
SIZE
  6
CONTINUOUS
 62
    30
 10
149.0
 20
398.25570299999993
 30
0.0
 40
6.0
  0
LINE
  5
53
  8
SIZE
  6
CONTINUOUS
 62
    30
 10
149.0
 20
398.25570299999993
 30
0.0
 11
137.0
 21
398.25570299999993
 31
0.0
  0
TEXT
  5
54
  8
SIZE
  6
CONTINUOUS
 62
    30
 10
-74.05714285714285
 20
423.25570299999998
 30
0.0
 40
64.0
  1
298
 41
0.9
 72
     1
 11
0.0
 21
423.25570299999998
 31
0.0
  0
LINE
  5
58
  8
SIZE
  6
CONTINUOUS
 62
    30
 10
-160.0
 20
37.207189999999997
 30
0.0
 11
-160.0
 21
547.21937600000001
 31
0.0
  0
LINE
  5
59
  8
SIZE
  6
CONTINUOUS
 62
    30
 10
160.0
 20
40.0
 30
0.0
 11
160.0
 21
547.21937600000001
 31
0.0
  0
LINE
  5
5A
  8
SIZE
  6
CONTINUOUS
 62
    30
 10
-148.0
 20
527.21937600000001
 30
0.0
 11
148.0
 21
527.21937600000001
 31
0.0
  0
CIRCLE
  5
5B
  8
SIZE
  6
CONTINUOUS
 62
    30
 10
-160.0
 20
527.21937600000001
 30
0.0
 40
6.0
  0
LINE
  5
5C
  8
SIZE
  6
CONTINUOUS
 62
    30
 10
-160.0
 20
527.21937600000001
 30
0.0
 11
-148.0
 21
527.21937600000001
 31
0.0
  0
CIRCLE
  5
5D
  8
SIZE
  6
CONTINUOUS
 62
    30
 10
160.0
 20
527.21937600000001
 30
0.0
 40
6.0
  0
LINE
  5
5E
  8
SIZE
  6
CONTINUOUS
 62
    30
 10
160.0
 20
527.21937600000001
 30
0.0
 11
148.0
 21
527.21937600000001
 31
0.0
  0
TEXT
  5
5F
  8
SIZE
  6
CONTINUOUS
 62
    30
 10
-74.05714285714285
 20
552.21937600000001
 30
0.0
 40
64.0
  1
320
 41
0.9
 72
     1
 11
0.0
 21
552.21937600000001
 31
0.0
  0
LINE
  5
63
  8
SIZE
  6
CONTINUOUS
 62
    30
 10
-173.0
 20
-35.400002999999998
 30
0.0
 11
-173.0
 21
-280.79869799999989
 31
0.0
  0
LINE
  5
64
  8
SIZE
  6
CONTINUOUS
 62
    30
 10
173.0
 20
-30.0
 30
0.0
 11
173.0
 21
-280.79869799999989
 31
0.0
  0
LINE
  5
65
  8
SIZE
  6
CONTINUOUS
 62
    30
 10
-161.0
 20
-260.798698
 30
0.0
 11
161.0
 21
-260.798698
 31
0.0
  0
CIRCLE
  5
66
  8
SIZE
  6
CONTINUOUS
 62
    30
 10
-173.0
 20
-260.798698
 30
0.0
 40
6.0
  0
LINE
  5
67
  8
SIZE
  6
CONTINUOUS
 62
    30
 10
-173.0
 20
-260.798698
 30
0.0
 11
-161.0
 21
-260.798698
 31
0.0
  0
CIRCLE
  5
68
  8
SIZE
  6
CONTINUOUS
 62
    30
 10
173.0
 20
-260.798698
 30
0.0
 40
6.0
  0
LINE
  5
69
  8
SIZE
  6
CONTINUOUS
 62
    30
 10
173.0
 20
-260.798698
 30
0.0
 11
161.0
 21
-260.798698
 31
0.0
  0
TEXT
  5
6A
  8
SIZE
  6
CONTINUOUS
 62
    30
 10
-109.1657142857142
 20
-235.798698
 30
0.0
 40
64.0
  1
□346
 41
0.9
 72
     1
 11
0.0
 21
-235.798698
 31
0.0
  0
LINE
  5
6E
  8
SIZE
  6
CONTINUOUS
 62
    30
 10
155.62130899999991
 20
276.0
 30
0.0
 11
560.75974599999995
 21
276.0
 31
0.0
  0
LINE
  5
6F
  8
SIZE
  6
CONTINUOUS
 62
    30
 10
193.0
 20
0.0
 30
0.0
 11
560.75974599999995
 21
0.0
 31
0.0
  0
LINE
  5
70
  8
SIZE
  6
CONTINUOUS
 62
    30
 10
540.75974599999995
 20
264.0
 30
0.0
 11
540.75974599999995
 21
12.0
 31
0.0
  0
CIRCLE
  5
71
  8
SIZE
  6
CONTINUOUS
 62
    30
 10
540.75974599999995
 20
276.0
 30
0.0
 40
6.0
  0
LINE
  5
72
  8
SIZE
  6
CONTINUOUS
 62
    30
 10
540.75974599999995
 20
276.0
 30
0.0
 11
540.75974599999995
 21
264.0
 31
0.0
  0
CIRCLE
  5
73
  8
SIZE
  6
CONTINUOUS
 62
    30
 10
540.75974599999995
 20
0.0
 30
0.0
 40
6.0
  0
LINE
  5
74
  8
SIZE
  6
CONTINUOUS
 62
    30
 10
540.75974599999995
 20
0.0
 30
0.0
 11
540.75974599999995
 21
12.0
 31
0.0
  0
TEXT
  5
75
  8
SIZE
  6
CONTINUOUS
 62
    30
 10
515.75974599999995
 20
65.314285714285717
 30
0.0
 40
64.0
  1
276
 50
90.0
 41
0.9
 72
     1
 11
515.75974599999995
 21
138.0
 31
0.0
  0
LINE
  5
79
  8
NOTE
  6
CONTINUOUS
 62
     4
 10
-160.0
 20
0.0
 30
0.0
 11
-285.32277099999999
 21
-114.45434399999991
 31
0.0
  0
LINE
  5
7A
  8
NOTE
  6
CONTINUOUS
 62
     4
 10
-181.0253679999999
 20
-34.028427999999998
 30
0.0
 11
-160.0
 21
0.0
 31
0.0
  0
LINE
  5
7B
  8
NOTE
  6
CONTINUOUS
 62
     4
 10
-160.0
 20
0.0
 30
0.0
 11
-195.22271699999999
 21
-18.956797999999999
 31
0.0
  0
LINE
  5
7C
  8
DETAIL
  6
CONTINUOUS
 62
     5
 10
-75.054942000000011
 20
-18.0
 30
0.0
 11
159.6999999999999
 21
-18.0
 31
0.0
  0
LINE
  5
7D
  8
DETAIL
  6
CONTINUOUS
 62
     5
 10
157.039986
 20
-48.0
 30
0.0
 11
157.620407
 21
-18.980031
 31
0.0
  0
LINE
  5
7E
  8
DETAIL
  6
CONTINUOUS
 62
     5
 10
188.0
 20
-59.0
 30
0.0
 11
188.0
 21
-48.0
 31
0.0
  0
LINE
  5
7F
  8
DETAIL
  6
CONTINUOUS
 62
     5
 10
176.0
 20
-66.0
 30
0.0
 11
178.34108399999991
 21
-65.865496999999991
 31
0.0
  0
LINE
  5
80
  8
DETAIL
  6
CONTINUOUS
 62
     5
 10
178.34108399999991
 20
-65.865496999999991
 30
0.0
 11
180.5922009999999
 21
-65.467157
 31
0.0
  0
LINE
  5
81
  8
DETAIL
  6
CONTINUOUS
 62
     5
 10
180.5922009999999
 20
-65.467157
 30
0.0
 11
182.66684299999989
 21
-64.820286999999993
 31
0.0
  0
LINE
  5
82
  8
DETAIL
  6
CONTINUOUS
 62
     5
 10
182.66684299999989
 20
-64.820286999999993
 30
0.0
 11
184.48528099999999
 21
-63.949746999999988
 31
0.0
  0
LINE
  5
83
  8
DETAIL
  6
CONTINUOUS
 62
     5
 10
184.48528099999999
 20
-63.949746999999988
 30
0.0
 11
185.97763499999999
 21
-62.888992000000002
 31
0.0
  0
LINE
  5
84
  8
DETAIL
  6
CONTINUOUS
 62
     5
 10
185.97763499999999
 20
-62.888992000000002
 30
0.0
 11
187.08655400000001
 21
-61.678784
 31
0.0
  0
LINE
  5
85
  8
DETAIL
  6
CONTINUOUS
 62
     5
 10
187.08655400000001
 20
-61.678784
 30
0.0
 11
187.7694229999999
 21
-60.365631999999991
 31
0.0
  0
LINE
  5
86
  8
DETAIL
  6
CONTINUOUS
 62
     5
 10
187.7694229999999
 20
-60.365631999999991
 30
0.0
 11
188.0
 21
-59.0
 31
0.0
  0
ARC
  5
87
  8
DETAIL
  6
CONTINUOUS
 62
     5
 10
158.620193
 20
-19.000014999999991
 30
0.0
 40
1.0
 50
90.000054999999975
 51
178.85453200000001
  0
LINE
  5
88
  8
DETAIL
  6
CONTINUOUS
 62
     5
 10
158.620193
 20
-18.0
 30
0.0
 11
159.49999999999989
 21
-18.0
 31
0.0
  0
LINE
  5
89
  8
DETAIL
  6
CONTINUOUS
 62
     5
 10
173.0
 20
0.0
 30
0.0
 11
173.0
 21
-10.0
 31
0.0
  0
ARC
  5
8A
  8
DETAIL
  6
CONTINUOUS
 62
     5
 10
158.62020799999999
 20
-19.0
 30
0.0
 40
1.0
 50
90.0
 51
178.854195
  0
LINE
  5
8B
  8
DETAIL
  6
CONTINUOUS
 62
     5
 10
159.6999999999999
 20
-18.0
 30
0.0
 11
173.0
 21
-10.0
 31
0.0
  0
LINE
  5
8C
  8
DETAIL
  6
CONTINUOUS
 62
     5
 10
173.0
 20
0.0
 30
0.0
 11
173.0
 21
-10.0
 31
0.0
  0
LINE
  5
8D
  8
DETAIL
  6
CONTINUOUS
 62
     5
 10
173.0
 20
0.0
 30
0.0
 11
-173.0
 21
0.0
 31
0.0
  0
LINE
  5
8E
  8
DETAIL
  6
CONTINUOUS
 62
     5
 10
136.95992799999991
 20
-48.0
 30
0.0
 11
136.37952200000001
 21
-18.980022000000002
 31
0.0
  0
ARC
  5
8F
  8
DETAIL
  6
CONTINUOUS
 62
     5
 10
135.3797909999999
 20
-19.000014999999991
 30
0.0
 40
1.0
 50
1.145395999999999
 51
89.999982999999986
  0
LINE
  5
90
  8
DETAIL
  6
CONTINUOUS
 62
     5
 10
-170.20001999999999
 20
-18.0
 30
0.0
 11
-75.054942000000011
 21
-18.0
 31
0.0
  0
LINE
  5
91
  8
DETAIL
  6
CONTINUOUS
 62
     5
 10
-136.95997299999999
 20
-48.0
 30
0.0
 11
-136.3795659999999
 21
-18.980028000000001
 31
0.0
  0
LINE
  5
92
  8
DETAIL
  6
CONTINUOUS
 62
     5
 10
-157.039984
 20
-48.0
 30
0.0
 11
-157.62040500000001
 21
-18.980025999999999
 31
0.0
  0
ARC
  5
93
  8
DETAIL
  6
CONTINUOUS
 62
     5
 10
-135.3797909999999
 20
-19.000014999999991
 30
0.0
 40
1.0
 50
90.0
 51
178.85458700000001
  0
ARC
  5
94
  8
DETAIL
  6
CONTINUOUS
 62
     5
 10
-158.620194
 20
-19.000014999999991
 30
0.0
 40
1.0
 50
1.1454509999999991
 51
89.999927999999997
  0
ARC
  5
95
  8
DETAIL
  6
CONTINUOUS
 62
     5
 10
-158.620194
 20
-19.0
 30
0.0
 40
1.0
 50
1.41805
 51
90.0
  0
ARC
  5
96
  8
DETAIL
  6
CONTINUOUS
 62
     5
 10
-158.620194
 20
-19.000014999999991
 30
0.0
 40
1.0
 50
1.1454509999999991
 51
1.4171750000000001
  0
ARC
  5
97
  8
DETAIL
  6
CONTINUOUS
 62
     5
 10
-135.3797909999999
 20
-19.000014999999991
 30
0.0
 40
1.0
 50
90.0
 51
178.85458700000001
  0
LINE
  5
98
  8
DETAIL
  6
CONTINUOUS
 62
     5
 10
-173.0
 20
0.0
 30
0.0
 11
-173.0
 21
-1.0
 31
0.0
  0
LINE
  5
99
  8
DETAIL
  6
CONTINUOUS
 62
     5
 10
-170.20001999999999
 20
-18.0
 30
0.0
 11
-173.0
 21
-15.200006
 31
0.0
  0
ARC
  5
9A
  8
DETAIL
  6
CONTINUOUS
 62
     5
 10
-158.620194
 20
-19.0
 30
0.0
 40
1.0
 50
1.41805
 51
90.0
  0
LINE
  5
9B
  8
DETAIL
  6
CONTINUOUS
 62
     5
 10
-173.0
 20
-1.0
 30
0.0
 11
-173.0
 21
-15.200006
 31
0.0
  0
LINE
  5
9C
  8
DETAIL
  6
CONTINUOUS
 62
     5
 10
-188.0
 20
-59.0
 30
0.0
 11
-188.0
 21
-48.0
 31
0.0
  0
LINE
  5
9D
  8
DETAIL
  6
CONTINUOUS
 62
     5
 10
-188.0
 20
-58.999999000000003
 30
0.0
 11
-187.81769299999999
 21
-60.215536
 31
0.0
  0
LINE
  5
9E
  8
DETAIL
  6
CONTINUOUS
 62
     5
 10
-187.81769299999999
 20
-60.215536
 30
0.0
 11
-187.27631199999999
 21
-61.39414
 31
0.0
  0
LINE
  5
9F
  8
DETAIL
  6
CONTINUOUS
 62
     5
 10
-187.27631199999999
 20
-61.39414
 30
0.0
 11
-186.39230599999999
 21
-62.499999000000003
 31
0.0
  0
LINE
  5
A0
  8
DETAIL
  6
CONTINUOUS
 62
     5
 10
-186.39230599999999
 20
-62.499999000000003
 30
0.0
 11
-185.19253399999999
 21
-63.499513
 31
0.0
  0
LINE
  5
A1
  8
DETAIL
  6
CONTINUOUS
 62
     5
 10
-185.19253399999999
 20
-63.499513
 30
0.0
 11
-183.71345199999999
 21
-64.362311000000005
 31
0.0
  0
LINE
  5
A2
  8
DETAIL
  6
CONTINUOUS
 62
     5
 10
-183.71345199999999
 20
-64.362311000000005
 30
0.0
 11
-182.000001
 21
-65.062178000000003
 31
0.0
  0
LINE
  5
A3
  8
DETAIL
  6
CONTINUOUS
 62
     5
 10
-182.000001
 20
-65.062178000000003
 30
0.0
 11
-180.10424199999991
 21
-65.577848000000003
 31
0.0
  0
LINE
  5
A4
  8
DETAIL
  6
CONTINUOUS
 62
     5
 10
-180.10424199999991
 20
-65.577848000000003
 30
0.0
 11
-178.08377799999991
 21
-65.893653999999998
 31
0.0
  0
LINE
  5
A5
  8
DETAIL
  6
CONTINUOUS
 62
     5
 10
-178.08377799999991
 20
-65.893653999999998
 30
0.0
 11
-176.0
 21
-66.0
 31
0.0
  0
LINE
  5
A6
  8
DETAIL
  6
CONTINUOUS
 62
     5
 10
-143.78713200000001
 20
264.5
 30
0.0
 11
-149.0
 21
0.0
 31
0.0
  0
LINE
  5
A7
  8
DETAIL
  6
CONTINUOUS
 62
     5
 10
143.78565699999999
 20
264.5
 30
0.0
 11
149.0
 21
0.0
 31
0.0
  0
LINE
  5
A8
  8
SIZE
  6
CONTINUOUS
 62
    30
 10
-188.0
 20
-79.199995999999999
 30
0.0
 11
-188.0
 21
-416.76870099999991
 31
0.0
  0
LINE
  5
A9
  8
SIZE
  6
CONTINUOUS
 62
    30
 10
188.0
 20
-79.199996999999996
 30
0.0
 11
188.0
 21
-416.76870099999991
 31
0.0
  0
LINE
  5
AA
  8
SIZE
  6
CONTINUOUS
 62
    30
 10
-176.0
 20
-396.76870099999991
 30
0.0
 11
176.0
 21
-396.76870099999991
 31
0.0
  0
CIRCLE
  5
AB
  8
SIZE
  6
CONTINUOUS
 62
    30
 10
-188.0
 20
-396.76870099999991
 30
0.0
 40
6.0
  0
LINE
  5
AC
  8
SIZE
  6
CONTINUOUS
 62
    30
 10
-188.0
 20
-396.76870099999991
 30
0.0
 11
-176.0
 21
-396.76870099999991
 31
0.0
  0
CIRCLE
  5
AD
  8
SIZE
  6
CONTINUOUS
 62
    30
 10
188.0
 20
-396.76870099999991
 30
0.0
 40
6.0
  0
LINE
  5
AE
  8
SIZE
  6
CONTINUOUS
 62
    30
 10
188.0
 20
-396.76870099999991
 30
0.0
 11
176.0
 21
-396.76870099999991
 31
0.0
  0
TEXT
  5
AF
  8
SIZE
  6
CONTINUOUS
 62
    30
 10
-109.1657142857142
 20
-371.76870099999991
 30
0.0
 40
64.0
  1
□376
 41
0.9
 72
     1
 11
0.0
 21
-371.76870099999991
 31
0.0
  0
LINE
  5
B3
  8
DETAIL
  6
CONTINUOUS
 62
     5
 10
188.0
 20
-48.0
 30
0.0
 11
-188.0
 21
-48.0
 31
0.0
  0
LINE
  5
B4
  8
DETAIL
  6
CONTINUOUS
 62
     5
 10
176.0
 20
-66.0
 30
0.0
 11
-176.0
 21
-66.0
 31
0.0
  0
LINE
  5
B5
  8
SIZE
  6
CONTINUOUS
 62
    30
 10
193.0
 20
0.0
 30
0.0
 11
423.30707699999988
 21
0.0
 31
0.0
  0
LINE
  5
B6
  8
SIZE
  6
CONTINUOUS
 62
    30
 10
179.6999999999999
 20
-18.0
 30
0.0
 11
423.30707699999988
 21
-18.0
 31
0.0
  0
LINE
  5
B7
  8
SIZE
  6
CONTINUOUS
 62
    30
 10
403.30707699999999
 20
12.0
 30
0.0
 11
403.30707699999999
 21
24.0
 31
0.0
  0
LINE
  5
B8
  8
SIZE
  6
CONTINUOUS
 62
    30
 10
403.30707699999999
 20
-30.0
 30
0.0
 11
403.30707699999999
 21
-42.0
 31
0.0
  0
LINE
  5
B9
  8
SIZE
  6
CONTINUOUS
 62
    30
 10
403.30707699999999
 20
160.30287599999991
 30
0.0
 11
403.30707699999999
 21
0.0
 31
0.0
  0
TEXT
  5
BA
  8
SIZE
  6
CONTINUOUS
 62
    30
 10
378.30707699999999
 20
53.017161857142852
 30
0.0
 40
64.0
  1
18
 50
90.0
 41
0.9
 72
     1
 11
378.30707699999999
 21
94.160018999999991
 31
0.0
  0
LINE
  5
BB
  8
SIZE
  6
CONTINUOUS
 62
    30
 10
403.30707699999999
 20
0.0
 30
0.0
 11
403.30707699999999
 21
-18.0
 31
0.0
  0
LINE
  5
BC
  8
SIZE
  6
CONTINUOUS
 62
    30
 10
403.30707699999999
 20
0.0
 30
0.0
 11
403.30707699999999
 21
-18.0
 31
0.0
  0
CIRCLE
  5
BD
  8
SIZE
  6
CONTINUOUS
 62
    30
 10
403.30707699999999
 20
0.0
 30
0.0
 40
6.0
  0
LINE
  5
BE
  8
SIZE
  6
CONTINUOUS
 62
    30
 10
403.30707699999999
 20
0.0
 30
0.0
 11
403.30707699999999
 21
12.0
 31
0.0
  0
CIRCLE
  5
BF
  8
SIZE
  6
CONTINUOUS
 62
    30
 10
403.30707699999999
 20
-18.0
 30
0.0
 40
6.0
  0
LINE
  5
C0
  8
SIZE
  6
CONTINUOUS
 62
    30
 10
403.30707699999999
 20
-18.0
 30
0.0
 11
403.30707699999999
 21
-30.0
 31
0.0
  0
LINE
  5
C4
  8
SIZE
  6
CONTINUOUS
 62
    30
 10
179.49999999999989
 20
-18.0
 30
0.0
 11
423.30707699999988
 21
-18.0
 31
0.0
  0
LINE
  5
C5
  8
SIZE
  6
CONTINUOUS
 62
    30
 10
208.0
 20
-48.0
 30
0.0
 11
423.30707699999988
 21
-48.0
 31
0.0
  0
LINE
  5
C6
  8
SIZE
  6
CONTINUOUS
 62
    30
 10
403.30707699999999
 20
-6.0
 30
0.0
 11
403.30707699999999
 21
6.0
 31
0.0
  0
LINE
  5
C7
  8
SIZE
  6
CONTINUOUS
 62
    30
 10
403.30707699999999
 20
-60.0
 30
0.0
 11
403.30707699999999
 21
-72.0
 31
0.0
  0
LINE
  5
C8
  8
SIZE
  6
CONTINUOUS
 62
    30
 10
403.30707699999999
 20
-219.22751600000001
 30
0.0
 11
403.30707699999999
 21
-48.0
 31
0.0
  0
TEXT
  5
C9
  8
SIZE
  6
CONTINUOUS
 62
    30
 10
378.30707699999999
 20
-194.22751642857131
 30
0.0
 40
64.0
  1
30
 50
90.0
 41
0.9
 72
     1
 11
378.30707699999999
 21
-147.5989449999999
 31
0.0
  0
LINE
  5
CA
  8
SIZE
  6
CONTINUOUS
 62
    30
 10
403.30707699999999
 20
-18.0
 30
0.0
 11
403.30707699999999
 21
-48.0
 31
0.0
  0
LINE
  5
CB
  8
SIZE
  6
CONTINUOUS
 62
    30
 10
403.30707699999999
 20
-18.0
 30
0.0
 11
403.30707699999999
 21
-48.0
 31
0.0
  0
CIRCLE
  5
CC
  8
SIZE
  6
CONTINUOUS
 62
    30
 10
403.30707699999999
 20
-18.0
 30
0.0
 40
6.0
  0
LINE
  5
CD
  8
SIZE
  6
CONTINUOUS
 62
    30
 10
403.30707699999999
 20
-18.0
 30
0.0
 11
403.30707699999999
 21
-6.0
 31
0.0
  0
CIRCLE
  5
CE
  8
SIZE
  6
CONTINUOUS
 62
    30
 10
403.30707699999999
 20
-48.0
 30
0.0
 40
6.0
  0
LINE
  5
CF
  8
SIZE
  6
CONTINUOUS
 62
    30
 10
403.30707699999999
 20
-48.0
 30
0.0
 11
403.30707699999999
 21
-60.0
 31
0.0
  0
LINE
  5
D3
  8
SIZE
  6
CONTINUOUS
 62
    30
 10
193.0
 20
0.0
 30
0.0
 11
560.75974599999995
 21
0.0
 31
0.0
  0
LINE
  5
D4
  8
SIZE
  6
CONTINUOUS
 62
    30
 10
196.0
 20
-66.0
 30
0.0
 11
560.75974599999995
 21
-66.0
 31
0.0
  0
LINE
  5
D5
  8
SIZE
  6
CONTINUOUS
 62
    30
 10
540.75974599999995
 20
12.0
 30
0.0
 11
540.75974599999995
 21
24.0
 31
0.0
  0
LINE
  5
D6
  8
SIZE
  6
CONTINUOUS
 62
    30
 10
540.75974599999995
 20
-78.0
 30
0.0
 11
540.75974599999995
 21
-90.0
 31
0.0
  0
LINE
  5
D7
  8
SIZE
  6
CONTINUOUS
 62
    30
 10
540.75974599999995
 20
-233.54160999999999
 30
0.0
 11
540.75974599999995
 21
-66.0
 31
0.0
  0
TEXT
  5
D8
  8
SIZE
  6
CONTINUOUS
 62
    30
 10
515.75974599999995
 20
-208.54160985714279
 30
0.0
 40
64.0
  1
66
 50
90.0
 41
0.9
 72
     1
 11
515.75974599999995
 21
-163.28446700000001
 31
0.0
  0
LINE
  5
D9
  8
SIZE
  6
CONTINUOUS
 62
    30
 10
540.75974599999995
 20
0.0
 30
0.0
 11
540.75974599999995
 21
-66.0
 31
0.0
  0
LINE
  5
DA
  8
SIZE
  6
CONTINUOUS
 62
    30
 10
540.75974599999995
 20
0.0
 30
0.0
 11
540.75974599999995
 21
-66.0
 31
0.0
  0
CIRCLE
  5
DB
  8
SIZE
  6
CONTINUOUS
 62
    30
 10
540.75974599999995
 20
0.0
 30
0.0
 40
6.0
  0
LINE
  5
DC
  8
SIZE
  6
CONTINUOUS
 62
    30
 10
540.75974599999995
 20
0.0
 30
0.0
 11
540.75974599999995
 21
12.0
 31
0.0
  0
CIRCLE
  5
DD
  8
SIZE
  6
CONTINUOUS
 62
    30
 10
540.75974599999995
 20
-66.0
 30
0.0
 40
6.0
  0
LINE
  5
DE
  8
SIZE
  6
CONTINUOUS
 62
    30
 10
540.75974599999995
 20
-66.0
 30
0.0
 11
540.75974599999995
 21
-78.0
 31
0.0
  0
ARC
  5
E2
  8
DETAIL
  6
CONTINUOUS
 62
     5
 10
137.62176599999989
 20
271.0
 30
0.0
 40
3.0
 50
1.0
 51
90.0
  0
LINE
  5
E3
  8
DETAIL
  6
CONTINUOUS
 62
     5
 10
140.621309
 20
276.0
 30
0.0
 11
140.621309
 21
264.5
 31
0.0
  0
LINE
  5
E4
  8
OUTLINE
  6
CONTINUOUS
 62
     3
 10
-140.621309
 20
264.5
 30
0.0
 11
-143.78713200000001
 21
264.5
 31
0.0
  0
LINE
  5
E5
  8
OUTLINE
  6
CONTINUOUS
 62
     3
 10
140.621309
 20
276.0
 30
0.0
 11
-140.621309
 21
276.0
 31
0.0
  0
LINE
  5
E6
  8
OUTLINE
  6
CONTINUOUS
 62
     3
 10
173.0
 20
0.0
 30
0.0
 11
-173.0
 21
0.0
 31
0.0
  0
LINE
  5
E7
  8
OUTLINE
  6
CONTINUOUS
 62
     3
 10
-143.78713200000001
 20
264.5
 30
0.0
 11
-149.0
 21
0.0
 31
0.0
  0
LINE
  5
E8
  8
OUTLINE
  6
CONTINUOUS
 62
     3
 10
-140.621309
 20
276.0
 30
0.0
 11
-140.621309
 21
264.5
 31
0.0
  0
LINE
  5
E9
  8
OUTLINE
  6
CONTINUOUS
 62
     3
 10
143.78565699999999
 20
264.5
 30
0.0
 11
149.0
 21
0.0
 31
0.0
  0
LINE
  5
EA
  8
OUTLINE
  6
CONTINUOUS
 62
     3
 10
140.621309
 20
276.0
 30
0.0
 11
140.621309
 21
264.5
 31
0.0
  0
LINE
  5
EB
  8
OUTLINE
  6
CONTINUOUS
 62
     3
 10
143.78565699999999
 20
264.5
 30
0.0
 11
140.621309
 21
264.5
 31
0.0
  0
LINE
  5
EC
  8
NOTE
  6
CONTINUOUS
 62
     4
 10
-182.05549600000001
 20
22.524080999999988
 30
0.0
 11
-149.0
 21
0.0
 31
0.0
  0
LINE
  5
ED
  8
NOTE
  6
CONTINUOUS
 62
     4
 10
-149.0
 20
0.0
 30
0.0
 11
-166.364858
 21
36.034174
 31
0.0
  0
LINE
  5
EE
  8
NOTE
  6
CONTINUOUS
 62
     4
 10
-149.0
 20
0.0
 30
0.0
 11
-229.26315600000001
 21
96.180887000000013
 31
0.0
  0
LINE
  5
EF
  8
NOTE
  6
CONTINUOUS
 62
     4
 10
-129.0
 20
0.0
 30
0.0
 11
-169.0
 21
0.0
 31
0.0
  0
LINE
  5
F0
  8
NOTE
  6
CONTINUOUS
 62
     4
 10
-149.0
 20
-20.0
 30
0.0
 11
-149.0
 21
20.0
 31
0.0
  0
LINE
  5
F1
  8
NOTE
  6
CONTINUOUS
 62
     4
 10
-229.26315600000001
 20
96.180887000000013
 30
0.0
 11
-339.57317999999998
 21
96.180887000000013
 31
0.0
  0
TEXT
  5
F2
  8
NOTE
  6
CONTINUOUS
 62
     4
 10
-330.49962499999992
 20
122.69802299999991
 30
0.0
 40
64.0
  1
EL
 41
0.9
  0
TEXT
  5
FE
  8
ETC
  6
CONTINUOUS
 62
    61
 10
597.5795119150165
 20
520.44971911491382
 30
0.0
 40
64.0
  1
VL-12RKX2-D_6
 41
0.9
  0
TEXT
  5
FF
  8
ETC
  6
CONTINUOUS
 62
    61
 10
720.16434864366045
 20
340.73660224645931
 30
0.0
 40
50.0
  1
VL-12RKX2-D
 41
0.9
  0
TEXT
  5
100
  8
ETC
  6
CONTINUOUS
 62
    61
 10
600.92775791501651
 20
417.8342671149137
 30
0.0
 40
64.0
  1
換気扇
 41
0.9
  0
ENDSEC
  0
EOF
