  0
SECTION
  2
HEADER
  9
$ACADVER
  1
AC1009
  9
$DWGCODEPAGE
  3
dos932
  9
$INSBASE
 10
0.0
 20
0.0
 30
0.0
  9
$EXTMIN
 10
-684.764083
 20
-611.329902
 30
-0.001526
  9
$EXTMAX
 10
1163.328564
 20
569.191237
 30
0.0
  9
$LIMMIN
 10
-2970.0
 20
-2100.0
  9
$LIMMAX
 10
2970.0
 20
2100.0
  9
$ORTHOMODE
 70
     0
  9
$REGENMODE
 70
     0
  9
$FILLMODE
 70
     1
  9
$QTEXTMODE
 70
     0
  9
$MIRRTEXT
 70
     0
  9
$DRAGMODE
 70
     2
  9
$LTSCALE
 40
20.0
  9
$OSMODE
 70
    33
  9
$ATTMODE
 70
     1
  9
$TEXTSIZE
 40
64.0
  9
$TRACEWID
 40
0.05
  9
$TEXTSTYLE
  7
STANDARD
  9
$CLAYER
  8
SIZE
  9
$CELTYPE
  6
CONTINUOUS
  9
$CECOLOR
 62
    30
  9
$DIMSCALE
 40
1.0
  9
$DIMASZ
 40
12.0
  9
$DIMEXO
 40
20.0
  9
$DIMDLI
 40
200.0
  9
$DIMRND
 40
0.0
  9
$DIMDLE
 40
0.0
  9
$DIMEXE
 40
20.0
  9
$DIMTP
 40
0.0
  9
$DIMTM
 40
0.0
  9
$DIMTXT
 40
64.0
  9
$DIMCEN
 40
0.09
  9
$DIMTSZ
 40
0.0
  9
$DIMTOL
 70
     0
  9
$DIMLIM
 70
     0
  9
$DIMTIH
 70
     0
  9
$DIMTOH
 70
     0
  9
$DIMSE1
 70
     0
  9
$DIMSE2
 70
     0
  9
$DIMTAD
 70
     1
  9
$DIMZIN
 70
     8
  9
$DIMBLK
  1
DOT1
  9
$DIMASO
 70
     1
  9
$DIMSHO
 70
     0
  9
$DIMPOST
  1

  9
$DIMAPOST
  1

  9
$DIMALT
 70
     0
  9
$DIMALTD
 70
     2
  9
$DIMALTF
 40
25.4
  9
$DIMLFAC
 40
1.0
  9
$DIMTOFL
 70
     1
  9
$DIMTVP
 40
0.0
  9
$DIMTIX
 70
     1
  9
$DIMSOXD
 70
     0
  9
$DIMSAH
 70
     1
  9
$DIMBLK1
  1
_ORIGIN
  9
$DIMBLK2
  1
_ORIGIN
  9
$DIMSTYLE
  2
STANDARD
  9
$DIMCLRD
 70
     7
  9
$DIMCLRE
 70
     7
  9
$DIMCLRT
 70
     7
  9
$DIMTFAC
 40
1.0
  9
$DIMGAP
 40
25.0
  9
$LUNITS
 70
     2
  9
$LUPREC
 70
     4
  9
$SKETCHINC
 40
0.1
  9
$FILLETRAD
 40
4.0
  9
$AUNITS
 70
     1
  9
$AUPREC
 70
     3
  9
$MENU
  1
ACAD
  9
$ELEVATION
 40
0.0
  9
$PELEVATION
 40
0.0
  9
$THICKNESS
 40
50.0
  9
$LIMCHECK
 70
     0
  9
$BLIPMODE
 70
     0
  9
$CHAMFERA
 40
0.0
  9
$CHAMFERB
 40
0.0
  9
$SKPOLY
 70
     0
  9
$TDCREATE
 40
2453103.691647882
  9
$TDUPDATE
 40
2453122.59049574
  9
$TDINDWG
 40
0.0113427083
  9
$TDUSRTIMER
 40
0.0113427083
  9
$USRTIMER
 70
     1
  9
$ANGBASE
 50
0.0
  9
$ANGDIR
 70
     0
  9
$PDMODE
 70
     3
  9
$PDSIZE
 40
-2.0
  9
$PLINEWID
 40
0.0
  9
$COORDS
 70
     2
  9
$SPLFRAME
 70
     0
  9
$SPLINETYPE
 70
     6
  9
$SPLINESEGS
 70
     8
  9
$ATTDIA
 70
     0
  9
$ATTREQ
 70
     1
  9
$HANDLING
 70
     0
  9
$HANDSEED
  5
2A4A
  9
$SURFTAB1
 70
     6
  9
$SURFTAB2
 70
     6
  9
$SURFTYPE
 70
     6
  9
$SURFU
 70
     6
  9
$SURFV
 70
     6
  9
$UCSNAME
  2

  9
$UCSORG
 10
0.0
 20
0.0
 30
0.0
  9
$UCSXDIR
 10
1.0
 20
0.0
 30
0.0
  9
$UCSYDIR
 10
0.0
 20
1.0
 30
0.0
  9
$PUCSNAME
  2

  9
$PUCSORG
 10
0.0
 20
0.0
 30
0.0
  9
$PUCSXDIR
 10
1.0
 20
0.0
 30
0.0
  9
$PUCSYDIR
 10
0.0
 20
1.0
 30
0.0
  9
$USERI1
 70
     0
  9
$USERI2
 70
     0
  9
$USERI3
 70
     0
  9
$USERI4
 70
     0
  9
$USERI5
 70
     0
  9
$USERR1
 40
20.0
  9
$USERR2
 40
0.0
  9
$USERR3
 40
0.0
  9
$USERR4
 40
0.0
  9
$USERR5
 40
0.0
  9
$WORLDVIEW
 70
     1
  9
$SHADEDGE
 70
     3
  9
$SHADEDIF
 70
    70
  9
$TILEMODE
 70
     1
  9
$MAXACTVP
 70
    48
  9
$PINSBASE
 10
0.0
 20
0.0
 30
0.0
  9
$PLIMCHECK
 70
     0
  9
$PEXTMIN
 10
-100000000000000000000.0
 20
-100000000000000000000.0
 30
-100000000000000000000.0
  9
$PEXTMAX
 10
100000000000000000000.0
 20
100000000000000000000.0
 30
100000000000000000000.0
  9
$PLIMMIN
 10
0.0
 20
0.0
  9
$PLIMMAX
 10
12.0
 20
9.0
  9
$UNITMODE
 70
     0
  9
$VISRETAIN
 70
     0
  9
$PLINEGEN
 70
     0
  9
$PSLTSCALE
 70
     0
  9
$TREEDEPTH
 70
  3020
  0
ENDSEC
  0
SECTION
  2
TABLES
  0
TABLE
  2
LTYPE
 70
     2
  0
LTYPE
  2
CONTINUOUS
 70
     0
  3
実線
 72
    65
 73
     0
 40
0.0
  0
LTYPE
  2
DASHDOT
 70
     0
  3
____ _ ____ _ ____ _ ____ _ ____ _ ____ _ ____
 72
    65
 73
     4
 40
5.5
 49
4.0
 49
-0.6
 49
0.3
 49
-0.6
  0
ENDTAB
  0
TABLE
  2
LAYER
 70
    12
  0
LAYER
  2
0
 70
     0
 62
     7
  6
CONTINUOUS
  0
LAYER
  2
BASIS
 70
     0
 62
     6
  6
DASHDOT
  0
LAYER
  2
OUTLINE
 70
     0
 62
     3
  6
CONTINUOUS
  0
LAYER
  2
DETAIL
 70
     0
 62
     5
  6
CONTINUOUS
  0
LAYER
  2
SIZE
 70
     0
 62
    30
  6
CONTINUOUS
  0
LAYER
  2
ARRANGE
 70
     0
 62
     1
  6
CONTINUOUS
  0
LAYER
  2
DEFPOINTS
 70
     0
 62
     7
  6
CONTINUOUS
  0
LAYER
  2
ETC
 70
     0
 62
    61
  6
CONTINUOUS
  0
LAYER
  2
FIX
 70
     0
 62
    11
  6
CONTINUOUS
  0
LAYER
  2
NOTE
 70
     0
 62
     4
  6
CONTINUOUS
  0
LAYER
  2
SERVICESPACE
 70
    64
 62
     2
  6
DASHDOT
  0
LAYER
  2
SYMBOLLINE
 70
    64
 62
    15
  6
CONTINUOUS
  0
ENDTAB
  0
TABLE
  2
STYLE
 70
     2
  0
STYLE
  2
STANDARD
 70
     0
 40
64.0
 41
0.9
 50
0.0
 71
     0
 42
64.0
  3
SIMPLEX.shx
  4
BIGFONT.shx
  0
STYLE
  2
STANDARD1
 70
     0
 40
0.0
 41
1.0
 50
0.0
 71
     0
 42
3.2
  3
MONOTXT
  4
BIGFONT
  0
ENDTAB
  0
TABLE
  2
APPID
 70
     2
  0
APPID
  2
ACAD
 70
     0
  0
APPID
  2
AUTOCAD_POSTSCRIPT_FIGURE
 70
     0
  0
ENDTAB
  0
TABLE
  2
DIMSTYLE
 70
     1
  0
DIMSTYLE
  2
STANDARD
 70
     0
  3

  4

  5

  6

  7

 40
1.0
 41
0.18
 42
0.0625
 43
0.38
 44
0.18
 45
0.0
 46
0.0
 47
0.0
 48
0.0
140
0.18
141
0.09
142
0.0
143
25.4
144
1.0
145
0.0
146
1.0
147
0.09
 71
     0
 72
     0
 73
     1
 74
     1
 75
     0
 76
     0
 77
     0
 78
     0
170
     0
171
     2
172
     0
173
     0
174
     0
175
     0
176
     7
177
     7
178
     7
  0
ENDTAB
  0
TABLE
  2
VIEW
 70
     1
  0
VIEW
  2
ALL
 70
     0
 40
4282.619808
 10
0.0
 20
41.309904
 41
5940.0
 11
0.0
 21
0.0
 31
1.0
 12
0.0
 22
0.0
 32
0.0
 42
50.0
 43
0.0
 44
0.0
 50
0.0
 71
     0
  0
ENDTAB
  0
TABLE
  2
UCS
 70
     0
  0
ENDTAB
  0
TABLE
  2
VPORT
 70
     1
  0
VPORT
  2
*ACTIVE
 70
     0
 10
0.0
 20
0.0
 11
1.0
 21
1.0
 12
239.282241
 22
-21.069332
 13
0.0
 23
0.0
 14
1.0
 24
1.0
 15
0.0
 25
0.0
 16
0.0
 26
0.0
 36
1.0
 17
0.0
 27
0.0
 37
0.0
 40
1258.405072
 41
1.476252
 42
50.0
 43
0.0
 44
0.0
 50
0.0
 51
0.0
 71
     0
 72
  1000
 73
     1
 74
     0
 75
     0
 76
     0
 77
     0
 78
     0
  0
ENDTAB
  0
ENDSEC
  0
SECTION
  2
BLOCKS
  0
BLOCK
  8
0
  2
DOT1
 70
     0
 10
0.0
 20
0.0
 30
0.0
  3
DOT1
  1

  0
CIRCLE
  8
SIZE
  6
CONTINUOUS
 62
     7
 10
0.0
 20
0.0
 30
0.0
 40
3.0
  0
ENDBLK
  8
0
  0
BLOCK
  8
0
  2
_ORIGIN
 70
     0
 10
0.0
 20
0.0
 30
0.0
  3
_ORIGIN
  1

  0
CIRCLE
  8
0
  6
CONTINUOUS
 62
     7
 10
0.0
 20
0.0
 30
0.0
 40
0.5
  0
LINE
  8
0
  6
CONTINUOUS
 62
     7
 10
0.0
 20
0.0
 30
0.0
 11
-1.0
 21
0.0
 31
0.0
  0
ENDBLK
  8
0
  0
ENDSEC
  0
SECTION
  2
ENTITIES
  0
LINE
  8
DETAIL
  6
CONTINUOUS
 62
     5
 10
227.5
 20
-2.0
 30
0.0
 11
227.5
 21
0.0
 31
0.0
  0
LINE
  8
DETAIL
  6
CONTINUOUS
 62
     5
 10
-227.5
 20
-2.0
 30
0.0
 11
-227.5
 21
0.0
 31
0.0
  0
LINE
  8
BASIS
  6
DASHDOT
 62
     6
 10
0.0
 20
-84.944275
 30
0.0
 11
0.0
 21
256.222791
 31
0.0
  0
LINE
  8
DETAIL
  6
CONTINUOUS
 62
     5
 10
-220.5
 20
-9.0
 30
0.0
 11
220.5
 21
-9.0
 31
0.0
  0
LINE
  8
DETAIL
  6
CONTINUOUS
 62
     5
 10
-227.5
 20
0.0
 30
0.0
 11
227.5
 21
0.0
 31
0.0
  0
LINE
  8
DETAIL
  6
CONTINUOUS
 62
     5
 10
-185.0
 20
204.0
 30
0.0
 11
185.0
 21
204.0
 31
0.0
  0
ARC
  8
DETAIL
  6
CONTINUOUS
 62
     5
 10
220.5
 20
-2.0
 30
0.0
 40
7.0
 50
270.0
 51
0.0
  0
ARC
  8
DETAIL
  6
CONTINUOUS
 62
     5
 10
-220.5
 20
-2.0
 30
0.0
 40
7.0
 50
180.0
 51
270.0
  0
LINE
  8
DETAIL
  6
CONTINUOUS
 62
     5
 10
193.0
 20
0.0
 30
0.0
 11
185.0
 21
204.0
 31
0.0
  0
LINE
  8
DETAIL
  6
CONTINUOUS
 62
     5
 10
-193.0
 20
0.0
 30
0.0
 11
-185.0
 21
204.0
 31
0.0
  0
POINT
  8
ARRANGE
  6
CONTINUOUS
 62
     1
 10
0.0
 20
0.0
 30
0.0
  0
CIRCLE
  8
ARRANGE
  6
CONTINUOUS
 62
     1
 10
0.0
 20
0.0
 30
0.0
 40
40.0
  0
LINE
  8
DETAIL
  6
CONTINUOUS
 62
     5
 10
-191.431373
 20
40.0
 30
0.0
 11
191.431373
 21
40.0
 31
0.0
  0
LINE
  8
OUTLINE
  6
CONTINUOUS
 62
     3
 10
-193.0
 20
0.0
 30
0.0
 11
-185.0
 21
204.0
 31
0.0
  0
LINE
  8
OUTLINE
  6
CONTINUOUS
 62
     3
 10
193.0
 20
0.0
 30
0.0
 11
185.0
 21
204.0
 31
0.0
  0
LINE
  8
OUTLINE
  6
CONTINUOUS
 62
     3
 10
-185.0
 20
204.0
 30
0.0
 11
185.0
 21
204.0
 31
0.0
  0
LINE
  8
OUTLINE
  6
CONTINUOUS
 62
     3
 10
-227.5
 20
0.0
 30
0.0
 11
227.5
 21
0.0
 31
0.0
  0
LINE
  8
DETAIL
  6
CONTINUOUS
 62
     5
 10
198.0
 20
137.5
 30
0.0
 11
198.0
 21
147.5
 31
0.0
  0
LINE
  8
DETAIL
  6
CONTINUOUS
 62
     5
 10
241.228243
 20
137.5
 30
0.0
 11
241.228243
 21
147.5
 31
0.0
  0
LINE
  8
DETAIL
  6
CONTINUOUS
 62
     5
 10
-198.0
 20
137.5
 30
0.0
 11
-198.0
 21
147.5
 31
0.0
  0
LINE
  8
DETAIL
  6
CONTINUOUS
 62
     5
 10
-241.0
 20
137.5
 30
0.0
 11
-241.0
 21
147.5
 31
0.0
  0
LINE
  8
DETAIL
  6
CONTINUOUS
 62
     5
 10
-241.0
 20
147.5
 30
0.0
 11
-198.0
 21
147.5
 31
0.0
  0
LINE
  8
DETAIL
  6
CONTINUOUS
 62
     5
 10
-241.0
 20
137.5
 30
0.0
 11
-190.0
 21
137.5
 31
0.0
  0
LINE
  8
DETAIL
  6
CONTINUOUS
 62
     5
 10
198.0
 20
147.5
 30
0.0
 11
241.228243
 21
147.5
 31
0.0
  0
LINE
  8
DETAIL
  6
CONTINUOUS
 62
     5
 10
190.0
 20
137.5
 30
0.0
 11
241.228243
 21
137.5
 31
0.0
  0
LINE
  8
DETAIL
  6
CONTINUOUS
 62
     5
 10
-190.0
 20
76.5
 30
0.0
 11
-190.0
 21
137.5
 31
0.0
  0
LINE
  8
DETAIL
  6
CONTINUOUS
 62
     5
 10
190.0
 20
76.5
 30
0.0
 11
190.0
 21
137.5
 31
0.0
  0
LINE
  8
DETAIL
  6
CONTINUOUS
 62
     5
 10
-198.0
 20
142.5
 30
0.0
 11
-187.215686
 21
142.5
 31
0.0
  0
LINE
  8
DETAIL
  6
CONTINUOUS
 62
     5
 10
187.215686
 20
142.5
 30
0.0
 11
198.0
 21
142.5
 31
0.0
  0
LINE
  8
NOTE
  6
CONTINUOUS
 62
     4
 10
-220.0
 20
127.5
 30
0.0
 11
-220.0
 21
167.5
 31
0.0
  0
LINE
  8
NOTE
  6
CONTINUOUS
 62
     4
 10
-240.0
 20
147.5
 30
0.0
 11
-200.0
 21
147.5
 31
0.0
  0
LINE
  8
NOTE
  6
CONTINUOUS
 62
     4
 10
220.0
 20
127.5
 30
0.0
 11
220.0
 21
167.5
 31
0.0
  0
LINE
  8
NOTE
  6
CONTINUOUS
 62
     4
 10
200.0
 20
147.5
 30
0.0
 11
240.0
 21
147.5
 31
0.0
  0
CIRCLE
  8
FIX
  6
CONTINUOUS
 62
    11
 10
-220.0
 20
147.5
 30
0.0
 40
6.5
  0
CIRCLE
  8
FIX
  6
CONTINUOUS
 62
    11
 10
220.0
 20
147.5
 30
0.0
 40
6.5
  0
LINE
  8
NOTE
  6
CONTINUOUS
 62
     4
 10
33.0
 20
184.0
 30
0.0
 11
33.0
 21
224.0
 31
0.0
  0
LINE
  8
NOTE
  6
CONTINUOUS
 62
     4
 10
13.0
 20
204.0
 30
0.0
 11
53.0
 21
204.0
 31
0.0
  0
TEXT
  8
NOTE
  6
CONTINUOUS
 62
     4
 10
-546.544087
 20
284.958934
 30
0.0
 40
64.0
  1
4-AH
 41
0.9
  0
LINE
  8
NOTE
  6
CONTINUOUS
 62
     4
 10
-562.814495
 20
256.233111
 30
0.0
 11
-314.553305
 21
256.233111
 31
0.0
  0
TEXT
  8
NOTE
  6
CONTINUOUS
 62
     4
 10
283.871209
 20
397.130139
 30
0.0
 40
64.0
  1
EL,CL
 41
0.9
  0
LINE
  8
NOTE
  6
CONTINUOUS
 62
     4
 10
508.694873
 20
369.798943
 30
0.0
 11
268.478897
 21
369.798943
 31
0.0
  0
LINE
  8
NOTE
  6
CONTINUOUS
 62
     4
 10
-206.0
 20
-20.0
 30
0.0
 11
-206.0
 21
20.0
 31
0.0
  0
LINE
  8
NOTE
  6
CONTINUOUS
 62
     4
 10
-226.0
 20
0.0
 30
0.0
 11
-186.0
 21
0.0
 31
0.0
  0
LINE
  8
NOTE
  6
CONTINUOUS
 62
     4
 10
-150.0
 20
-20.0
 30
0.0
 11
-150.0
 21
20.0
 31
0.0
  0
LINE
  8
NOTE
  6
CONTINUOUS
 62
     4
 10
-170.0
 20
0.0
 30
0.0
 11
-130.0
 21
0.0
 31
0.0
  0
LINE
  8
NOTE
  6
CONTINUOUS
 62
     4
 10
150.0
 20
-20.0
 30
0.0
 11
150.0
 21
20.0
 31
0.0
  0
LINE
  8
NOTE
  6
CONTINUOUS
 62
     4
 10
130.0
 20
0.0
 30
0.0
 11
170.0
 21
0.0
 31
0.0
  0
LINE
  8
NOTE
  6
CONTINUOUS
 62
     4
 10
206.0
 20
-20.0
 30
0.0
 11
206.0
 21
20.0
 31
0.0
  0
LINE
  8
NOTE
  6
CONTINUOUS
 62
     4
 10
186.0
 20
0.0
 30
0.0
 11
226.0
 21
0.0
 31
0.0
  0
LINE
  8
NOTE
  6
CONTINUOUS
 62
     4
 10
-220.0
 20
147.5
 30
0.0
 11
-314.553305
 21
256.233111
 31
0.0
  0
LINE
  8
NOTE
  6
CONTINUOUS
 62
     4
 10
-252.947658
 20
170.181531
 30
0.0
 11
-220.0
 21
147.5
 31
0.0
  0
LINE
  8
NOTE
  6
CONTINUOUS
 62
     4
 10
-220.0
 20
147.5
 30
0.0
 11
-237.192743
 21
183.616611
 31
0.0
  0
LINE
  8
NOTE
  6
CONTINUOUS
 62
     4
 10
33.0
 20
204.0
 30
0.0
 11
268.478897
 21
369.798943
 31
0.0
  0
LINE
  8
NOTE
  6
CONTINUOUS
 62
     4
 10
58.798038
 20
234.568958
 30
0.0
 11
33.0
 21
204.0
 31
0.0
  0
LINE
  8
NOTE
  6
CONTINUOUS
 62
     4
 10
33.0
 20
204.0
 30
0.0
 11
70.626236
 21
217.574475
 31
0.0
  0
CIRCLE
  8
FIX
  6
CONTINUOUS
 62
    11
 10
-206.0
 20
0.0
 30
0.0
 40
2.5
  0
CIRCLE
  8
FIX
  6
CONTINUOUS
 62
    11
 10
-150.0
 20
0.0
 30
0.0
 40
2.5
  0
CIRCLE
  8
FIX
  6
CONTINUOUS
 62
    11
 10
150.0
 20
0.0
 30
0.0
 40
2.5
  0
CIRCLE
  8
FIX
  6
CONTINUOUS
 62
    11
 10
206.0
 20
0.0
 30
0.0
 40
2.5
  0
LINE
  8
SIZE
  6
CONTINUOUS
 62
    30
 10
205.0
 20
204.0
 30
0.0
 11
435.64338
 21
204.0
 31
0.0
  0
LINE
  8
SIZE
  6
CONTINUOUS
 62
    30
 10
246.0
 20
0.0
 30
0.0
 11
435.64338
 21
0.0
 31
0.0
  0
LINE
  8
SIZE
  6
CONTINUOUS
 62
    30
 10
415.64338
 20
192.0
 30
0.0
 11
415.64338
 21
12.0
 31
0.0
  0
CIRCLE
  8
SIZE
  6
CONTINUOUS
 62
    30
 10
415.64338
 20
204.0
 30
0.0
 40
6.0
  0
LINE
  8
SIZE
  6
CONTINUOUS
 62
    30
 10
415.64338
 20
204.0
 30
0.0
 11
415.64338
 21
192.0
 31
0.0
  0
CIRCLE
  8
SIZE
  6
CONTINUOUS
 62
    30
 10
415.64338
 20
0.0
 30
0.0
 40
6.0
  0
LINE
  8
SIZE
  6
CONTINUOUS
 62
    30
 10
415.64338
 20
0.0
 30
0.0
 11
415.64338
 21
12.0
 31
0.0
  0
TEXT
  8
SIZE
  6
CONTINUOUS
 62
    30
 10
390.64338
 20
20.496
 30
0.0
 40
64.0
  1
204
 50
90.0
 41
0.9
 51
0.0
  7
STANDARD
 71
     0
 72
     1
 11
390.64338
 21
102.0
 31
0.0
210
0.0
220
0.0
230
1.0
  0
POINT
  8
DEFPOINTS
  6
CONTINUOUS
 62
    30
 10
185.0
 20
204.0
 30
0.0
  0
POINT
  8
DEFPOINTS
  6
CONTINUOUS
 62
    30
 10
226.0
 20
0.0
 30
0.0
  0
POINT
  8
DEFPOINTS
  6
CONTINUOUS
 62
    30
 10
415.64338
 20
0.0
 30
0.0
  0
LINE
  8
SIZE
  6
CONTINUOUS
 62
    30
 10
247.5
 20
0.0
 30
0.0
 11
435.64338
 21
0.0
 31
0.0
  0
LINE
  8
SIZE
  6
CONTINUOUS
 62
    30
 10
240.5
 20
-9.0
 30
0.0
 11
435.64338
 21
-9.0
 31
0.0
  0
LINE
  8
SIZE
  6
CONTINUOUS
 62
    30
 10
415.64338
 20
12.0
 30
0.0
 11
415.64338
 21
24.0
 31
0.0
  0
LINE
  8
SIZE
  6
CONTINUOUS
 62
    30
 10
415.64338
 20
-21.0
 30
0.0
 11
415.64338
 21
-33.0
 31
0.0
  0
LINE
  8
SIZE
  6
CONTINUOUS
 62
    30
 10
415.64338
 20
-119.064229
 30
0.0
 11
415.64338
 21
-9.0
 31
0.0
  0
TEXT
  8
SIZE
  6
CONTINUOUS
 62
    30
 10
390.64338
 20
-103.019657
 30
0.0
 40
64.0
  1
9
 50
90.0
 41
0.9
 51
0.0
  7
STANDARD
 71
     0
 72
     1
 11
390.64338
 21
-76.235657
 31
0.0
210
0.0
220
0.0
230
1.0
  0
LINE
  8
SIZE
  6
CONTINUOUS
 62
    30
 10
415.64338
 20
0.0
 30
0.0
 11
415.64338
 21
-9.0
 31
0.0
  0
LINE
  8
SIZE
  6
CONTINUOUS
 62
    30
 10
415.64338
 20
0.0
 30
0.0
 11
415.64338
 21
-9.0
 31
0.0
  0
CIRCLE
  8
SIZE
  6
CONTINUOUS
 62
    30
 10
415.64338
 20
0.0
 30
0.0
 40
6.0
  0
LINE
  8
SIZE
  6
CONTINUOUS
 62
    30
 10
415.64338
 20
0.0
 30
0.0
 11
415.64338
 21
12.0
 31
0.0
  0
CIRCLE
  8
SIZE
  6
CONTINUOUS
 62
    30
 10
415.64338
 20
-9.0
 30
0.0
 40
6.0
  0
LINE
  8
SIZE
  6
CONTINUOUS
 62
    30
 10
415.64338
 20
-9.0
 30
0.0
 11
415.64338
 21
-21.0
 31
0.0
  0
POINT
  8
DEFPOINTS
  6
CONTINUOUS
 62
    30
 10
227.5
 20
0.0
 30
0.0
  0
POINT
  8
DEFPOINTS
  6
CONTINUOUS
 62
    30
 10
220.5
 20
-9.0
 30
0.0
  0
POINT
  8
DEFPOINTS
  6
CONTINUOUS
 62
    30
 10
415.64338
 20
-9.0
 30
0.0
  0
LINE
  8
SIZE
  6
CONTINUOUS
 62
    30
 10
-247.5
 20
0.0
 30
0.0
 11
-491.772098
 21
0.0
 31
0.0
  0
LINE
  8
SIZE
  6
CONTINUOUS
 62
    30
 10
-260.0
 20
147.5
 30
0.0
 11
-491.772098
 21
147.5
 31
0.0
  0
LINE
  8
SIZE
  6
CONTINUOUS
 62
    30
 10
-471.772098
 20
-12.0
 30
0.0
 11
-471.772098
 21
-24.0
 31
0.0
  0
LINE
  8
SIZE
  6
CONTINUOUS
 62
    30
 10
-471.772098
 20
159.5
 30
0.0
 11
-471.772098
 21
171.5
 31
0.0
  0
LINE
  8
SIZE
  6
CONTINUOUS
 62
    30
 10
-471.772098
 20
0.0
 30
0.0
 11
-471.772098
 21
147.5
 31
0.0
  0
CIRCLE
  8
SIZE
  6
CONTINUOUS
 62
    30
 10
-471.772098
 20
0.0
 30
0.0
 40
6.0
  0
LINE
  8
SIZE
  6
CONTINUOUS
 62
    30
 10
-471.772098
 20
0.0
 30
0.0
 11
-471.772098
 21
-12.0
 31
0.0
  0
CIRCLE
  8
SIZE
  6
CONTINUOUS
 62
    30
 10
-471.772098
 20
147.5
 30
0.0
 40
6.0
  0
LINE
  8
SIZE
  6
CONTINUOUS
 62
    30
 10
-471.772098
 20
147.5
 30
0.0
 11
-471.772098
 21
159.5
 31
0.0
  0
TEXT
  8
SIZE
  6
CONTINUOUS
 62
    30
 10
-496.772098
 20
-42.026
 30
0.0
 40
64.0
  1
147.5
 50
90.0
 41
0.9
 51
0.0
  7
STANDARD
 71
     0
 72
     1
 11
-496.772098
 21
73.75
 31
0.0
210
0.0
220
0.0
230
1.0
  0
POINT
  8
DEFPOINTS
  6
CONTINUOUS
 62
    30
 10
-227.5
 20
0.0
 30
0.0
  0
POINT
  8
DEFPOINTS
  6
CONTINUOUS
 62
    30
 10
-240.0
 20
147.5
 30
0.0
  0
POINT
  8
DEFPOINTS
  6
CONTINUOUS
 62
    30
 10
-471.772098
 20
147.5
 30
0.0
  0
LINE
  8
SIZE
  6
CONTINUOUS
 62
    30
 10
220.0
 20
187.5
 30
0.0
 11
220.0
 21
500.139871
 31
0.0
  0
LINE
  8
SIZE
  6
CONTINUOUS
 62
    30
 10
-220.0
 20
187.5
 30
0.0
 11
-220.0
 21
500.139871
 31
0.0
  0
LINE
  8
SIZE
  6
CONTINUOUS
 62
    30
 10
208.0
 20
480.139871
 30
0.0
 11
-208.0
 21
480.139871
 31
0.0
  0
CIRCLE
  8
SIZE
  6
CONTINUOUS
 62
    30
 10
220.0
 20
480.139871
 30
0.0
 40
6.0
  0
LINE
  8
SIZE
  6
CONTINUOUS
 62
    30
 10
220.0
 20
480.139871
 30
0.0
 11
208.0
 21
480.139871
 31
0.0
  0
CIRCLE
  8
SIZE
  6
CONTINUOUS
 62
    30
 10
-220.0
 20
480.139871
 30
0.0
 40
6.0
  0
LINE
  8
SIZE
  6
CONTINUOUS
 62
    30
 10
-220.0
 20
480.139871
 30
0.0
 11
-208.0
 21
480.139871
 31
0.0
  0
TEXT
  8
SIZE
  6
CONTINUOUS
 62
    30
 10
-82.08
 20
505.139871
 30
0.0
 40
64.0
  1
440
 50
0.0
 41
0.9
 51
0.0
  7
STANDARD
 71
     0
 72
     1
 11
0.0
 21
505.139871
 31
0.0
210
0.0
220
0.0
230
1.0
  0
POINT
  8
DEFPOINTS
  6
CONTINUOUS
 62
    30
 10
220.0
 20
167.5
 30
0.0
  0
POINT
  8
DEFPOINTS
  6
CONTINUOUS
 62
    30
 10
-220.0
 20
167.5
 30
0.0
  0
POINT
  8
DEFPOINTS
  6
CONTINUOUS
 62
    30
 10
-220.0
 20
480.139871
 30
0.0
  0
LINE
  8
SIZE
  6
CONTINUOUS
 62
    30
 10
0.0
 20
276.222791
 30
0.0
 11
0.0
 21
374.543197
 31
0.0
  0
LINE
  8
SIZE
  6
CONTINUOUS
 62
    30
 10
33.0
 20
244.0
 30
0.0
 11
33.0
 21
374.543197
 31
0.0
  0
LINE
  8
SIZE
  6
CONTINUOUS
 62
    30
 10
-12.0
 20
354.543197
 30
0.0
 11
-24.0
 21
354.543197
 31
0.0
  0
LINE
  8
SIZE
  6
CONTINUOUS
 62
    30
 10
45.0
 20
354.543197
 30
0.0
 11
57.0
 21
354.543197
 31
0.0
  0
LINE
  8
SIZE
  6
CONTINUOUS
 62
    30
 10
0.0
 20
354.543197
 30
0.0
 11
33.0
 21
354.543197
 31
0.0
  0
CIRCLE
  8
SIZE
  6
CONTINUOUS
 62
    30
 10
0.0
 20
354.543197
 30
0.0
 40
6.0
  0
LINE
  8
SIZE
  6
CONTINUOUS
 62
    30
 10
0.0
 20
354.543197
 30
0.0
 11
-12.0
 21
354.543197
 31
0.0
  0
CIRCLE
  8
SIZE
  6
CONTINUOUS
 62
    30
 10
33.0
 20
354.543197
 30
0.0
 40
6.0
  0
LINE
  8
SIZE
  6
CONTINUOUS
 62
    30
 10
33.0
 20
354.543197
 30
0.0
 11
45.0
 21
354.543197
 31
0.0
  0
TEXT
  8
SIZE
  6
CONTINUOUS
 62
    30
 10
-37.068
 20
379.543197
 30
0.0
 40
64.0
  1
33
 50
0.0
 41
0.9
 51
0.0
  7
STANDARD
 71
     0
 72
     1
 11
16.5
 21
379.543197
 31
0.0
210
0.0
220
0.0
230
1.0
  0
POINT
  8
DEFPOINTS
  6
CONTINUOUS
 62
    30
 10
0.0
 20
256.222791
 30
0.0
  0
POINT
  8
DEFPOINTS
  6
CONTINUOUS
 62
    30
 10
33.0
 20
224.0
 30
0.0
  0
POINT
  8
DEFPOINTS
  6
CONTINUOUS
 62
    30
 10
33.0
 20
354.543197
 30
0.0
  0
LINE
  8
SIZE
  6
CONTINUOUS
 62
    30
 10
150.0
 20
-40.0
 30
0.0
 11
150.0
 21
-237.134547
 31
0.0
  0
LINE
  8
SIZE
  6
CONTINUOUS
 62
    30
 10
-150.0
 20
-40.0
 30
0.0
 11
-150.0
 21
-237.134547
 31
0.0
  0
LINE
  8
SIZE
  6
CONTINUOUS
 62
    30
 10
138.0
 20
-217.134547
 30
0.0
 11
-138.0
 21
-217.134547
 31
0.0
  0
CIRCLE
  8
SIZE
  6
CONTINUOUS
 62
    30
 10
150.0
 20
-217.134547
 30
0.0
 40
6.0
  0
LINE
  8
SIZE
  6
CONTINUOUS
 62
    30
 10
150.0
 20
-217.134547
 30
0.0
 11
138.0
 21
-217.134547
 31
0.0
  0
CIRCLE
  8
SIZE
  6
CONTINUOUS
 62
    30
 10
-150.0
 20
-217.134547
 30
0.0
 40
6.0
  0
LINE
  8
SIZE
  6
CONTINUOUS
 62
    30
 10
-150.0
 20
-217.134547
 30
0.0
 11
-138.0
 21
-217.134547
 31
0.0
  0
TEXT
  8
SIZE
  6
CONTINUOUS
 62
    30
 10
-81.504
 20
-192.134547
 30
0.0
 40
64.0
  1
300
 50
0.0
 41
0.9
 51
0.0
  7
STANDARD
 71
     0
 72
     1
 11
0.0
 21
-192.134547
 31
0.0
210
0.0
220
0.0
230
1.0
  0
POINT
  8
DEFPOINTS
  6
CONTINUOUS
 62
    30
 10
150.0
 20
-20.0
 30
0.0
  0
POINT
  8
DEFPOINTS
  6
CONTINUOUS
 62
    30
 10
-150.0
 20
-20.0
 30
0.0
  0
POINT
  8
DEFPOINTS
  6
CONTINUOUS
 62
    30
 10
-150.0
 20
-217.134547
 30
0.0
  0
LINE
  8
SIZE
  6
CONTINUOUS
 62
    30
 10
193.0
 20
-20.0
 30
0.0
 11
193.0
 21
-363.174464
 31
0.0
  0
LINE
  8
SIZE
  6
CONTINUOUS
 62
    30
 10
-193.0
 20
-20.0
 30
0.0
 11
-193.0
 21
-363.174464
 31
0.0
  0
LINE
  8
SIZE
  6
CONTINUOUS
 62
    30
 10
181.0
 20
-343.174464
 30
0.0
 11
-181.0
 21
-343.174464
 31
0.0
  0
CIRCLE
  8
SIZE
  6
CONTINUOUS
 62
    30
 10
193.0
 20
-343.174464
 30
0.0
 40
6.0
  0
LINE
  8
SIZE
  6
CONTINUOUS
 62
    30
 10
193.0
 20
-343.174464
 30
0.0
 11
181.0
 21
-343.174464
 31
0.0
  0
CIRCLE
  8
SIZE
  6
CONTINUOUS
 62
    30
 10
-193.0
 20
-343.174464
 30
0.0
 40
6.0
  0
LINE
  8
SIZE
  6
CONTINUOUS
 62
    30
 10
-193.0
 20
-343.174464
 30
0.0
 11
-181.0
 21
-343.174464
 31
0.0
  0
TEXT
  8
SIZE
  6
CONTINUOUS
 62
    30
 10
-114.912
 20
-318.174464
 30
0.0
 40
64.0
  1
□386
 50
0.0
 41
0.9
 51
0.0
  7
STANDARD
 71
     0
 72
     1
 11
0.0
 21
-318.174464
 31
0.0
210
0.0
220
0.0
230
1.0
  0
POINT
  8
DEFPOINTS
  6
CONTINUOUS
 62
    30
 10
193.0
 20
0.0
 30
0.0
  0
POINT
  8
DEFPOINTS
  6
CONTINUOUS
 62
    30
 10
-193.0
 20
0.0
 30
0.0
  0
POINT
  8
DEFPOINTS
  6
CONTINUOUS
 62
    30
 10
-193.0
 20
-343.174464
 30
0.0
  0
LINE
  8
SIZE
  6
CONTINUOUS
 62
    30
 10
206.0
 20
-40.0
 30
0.0
 11
206.0
 21
-481.18904
 31
0.0
  0
LINE
  8
SIZE
  6
CONTINUOUS
 62
    30
 10
-206.0
 20
-40.0
 30
0.0
 11
-206.0
 21
-481.18904
 31
0.0
  0
LINE
  8
SIZE
  6
CONTINUOUS
 62
    30
 10
194.0
 20
-461.18904
 30
0.0
 11
-194.0
 21
-461.18904
 31
0.0
  0
CIRCLE
  8
SIZE
  6
CONTINUOUS
 62
    30
 10
206.0
 20
-461.18904
 30
0.0
 40
6.0
  0
LINE
  8
SIZE
  6
CONTINUOUS
 62
    30
 10
206.0
 20
-461.18904
 30
0.0
 11
194.0
 21
-461.18904
 31
0.0
  0
CIRCLE
  8
SIZE
  6
CONTINUOUS
 62
    30
 10
-206.0
 20
-461.18904
 30
0.0
 40
6.0
  0
LINE
  8
SIZE
  6
CONTINUOUS
 62
    30
 10
-206.0
 20
-461.18904
 30
0.0
 11
-194.0
 21
-461.18904
 31
0.0
  0
TEXT
  8
SIZE
  6
CONTINUOUS
 62
    30
 10
-75.168
 20
-436.18904
 30
0.0
 40
64.0
  1
412
 50
0.0
 41
0.9
 51
0.0
  7
STANDARD
 71
     0
 72
     1
 11
0.0
 21
-436.18904
 31
0.0
210
0.0
220
0.0
230
1.0
  0
POINT
  8
DEFPOINTS
  6
CONTINUOUS
 62
    30
 10
206.0
 20
-20.0
 30
0.0
  0
POINT
  8
DEFPOINTS
  6
CONTINUOUS
 62
    30
 10
-206.0
 20
-20.0
 30
0.0
  0
POINT
  8
DEFPOINTS
  6
CONTINUOUS
 62
    30
 10
-206.0
 20
-461.18904
 30
0.0
  0
LINE
  8
SIZE
  6
CONTINUOUS
 62
    30
 10
227.5
 20
-22.0
 30
0.0
 11
227.5
 21
-611.27329
 31
0.0
  0
LINE
  8
SIZE
  6
CONTINUOUS
 62
    30
 10
-227.5
 20
-22.0
 30
0.0
 11
-227.5
 21
-611.27329
 31
0.0
  0
LINE
  8
SIZE
  6
CONTINUOUS
 62
    30
 10
215.5
 20
-591.27329
 30
0.0
 11
-215.5
 21
-591.27329
 31
0.0
  0
CIRCLE
  8
SIZE
  6
CONTINUOUS
 62
    30
 10
227.5
 20
-591.27329
 30
0.0
 40
6.0
  0
LINE
  8
SIZE
  6
CONTINUOUS
 62
    30
 10
227.5
 20
-591.27329
 30
0.0
 11
215.5
 21
-591.27329
 31
0.0
  0
CIRCLE
  8
SIZE
  6
CONTINUOUS
 62
    30
 10
-227.5
 20
-591.27329
 30
0.0
 40
6.0
  0
LINE
  8
SIZE
  6
CONTINUOUS
 62
    30
 10
-227.5
 20
-591.27329
 30
0.0
 11
-215.5
 21
-591.27329
 31
0.0
  0
TEXT
  8
SIZE
  6
CONTINUOUS
 62
    30
 10
-115.488
 20
-566.27329
 30
0.0
 40
64.0
  1
□455
 50
0.0
 41
0.9
 51
0.0
  7
STANDARD
 71
     0
 72
     1
 11
0.0
 21
-566.27329
 31
0.0
210
0.0
220
0.0
230
1.0
  0
POINT
  8
DEFPOINTS
  6
CONTINUOUS
 62
    30
 10
227.5
 20
-2.0
 30
0.0
  0
POINT
  8
DEFPOINTS
  6
CONTINUOUS
 62
    30
 10
-227.5
 20
-2.0
 30
0.0
  0
POINT
  8
DEFPOINTS
  6
CONTINUOUS
 62
    30
 10
-227.5
 20
-591.27329
 30
0.0
  0
LINE
  8
NOTE
  6
CONTINUOUS
 62
     4
 10
-684.613689
 20
-194.580184
 30
0.0
 11
-332.282847
 21
-194.580184
 31
0.0
  0
TEXT
  8
NOTE
  6
CONTINUOUS
 62
     4
 10
-675.221334
 20
-171.193873
 30
0.0
 40
64.0
  1
8-φ5×7
 41
0.9
  0
LINE
  8
NOTE
  6
CONTINUOUS
 62
     4
 10
-206.0
 20
0.0
 30
0.0
 11
-332.282847
 21
-194.580184
 31
0.0
  0
LINE
  8
NOTE
  6
CONTINUOUS
 62
     4
 10
-235.935627
 20
-26.530327
 30
0.0
 11
-206.0
 21
0.0
 31
0.0
  0
LINE
  8
NOTE
  6
CONTINUOUS
 62
     4
 10
-206.0
 20
0.0
 30
0.0
 11
-218.659849
 21
-37.943751
 31
0.0
  0
TEXT
  8
ETC
  6
CONTINUOUS
 62
    61
 10
661.279658
 20
391.714906
 30
0.0
 40
64.0
  1
換気扇
 41
0.9
  0
TEXT
  8
ETC
  6
CONTINUOUS
 62
    61
 10
743.001106
 20
278.770235
 30
0.0
 40
50.0
  1
VL-12ZJ-BR
 41
0.9
  0
TEXT
  8
ETC
  6
CONTINUOUS
 62
    61
 10
669.195365
 20
493.680661
 30
0.0
 40
64.0
  1
VL-12ZJ_3
 41
0.9
  0
ENDSEC
  0
EOF
