  0
SECTION
  2
HEADER
  9
$ACADVER
  1
AC1009
  9
$INSBASE
 10
0.0
 20
0.0
 30
0.0
  9
$EXTMIN
 10
-473.75939499999998
 20
-978.67600399999981
 30
0.0
  9
$EXTMAX
 10
1180.7978883324081
 20
855.94992675435606
 30
0.0
  9
$LIMMIN
 10
-2970.0
 20
-2100.0
  9
$LIMMAX
 10
2970.0
 20
2100.0
  9
$ORTHOMODE
 70
     1
  9
$REGENMODE
 70
     0
  9
$FILLMODE
 70
     1
  9
$QTEXTMODE
 70
     0
  9
$MIRRTEXT
 70
     0
  9
$DRAGMODE
 70
     2
  9
$LTSCALE
 40
20.0
  9
$OSMODE
 70
    41
  9
$ATTMODE
 70
     1
  9
$TEXTSIZE
 40
64.0
  9
$TRACEWID
 40
0.05
  9
$TEXTSTYLE
  7
STANDARD
  9
$CLAYER
  8
0
  9
$CELTYPE
  6
CONTINUOUS
  9
$CECOLOR
 62
     8
  9
$DIMSCALE
 40
1.0
  9
$DIMASZ
 40
2.0
  9
$DIMEXO
 40
20.0
  9
$DIMDLI
 40
200.0
  9
$DIMRND
 40
0.0
  9
$DIMDLE
 40
0.0
  9
$DIMEXE
 40
30.0
  9
$DIMTP
 40
0.0
  9
$DIMTM
 40
0.0
  9
$DIMTXT
 40
64.0
  9
$DIMCEN
 40
0.09
  9
$DIMTSZ
 40
0.0
  9
$DIMTOL
 70
     0
  9
$DIMLIM
 70
     0
  9
$DIMTIH
 70
     0
  9
$DIMTOH
 70
     0
  9
$DIMSE1
 70
     0
  9
$DIMSE2
 70
     0
  9
$DIMTAD
 70
     1
  9
$DIMZIN
 70
     8
  9
$DIMBLK
  1

  9
$DIMASO
 70
     1
  9
$DIMSHO
 70
     0
  9
$DIMPOST
  1

  9
$DIMAPOST
  1

  9
$DIMALT
 70
     0
  9
$DIMALTD
 70
     2
  9
$DIMALTF
 40
25.399999999999999
  9
$DIMLFAC
 40
1.0
  9
$DIMTOFL
 70
     1
  9
$DIMTVP
 40
0.0
  9
$DIMTIX
 70
     1
  9
$DIMSOXD
 70
     0
  9
$DIMSAH
 70
     0
  9
$DIMBLK1
  1

  9
$DIMBLK2
  1

  9
$DIMSTYLE
  2
STANDARD
  9
$DIMCLRD
 70
     0
  9
$DIMCLRE
 70
     0
  9
$DIMCLRT
 70
     0
  9
$DIMTFAC
 40
1.0
  9
$DIMGAP
 40
0.09
  9
$LUNITS
 70
     2
  9
$LUPREC
 70
     4
  9
$SKETCHINC
 40
0.1
  9
$FILLETRAD
 40
15.0
  9
$AUNITS
 70
     1
  9
$AUPREC
 70
     3
  9
$MENU
  1
ACAD
  9
$ELEVATION
 40
0.0
  9
$PELEVATION
 40
0.0
  9
$THICKNESS
 40
0.0
  9
$LIMCHECK
 70
     1
  9
$BLIPMODE
 70
     0
  9
$CHAMFERA
 40
0.0
  9
$CHAMFERB
 40
0.0
  9
$SKPOLY
 70
     0
  9
$TDCREATE
 40
2451120.7058217591
  9
$TDUPDATE
 40
2453759.6585706021
  9
$TDINDWG
 40
0.0062112963
  9
$TDUSRTIMER
 40
0.0062112963
  9
$USRTIMER
 70
     1
  9
$ANGBASE
 50
0.0
  9
$ANGDIR
 70
     0
  9
$PDMODE
 70
     3
  9
$PDSIZE
 40
-2.0
  9
$PLINEWID
 40
0.0
  9
$COORDS
 70
     2
  9
$SPLFRAME
 70
     0
  9
$SPLINETYPE
 70
     6
  9
$SPLINESEGS
 70
     8
  9
$ATTDIA
 70
     0
  9
$ATTREQ
 70
     1
  9
$HANDLING
 70
 22529
  9
$HANDSEED
  5
260
  9
$SURFTAB1
 70
     6
  9
$SURFTAB2
 70
     6
  9
$SURFTYPE
 70
     6
  9
$SURFU
 70
     6
  9
$SURFV
 70
     6
  9
$UCSNAME
  2

  9
$UCSORG
 10
0.0
 20
0.0
 30
0.0
  9
$UCSXDIR
 10
1.0
 20
0.0
 30
0.0
  9
$UCSYDIR
 10
0.0
 20
1.0
 30
0.0
  9
$PUCSNAME
  2

  9
$PUCSORG
 10
0.0
 20
0.0
 30
0.0
  9
$PUCSXDIR
 10
1.0
 20
0.0
 30
0.0
  9
$PUCSYDIR
 10
0.0
 20
1.0
 30
0.0
  9
$USERI1
 70
     0
  9
$USERI2
 70
     0
  9
$USERI3
 70
     0
  9
$USERI4
 70
     0
  9
$USERI5
 70
     0
  9
$USERR1
 40
20.0
  9
$USERR2
 40
0.0
  9
$USERR3
 40
0.0
  9
$USERR4
 40
0.0
  9
$USERR5
 40
0.0
  9
$WORLDVIEW
 70
     1
  9
$SHADEDGE
 70
     3
  9
$SHADEDIF
 70
    70
  9
$TILEMODE
 70
     1
  9
$MAXACTVP
 70
    48
  9
$PLIMCHECK
 70
     0
  9
$PEXTMIN
 10
1.0000000000000000E+020
 20
1.0000000000000000E+020
 30
1.0000000000000000E+020
  9
$PEXTMAX
 10
-1.0000000000000000E+020
 20
-1.0000000000000000E+020
 30
-1.0000000000000000E+020
  9
$PLIMMIN
 10
0.0
 20
0.0
  9
$PLIMMAX
 10
12.0
 20
9.0
  9
$UNITMODE
 70
     0
  9
$VISRETAIN
 70
     1
  9
$PLINEGEN
 70
     0
  9
$PSLTSCALE
 70
     1
  0
ENDSEC
  0
SECTION
  2
TABLES
  0
TABLE
  2
VPORT
 70
    10
  0
VPORT
  2
*ACTIVE
 70
     0
 10
0.0
 20
0.0
 11
1.0
 21
1.0
 12
169.85277023703171
 22
11.433586837839581
 13
0.0
 23
0.0
 14
400.0
 24
400.0
 15
400.0
 25
400.0
 16
0.0
 26
0.0
 36
1.0
 17
0.0
 27
0.0
 37
0.0
 40
2197.587200675679
 41
1.4423558897243101
 42
50.0
 43
0.0
 44
0.0
 50
0.0
 51
0.0
 71
     0
 72
   500
 73
     1
 74
     0
 75
     0
 76
     0
 77
     0
 78
     0
  0
ENDTAB
  0
TABLE
  2
LTYPE
 70
     7
  0
LTYPE
  2
CONTINUOUS
 70
     0
  3
実線
 72
    65
 73
     0
 40
0.0
  0
LTYPE
  2
DOT
 70
     0
  3
...............................................
 72
    65
 73
     2
 40
0.8
 49
0.5
 49
-0.3
  0
LTYPE
  2
DASHED
 70
     0
  3
_ _ _ _ _ _ _ _ _ _ _ _ _ _ _ _ _ _ _ _ _ _ _
 72
    65
 73
     2
 40
2.0
 49
1.1999999999999991
 49
-0.8
  0
LTYPE
  2
DASHDOT
 70
     0
  3
____ _ ____ _ ____ _ ____ _ ____ _ ____ _ ____
 72
    65
 73
     4
 40
5.5
 49
4.0
 49
-0.6
 49
0.3
 49
-0.6
  0
LTYPE
  2
DASHDOT1
 70
     0
  3
____ _ ____ _ ____ _ ____ _ ____ _ ____ _ ____
 72
    65
 73
     4
 40
2.0
 49
1.5
 49
-0.2
 49
0.1
 49
-0.2
  0
LTYPE
  2
DIVIDE
 70
     0
  3
_____ _ _ _____ _ _ _____ _ _ _____ _ _ ____
 72
    65
 73
     6
 40
6.4000000000000004
 49
4.0
 49
-0.6
 49
0.3
 49
-0.6
 49
0.3
 49
-0.6
  0
LTYPE
  2
DIVIDE1
 70
     0
  3
_____ _ _ _____ _ _ _____ _ _ _____ _ _ ____
 72
    65
 73
     6
 40
3.2000000000000002
 49
2.0
 49
-0.3
 49
0.15
 49
-0.3
 49
0.15
 49
-0.3
  0
ENDTAB
  0
TABLE
  2
LAYER
 70
    12
  0
LAYER
  2
0
 70
     0
 62
     7
  6
CONTINUOUS
  0
LAYER
  2
OUTLINE
 70
     0
 62
     3
  6
CONTINUOUS
  0
LAYER
  2
DETAIL
 70
     0
 62
     5
  6
CONTINUOUS
  0
LAYER
  2
BASIS
 70
     0
 62
     6
  6
DASHDOT
  0
LAYER
  2
SIZE
 70
     0
 62
    30
  6
CONTINUOUS
  0
LAYER
  2
NOTE
 70
     0
 62
     4
  6
CONTINUOUS
  0
LAYER
  2
ARRANGE
 70
     0
 62
     1
  6
CONTINUOUS
  0
LAYER
  2
DEFPOINTS
 70
     0
 62
     7
  6
CONTINUOUS
  0
LAYER
  2
ETC
 70
     0
 62
    61
  6
CONTINUOUS
  0
LAYER
  2
FIX
 70
     0
 62
    11
  6
CONTINUOUS
  0
LAYER
  2
SERVICESPACE
 70
     0
 62
     2
  6
DASHDOT
  0
LAYER
  2
SYMBOLLINE
 70
     0
 62
    15
  6
CONTINUOUS
  0
ENDTAB
  0
TABLE
  2
STYLE
 70
     1
  0
STYLE
  2
STANDARD
 70
     0
 40
0.0
 41
0.9
 50
0.0
 71
     0
 42
64.0
  3
SIMPLEX
  4
BIGFONT
  0
ENDTAB
  0
TABLE
  2
VIEW
 70
     1
  0
VIEW
  2
ALL
 70
     0
 40
4508.0208510000002
 10
0.0
 20
41.309903999999989
 41
6252.631578999999
 11
0.0
 21
0.0
 31
1.0
 12
0.0
 22
0.0
 32
0.0
 42
50.0
 43
0.0
 44
0.0
 50
0.0
 71
     0
  0
ENDTAB
  0
TABLE
  2
UCS
 70
     0
  0
ENDTAB
  0
TABLE
  2
APPID
 70
     1
  0
APPID
  2
ACAD
 70
     0
  0
ENDTAB
  0
TABLE
  2
DIMSTYLE
 70
     1
  0
DIMSTYLE
  2
STANDARD
 70
     0
  3

  4

  5

  6

  7

 40
1.0
 41
0.18
 42
0.0625
 43
0.38
 44
0.18
 45
0.0
 46
0.0
 47
0.0
 48
0.0
140
0.18
141
0.09
142
0.0
143
25.399999999999999
144
1.0
145
0.0
146
1.0
147
0.09
 71
     0
 72
     0
 73
     1
 74
     1
 75
     0
 76
     0
 77
     0
 78
     0
170
     0
171
     2
172
     0
173
     0
174
     0
175
     0
176
     0
177
     0
178
     0
  0
ENDTAB
  0
ENDSEC
  0
SECTION
  2
BLOCKS
  0
BLOCK
  8
0
  2
$MODEL_SPACE
 70
     0
 10
0.0
 20
0.0
 30
0.0
  3
$MODEL_SPACE
  1

  0
ENDBLK
  5
20
  8
0
  0
BLOCK
 67
     1
  8
0
  2
$PAPER_SPACE
 70
     0
 10
0.0
 20
0.0
 30
0.0
  3
$PAPER_SPACE
  1

  0
ENDBLK
  5
1C
 67
     1
  8
0
  0
ENDSEC
  0
SECTION
  2
ENTITIES
  0
LINE
  5
38
  8
DETAIL
  6
CONTINUOUS
 62
     5
 10
227.49999999999989
 20
-2.0
 30
0.0
 11
227.49999999999989
 21
0.0
 31
0.0
  0
LINE
  5
39
  8
DETAIL
  6
CONTINUOUS
 62
     5
 10
-227.49999999999989
 20
-2.0
 30
0.0
 11
-227.49999999999989
 21
0.0
 31
0.0
  0
LINE
  5
3A
  8
BASIS
  6
DASHDOT
 62
     6
 10
0.0
 20
-84.944275000000005
 30
0.0
 11
0.0
 21
345.22279099999997
 31
0.0
  0
LINE
  5
3B
  8
DETAIL
  6
CONTINUOUS
 62
     5
 10
-220.5
 20
-9.0
 30
0.0
 11
220.5
 21
-9.0
 31
0.0
  0
LINE
  5
3C
  8
DETAIL
  6
CONTINUOUS
 62
     5
 10
-227.49999999999989
 20
0.0
 30
0.0
 11
227.49999999999989
 21
0.0
 31
0.0
  0
LINE
  5
3D
  8
DETAIL
  6
CONTINUOUS
 62
     5
 10
-185.0
 20
293.0
 30
0.0
 11
185.0
 21
293.0
 31
0.0
  0
ARC
  5
3E
  8
DETAIL
  6
CONTINUOUS
 62
     5
 10
220.5
 20
-2.0
 30
0.0
 40
7.0
 50
270.0
 51
0.0
  0
ARC
  5
3F
  8
DETAIL
  6
CONTINUOUS
 62
     5
 10
-220.5
 20
-2.0
 30
0.0
 40
7.0
 50
180.0
 51
270.0
  0
LINE
  5
40
  8
DETAIL
  6
CONTINUOUS
 62
     5
 10
193.0
 20
0.0
 30
0.0
 11
185.0
 21
293.0
 31
0.0
  0
LINE
  5
41
  8
DETAIL
  6
CONTINUOUS
 62
     5
 10
-193.0
 20
0.0
 30
0.0
 11
-185.0
 21
293.0
 31
0.0
  0
LINE
  5
42
  8
BASIS
  6
DASHDOT
 62
     6
 10
115.0
 20
160.508532
 30
0.0
 11
115.0
 21
279.08988999999991
 31
0.0
  0
LINE
  5
43
  8
BASIS
  6
DASHDOT
 62
     6
 10
-115.0
 20
161.54872
 30
0.0
 11
-115.0
 21
280.13007700000003
 31
0.0
  0
LINE
  5
44
  8
BASIS
  6
DASHDOT
 62
     6
 10
-182.92066
 20
220.0
 30
0.0
 11
-50.81574899999999
 21
220.0
 31
0.0
  0
LINE
  5
45
  8
DETAIL
  6
CONTINUOUS
 62
     5
 10
-157.5
 20
285.0
 30
0.0
 11
-72.5
 21
285.0
 31
0.0
  0
LINE
  5
46
  8
DETAIL
  6
CONTINUOUS
 62
     5
 10
-157.5
 20
155.0
 30
0.0
 11
-72.5
 21
155.0
 31
0.0
  0
CIRCLE
  5
47
  8
DETAIL
  6
CONTINUOUS
 62
     5
 10
-115.0
 20
220.0
 30
0.0
 40
49.0
  0
CIRCLE
  5
48
  8
DETAIL
  6
CONTINUOUS
 62
     5
 10
-115.0
 20
220.0
 30
0.0
 40
52.5
  0
CIRCLE
  5
49
  8
DETAIL
  6
CONTINUOUS
 62
     5
 10
115.0
 20
220.0
 30
0.0
 40
52.5
  0
CIRCLE
  5
4A
  8
DETAIL
  6
CONTINUOUS
 62
     5
 10
115.0
 20
220.0
 30
0.0
 40
49.0
  0
LINE
  5
4B
  8
DETAIL
  6
CONTINUOUS
 62
     5
 10
-172.5
 20
170.0
 30
0.0
 11
-172.5
 21
270.0
 31
0.0
  0
LINE
  5
4C
  8
DETAIL
  6
CONTINUOUS
 62
     5
 10
-57.5
 20
170.0
 30
0.0
 11
-57.5
 21
270.0
 31
0.0
  0
LINE
  5
4D
  8
DETAIL
  6
CONTINUOUS
 62
     5
 10
57.5
 20
170.0
 30
0.0
 11
57.5
 21
270.0
 31
0.0
  0
LINE
  5
4E
  8
DETAIL
  6
CONTINUOUS
 62
     5
 10
172.5
 20
170.0
 30
0.0
 11
172.5
 21
270.0
 31
0.0
  0
LINE
  5
4F
  8
DETAIL
  6
CONTINUOUS
 62
     5
 10
72.5
 20
285.0
 30
0.0
 11
157.5
 21
285.0
 31
0.0
  0
LINE
  5
50
  8
DETAIL
  6
CONTINUOUS
 62
     5
 10
72.5
 20
155.0
 30
0.0
 11
157.5
 21
155.0
 31
0.0
  0
LINE
  5
51
  8
BASIS
  6
DASHDOT
 62
     6
 10
51.123474000000002
 20
220.0
 30
0.0
 11
178.0274039999999
 21
220.0
 31
0.0
  0
ARC
  5
52
  8
DETAIL
  6
CONTINUOUS
 62
     5
 10
-72.5
 20
170.0
 30
0.0
 40
15.0
 50
270.0
 51
0.0
  0
ARC
  5
53
  8
DETAIL
  6
CONTINUOUS
 62
     5
 10
-157.5
 20
170.0
 30
0.0
 40
15.0
 50
180.0
 51
270.0
  0
ARC
  5
54
  8
DETAIL
  6
CONTINUOUS
 62
     5
 10
-157.5
 20
270.0
 30
0.0
 40
15.0
 50
90.0
 51
180.0
  0
ARC
  5
55
  8
DETAIL
  6
CONTINUOUS
 62
     5
 10
-72.5
 20
270.0
 30
0.0
 40
15.0
 50
0.0
 51
90.0
  0
ARC
  5
56
  8
DETAIL
  6
CONTINUOUS
 62
     5
 10
72.5
 20
270.0
 30
0.0
 40
15.0
 50
90.0
 51
180.0
  0
ARC
  5
57
  8
DETAIL
  6
CONTINUOUS
 62
     5
 10
72.5
 20
170.0
 30
0.0
 40
15.0
 50
180.0
 51
270.0
  0
ARC
  5
58
  8
DETAIL
  6
CONTINUOUS
 62
     5
 10
157.5
 20
170.0
 30
0.0
 40
15.0
 50
270.0
 51
0.0
  0
ARC
  5
59
  8
DETAIL
  6
CONTINUOUS
 62
     5
 10
157.5
 20
270.0
 30
0.0
 40
15.0
 50
0.0
 51
90.0
  0
POINT
  5
5A
  8
ARRANGE
  6
CONTINUOUS
 62
     1
 10
0.0
 20
0.0
 30
0.0
  0
CIRCLE
  5
5B
  8
ARRANGE
  6
CONTINUOUS
 62
     1
 10
0.0
 20
0.0
 30
0.0
 40
40.0
  0
LINE
  5
5C
  8
DETAIL
  6
CONTINUOUS
 62
     5
 10
-191.43137300000001
 20
40.0
 30
0.0
 11
191.43137300000001
 21
40.0
 31
0.0
  0
LINE
  5
5D
  8
DETAIL
  6
CONTINUOUS
 62
     5
 10
198.0
 20
137.5
 30
0.0
 11
198.0
 21
147.5
 31
0.0
  0
LINE
  5
5E
  8
DETAIL
  6
CONTINUOUS
 62
     5
 10
241.22824299999999
 20
137.5
 30
0.0
 11
241.22824299999999
 21
147.5
 31
0.0
  0
LINE
  5
5F
  8
DETAIL
  6
CONTINUOUS
 62
     5
 10
-198.0
 20
137.5
 30
0.0
 11
-198.0
 21
147.5
 31
0.0
  0
LINE
  5
60
  8
DETAIL
  6
CONTINUOUS
 62
     5
 10
-241.0
 20
137.5
 30
0.0
 11
-241.0
 21
147.5
 31
0.0
  0
LINE
  5
61
  8
DETAIL
  6
CONTINUOUS
 62
     5
 10
-241.0
 20
147.5
 30
0.0
 11
-198.0
 21
147.5
 31
0.0
  0
LINE
  5
62
  8
DETAIL
  6
CONTINUOUS
 62
     5
 10
-241.0
 20
137.5
 30
0.0
 11
-190.93275
 21
137.5
 31
0.0
  0
LINE
  5
63
  8
DETAIL
  6
CONTINUOUS
 62
     5
 10
198.0
 20
147.5
 30
0.0
 11
241.22824299999999
 21
147.5
 31
0.0
  0
LINE
  5
64
  8
DETAIL
  6
CONTINUOUS
 62
     5
 10
190.93681499999991
 20
137.5
 30
0.0
 11
241.22824299999999
 21
137.5
 31
0.0
  0
LINE
  5
65
  8
DETAIL
  6
CONTINUOUS
 62
     5
 10
-190.93275
 20
76.5
 30
0.0
 11
-190.93275
 21
137.5
 31
0.0
  0
LINE
  5
66
  8
DETAIL
  6
CONTINUOUS
 62
     5
 10
190.93681499999991
 20
76.5
 30
0.0
 11
190.93681499999991
 21
137.5
 31
0.0
  0
LINE
  5
67
  8
DETAIL
  6
CONTINUOUS
 62
     5
 10
-198.0
 20
142.5
 30
0.0
 11
-189.10921499999989
 21
142.5
 31
0.0
  0
LINE
  5
68
  8
DETAIL
  6
CONTINUOUS
 62
     5
 10
189.10921499999989
 20
142.5
 30
0.0
 11
198.0
 21
142.5
 31
0.0
  0
CIRCLE
  5
69
  8
FIX
  6
CONTINUOUS
 62
    11
 10
-220.0
 20
147.5
 30
0.0
 40
6.5
  0
CIRCLE
  5
6A
  8
FIX
  6
CONTINUOUS
 62
    11
 10
220.0
 20
147.5
 30
0.0
 40
6.5
  0
TEXT
  5
6B
  8
NOTE
  6
CONTINUOUS
 62
     4
 10
363.79046
 20
371.08970399999993
 30
0.0
 40
64.0
  1
AH
 41
0.9
  0
LINE
  5
6C
  8
NOTE
  6
CONTINUOUS
 62
     4
 10
488.48942599999998
 20
347.2498129999999
 30
0.0
 11
345.45709399999993
 21
347.2498129999999
 31
0.0
  0
TEXT
  5
6D
  8
NOTE
  6
CONTINUOUS
 62
     4
 10
-436.413522
 20
284.95893399999989
 30
0.0
 40
64.0
  1
AH
 41
0.9
  0
LINE
  5
6E
  8
NOTE
  6
CONTINUOUS
 62
     4
 10
-459.38703099999992
 20
256.23311100000001
 30
0.0
 11
-314.55330499999991
 21
256.23311100000001
 31
0.0
  0
TEXT
  5
6F
  8
NOTE
  6
CONTINUOUS
 62
     4
 10
385.16699299999988
 20
-231.97399999999999
 30
0.0
 40
64.0
  1
8-5×7
 41
0.9
  0
TEXT
  5
70
  8
NOTE
  6
CONTINUOUS
 62
     4
 10
62.125605999999998
 20
326.87211000000002
 30
0.0
 40
64.0
  1
OA
 41
0.9
  0
TEXT
  5
71
  8
NOTE
  6
CONTINUOUS
 62
     4
 10
-160.23468700000001
 20
323.4135839999999
 30
0.0
 40
64.0
  1
EA
 41
0.9
  0
TEXT
  5
72
  8
NOTE
  6
CONTINUOUS
 62
     4
 10
-460.606537
 20
529.37048600000003
 30
0.0
 40
64.0
  1
EL,CL
 41
0.9
  0
LINE
  5
73
  8
NOTE
  6
CONTINUOUS
 62
     4
 10
-236.12043700000001
 20
502.03929099999988
 30
0.0
 11
-473.75939499999998
 21
502.03929099999988
 31
0.0
  0
LINE
  5
74
  8
SIZE
  6
CONTINUOUS
 62
    30
 10
-167.5
 20
-391.09848999999991
 30
0.0
 11
-451.26632799999999
 21
-391.09848999999991
 31
0.0
  0
LINE
  5
75
  8
SIZE
  6
CONTINUOUS
 62
    30
 10
-164.0
 20
-264.69528700000001
 30
0.0
 11
-421.41351700000001
 21
-264.69528700000001
 31
0.0
  0
LINE
  5
76
  8
SIZE
  6
CONTINUOUS
 62
    30
 10
562.87604999999985
 20
-11.0
 30
0.0
 11
562.87604999999985
 21
-107.511382
 31
0.0
  0
LINE
  5
77
  8
NOTE
  6
CONTINUOUS
 62
     4
 10
206.0
 20
0.0
 30
0.0
 11
371.318331
 21
-255.360311
 31
0.0
  0
LINE
  5
78
  8
NOTE
  6
CONTINUOUS
 62
     4
 10
679.75782100000004
 20
-255.360311
 30
0.0
 11
371.318331
 21
-255.360311
 31
0.0
  0
LINE
  5
79
  8
NOTE
  6
CONTINUOUS
 62
     4
 10
-220.0
 20
147.5
 30
0.0
 11
-314.55330499999991
 21
256.23311100000001
 31
0.0
  0
LINE
  5
7A
  8
NOTE
  6
CONTINUOUS
 62
     4
 10
220.0
 20
147.5
 30
0.0
 11
345.45709399999993
 21
347.2498129999999
 31
0.0
  0
LINE
  5
7B
  8
NOTE
  6
CONTINUOUS
 62
     4
 10
33.0
 20
293.0
 30
0.0
 11
-236.12043700000001
 21
502.03929099999988
 31
0.0
  0
CIRCLE
  5
7C
  8
FIX
  6
CONTINUOUS
 62
    11
 10
-206.0
 20
0.0
 30
0.0
 40
2.5
  0
CIRCLE
  5
7D
  8
FIX
  6
CONTINUOUS
 62
    11
 10
-150.0
 20
0.0
 30
0.0
 40
2.5
  0
CIRCLE
  5
7E
  8
FIX
  6
CONTINUOUS
 62
    11
 10
150.0
 20
0.0
 30
0.0
 40
2.5
  0
CIRCLE
  5
7F
  8
FIX
  6
CONTINUOUS
 62
    11
 10
206.0
 20
0.0
 30
0.0
 40
2.5
  0
LINE
  5
80
  8
OUTLINE
  6
CONTINUOUS
 62
     3
 10
-193.0
 20
0.0
 30
0.0
 11
-185.0
 21
293.0
 31
0.0
  0
LINE
  5
81
  8
OUTLINE
  6
CONTINUOUS
 62
     3
 10
193.0
 20
0.0
 30
0.0
 11
185.0
 21
293.0
 31
0.0
  0
ARC
  5
82
  8
OUTLINE
  6
CONTINUOUS
 62
     3
 10
-220.5
 20
-2.0
 30
0.0
 40
7.0
 50
180.0
 51
270.0
  0
ARC
  5
83
  8
OUTLINE
  6
CONTINUOUS
 62
     3
 10
220.5
 20
-2.0
 30
0.0
 40
7.0
 50
270.0
 51
0.0
  0
LINE
  5
84
  8
OUTLINE
  6
CONTINUOUS
 62
     3
 10
-185.0
 20
293.0
 30
0.0
 11
185.0
 21
293.0
 31
0.0
  0
LINE
  5
85
  8
OUTLINE
  6
CONTINUOUS
 62
     3
 10
-227.49999999999989
 20
0.0
 30
0.0
 11
227.49999999999989
 21
0.0
 31
0.0
  0
LINE
  5
86
  8
OUTLINE
  6
CONTINUOUS
 62
     3
 10
-220.5
 20
-9.0
 30
0.0
 11
220.5
 21
-9.0
 31
0.0
  0
LINE
  5
87
  8
OUTLINE
  6
CONTINUOUS
 62
     3
 10
-227.49999999999989
 20
-2.0
 30
0.0
 11
-227.49999999999989
 21
0.0
 31
0.0
  0
LINE
  5
88
  8
OUTLINE
  6
CONTINUOUS
 62
     3
 10
227.49999999999989
 20
-2.0
 30
0.0
 11
227.49999999999989
 21
0.0
 31
0.0
  0
TEXT
  5
89
  8
NOTE
  6
CONTINUOUS
 62
     4
 10
52.358672999999989
 20
-203.586986
 30
0.0
 40
64.0
  1
SA
 41
0.9
  0
TEXT
  5
8A
  8
NOTE
  6
CONTINUOUS
 62
     4
 10
-147.5084709999999
 20
-200.87841900000001
 30
0.0
 40
64.0
  1
RA
 41
0.9
  0
LINE
  5
8B
  8
NOTE
  6
CONTINUOUS
 62
     4
 10
100.6827399999999
 20
-52.210427000000003
 30
0.0
 11
100.6827399999999
 21
-127.210427
 31
0.0
  0
LINE
  5
8C
  8
NOTE
  6
CONTINUOUS
 62
     4
 10
-100.4731349999999
 20
-127.210427
 30
0.0
 11
-100.4731349999999
 21
-52.210427000000003
 31
0.0
  0
LINE
  5
8D
  8
SIZE
  6
BYBLOCK
 62
    30
 10
-62.5
 20
200.0
 30
0.0
 11
-62.5
 21
-421.09849000000003
 31
0.0
  0
LINE
  5
8E
  8
SIZE
  6
BYBLOCK
 62
    30
 10
-167.5
 20
200.0
 30
0.0
 11
-167.5
 21
-421.09849000000003
 31
0.0
  0
LINE
  5
8F
  8
SIZE
  6
BYBLOCK
 62
    30
 10
-169.5
 20
-391.09848999999991
 30
0.0
 11
-171.5
 21
-391.09848999999991
 31
0.0
  0
LINE
  5
90
  8
SIZE
  6
BYBLOCK
 62
    30
 10
-60.5
 20
-391.09848999999991
 30
0.0
 11
-58.5
 21
-391.09848999999991
 31
0.0
  0
LINE
  5
91
  8
SIZE
  6
BYBLOCK
 62
    30
 10
-167.5
 20
-391.09848999999991
 30
0.0
 11
-62.5
 21
-391.09848999999991
 31
0.0
  0
TEXT
  5
92
  8
SIZE
  6
BYBLOCK
 62
    30
 10
-452.48877499999992
 20
-359.09848999999991
 30
0.0
 40
64.0
  1
φ105
 41
0.9
  0
LINE
  5
93
  8
SIZE
  6
BYBLOCK
 62
    30
 10
-66.0
 20
200.0
 30
0.0
 11
-66.0
 21
-294.69528700000001
 31
0.0
  0
LINE
  5
94
  8
SIZE
  6
BYBLOCK
 62
    30
 10
-164.0
 20
200.0
 30
0.0
 11
-164.0
 21
-294.69528700000001
 31
0.0
  0
LINE
  5
95
  8
SIZE
  6
BYBLOCK
 62
    30
 10
-166.0
 20
-264.69528700000001
 30
0.0
 11
-168.0
 21
-264.69528700000001
 31
0.0
  0
LINE
  5
96
  8
SIZE
  6
BYBLOCK
 62
    30
 10
-64.0
 20
-264.69528700000001
 30
0.0
 11
-62.0
 21
-264.69528700000001
 31
0.0
  0
LINE
  5
97
  8
SIZE
  6
BYBLOCK
 62
    30
 10
-164.0
 20
-264.69528700000001
 30
0.0
 11
-66.0
 21
-264.69528700000001
 31
0.0
  0
TEXT
  5
98
  8
SIZE
  6
BYBLOCK
 62
    30
 10
-409.74152699999991
 20
-232.69528699999989
 30
0.0
 40
64.0
  1
φ98
 41
0.9
  0
LINE
  5
99
  8
SIZE
  6
BYBLOCK
 62
    30
 10
220.0
 20
187.5
 30
0.0
 11
220.0
 21
714.09947999999986
 31
0.0
  0
LINE
  5
9A
  8
SIZE
  6
BYBLOCK
 62
    30
 10
-220.0
 20
187.5
 30
0.0
 11
-220.0
 21
714.09947999999986
 31
0.0
  0
LINE
  5
9B
  8
SIZE
  6
BYBLOCK
 62
    30
 10
218.0
 20
684.09947999999986
 30
0.0
 11
0.0
 21
684.09947999999986
 31
0.0
  0
LINE
  5
9C
  8
SIZE
  6
BYBLOCK
 62
    30
 10
-218.0
 20
684.09947999999986
 30
0.0
 11
0.0
 21
684.09947999999986
 31
0.0
  0
TEXT
  5
9D
  8
SIZE
  6
BYBLOCK
 62
    30
 10
-74.057143000000011
 20
717.90364199999999
 30
0.0
 40
64.0
  1
440
 41
0.9
  0
LINE
  5
9E
  8
SIZE
  6
BYBLOCK
 62
    30
 10
-247.5
 20
0.0
 30
0.0
 11
-407.48666199999991
 21
0.0
 31
0.0
  0
LINE
  5
9F
  8
SIZE
  6
BYBLOCK
 62
    30
 10
-260.0
 20
147.5
 30
0.0
 11
-407.48666199999991
 21
147.5
 31
0.0
  0
LINE
  5
A0
  8
SIZE
  6
BYBLOCK
 62
    30
 10
-377.48666200000002
 20
149.5
 30
0.0
 11
-377.48666200000002
 21
151.5
 31
0.0
  0
LINE
  5
A1
  8
SIZE
  6
BYBLOCK
 62
    30
 10
-377.48666200000002
 20
-2.0
 30
0.0
 11
-377.48666200000002
 21
-4.0
 31
0.0
  0
LINE
  5
A2
  8
SIZE
  6
BYBLOCK
 62
    30
 10
-377.48666200000002
 20
147.5
 30
0.0
 11
-377.48666200000002
 21
0.0
 31
0.0
  0
TEXT
  5
A3
  8
SIZE
  6
BYBLOCK
 62
    30
 10
-409.48666200000002
 20
-35.964286000000001
 30
0.0
 40
64.0
  1
147.5
 50
90.0
 41
0.9
  0
LINE
  5
A4
  8
SIZE
  6
BYBLOCK
 62
    30
 10
247.5
 20
0.0
 30
0.0
 11
456.343616
 21
0.0
 31
0.0
  0
LINE
  5
A5
  8
SIZE
  6
BYBLOCK
 62
    30
 10
198.0274039999999
 20
220.0
 30
0.0
 11
456.343616
 21
220.0
 31
0.0
  0
LINE
  5
A6
  8
SIZE
  6
BYBLOCK
 62
    30
 10
426.343616
 20
2.0
 30
0.0
 11
426.343616
 21
218.0
 31
0.0
  0
TEXT
  5
A7
  8
SIZE
  6
BYBLOCK
 62
    30
 10
394.343616
 20
35.942856999999997
 30
0.0
 40
64.0
  1
220
 50
90.0
 41
0.9
  0
LINE
  5
A8
  8
SIZE
  6
BYBLOCK
 62
    30
 10
247.5
 20
0.0
 30
0.0
 11
592.87604999999996
 21
0.0
 31
0.0
  0
LINE
  5
A9
  8
SIZE
  6
BYBLOCK
 62
    30
 10
205.0
 20
293.0
 30
0.0
 11
592.87604999999996
 21
293.0
 31
0.0
  0
LINE
  5
AA
  8
SIZE
  6
BYBLOCK
 62
    30
 10
562.87604999999985
 20
2.0
 30
0.0
 11
562.87604999999985
 21
146.5
 31
0.0
  0
LINE
  5
AB
  8
SIZE
  6
BYBLOCK
 62
    30
 10
562.87604999999985
 20
291.0
 30
0.0
 11
562.87604999999985
 21
146.5
 31
0.0
  0
TEXT
  5
AC
  8
SIZE
  6
BYBLOCK
 62
    30
 10
530.87604999999985
 20
27.942857
 30
0.0
 40
64.0
  1
293
 50
90.0
 41
0.9
  0
LINE
  5
AD
  8
SIZE
  6
BYBLOCK
 62
    30
 10
240.5
 20
-9.0
 30
0.0
 11
592.87604999999996
 21
-9.0
 31
0.0
  0
LINE
  5
AE
  8
SIZE
  6
BYBLOCK
 62
    30
 10
247.5
 20
0.0
 30
0.0
 11
592.87604999999996
 21
0.0
 31
0.0
  0
LINE
  5
AF
  8
SIZE
  6
BYBLOCK
 62
    30
 10
562.87604999999985
 20
2.0
 30
0.0
 11
562.87604999999985
 21
4.0
 31
0.0
  0
LINE
  5
B0
  8
SIZE
  6
BYBLOCK
 62
    30
 10
562.87604999999985
 20
-11.0
 30
0.0
 11
562.87604999999985
 21
-13.0
 31
0.0
  0
LINE
  5
B1
  8
SIZE
  6
BYBLOCK
 62
    30
 10
562.87604999999985
 20
0.0
 30
0.0
 11
562.87604999999985
 21
-9.0
 31
0.0
  0
TEXT
  5
B2
  8
SIZE
  6
BYBLOCK
 62
    30
 10
530.87604999999985
 20
-75.827814000000004
 30
0.0
 40
64.0
  1
9
 50
90.0
 41
0.9
  0
LINE
  5
B3
  8
SIZE
  6
BYBLOCK
 62
    30
 10
193.0
 20
-20.0
 30
0.0
 11
193.0
 21
-711.30356799999993
 31
0.0
  0
LINE
  5
B4
  8
SIZE
  6
BYBLOCK
 62
    30
 10
-193.0
 20
-20.0
 30
0.0
 11
-193.0
 21
-711.30356799999993
 31
0.0
  0
LINE
  5
B5
  8
SIZE
  6
BYBLOCK
 62
    30
 10
191.0
 20
-681.30356799999993
 30
0.0
 11
0.0
 21
-681.30356799999993
 31
0.0
  0
LINE
  5
B6
  8
SIZE
  6
BYBLOCK
 62
    30
 10
-191.0
 20
-681.30356799999993
 30
0.0
 11
0.0
 21
-681.30356799999993
 31
0.0
  0
TEXT
  5
B7
  8
SIZE
  6
BYBLOCK
 62
    30
 10
-105.32571399999991
 20
-649.30356799999993
 30
0.0
 40
64.0
  1
□386
 41
0.9
  0
LINE
  5
B8
  8
SIZE
  6
BYBLOCK
 62
    30
 10
-115.0
 20
300.13007700000003
 30
0.0
 11
-115.0
 21
592.55589400000008
 31
0.0
  0
LINE
  5
B9
  8
SIZE
  6
BYBLOCK
 62
    30
 10
115.0
 20
299.08988999999991
 30
0.0
 11
115.0
 21
592.55589400000008
 31
0.0
  0
LINE
  5
BA
  8
SIZE
  6
BYBLOCK
 62
    30
 10
-113.0
 20
562.55589400000008
 30
0.0
 11
113.0
 21
562.55589400000008
 31
0.0
  0
TEXT
  5
BB
  8
SIZE
  6
BYBLOCK
 62
    30
 10
-74.057143000000011
 20
594.55589399999997
 30
0.0
 40
64.0
  1
230
 41
0.9
  0
LINE
  5
BC
  8
SIZE
  6
BYBLOCK
 62
    30
 10
0.0
 20
365.22279099999997
 30
0.0
 11
0.0
 21
460.8071579999999
 31
0.0
  0
LINE
  5
BD
  8
SIZE
  6
BYBLOCK
 62
    30
 10
33.0
 20
333.0
 30
0.0
 11
33.0
 21
460.8071579999999
 31
0.0
  0
LINE
  5
BE
  8
SIZE
  6
BYBLOCK
 62
    30
 10
35.0
 20
430.80715800000002
 30
0.0
 11
37.0
 21
430.80715800000002
 31
0.0
  0
LINE
  5
BF
  8
SIZE
  6
BYBLOCK
 62
    30
 10
-2.0
 20
430.80715800000002
 30
0.0
 11
-4.0
 21
430.80715800000002
 31
0.0
  0
LINE
  5
C0
  8
SIZE
  6
BYBLOCK
 62
    30
 10
33.0
 20
430.80715800000002
 30
0.0
 11
0.0
 21
430.80715800000002
 31
0.0
  0
TEXT
  5
C1
  8
SIZE
  6
BYBLOCK
 62
    30
 10
-30.128571000000001
 20
462.80715800000002
 30
0.0
 40
64.0
  1
33
 41
0.9
  0
LINE
  5
C2
  8
SIZE
  6
BYBLOCK
 62
    30
 10
227.49999999999989
 20
-22.0
 30
0.0
 11
227.49999999999989
 21
-978.67600399999981
 31
0.0
  0
LINE
  5
C3
  8
SIZE
  6
BYBLOCK
 62
    30
 10
-227.49999999999989
 20
-22.0
 30
0.0
 11
-227.49999999999989
 21
-978.67600399999981
 31
0.0
  0
LINE
  5
C4
  8
SIZE
  6
BYBLOCK
 62
    30
 10
225.49999999999989
 20
-948.67600400000003
 30
0.0
 11
0.0
 21
-948.67600400000003
 31
0.0
  0
LINE
  5
C5
  8
SIZE
  6
BYBLOCK
 62
    30
 10
-225.49999999999989
 20
-948.67600400000003
 30
0.0
 11
0.0
 21
-948.67600400000003
 31
0.0
  0
TEXT
  5
C6
  8
SIZE
  6
BYBLOCK
 62
    30
 10
-106.6971429999999
 20
-916.67600399999992
 30
0.0
 40
64.0
  1
□455
 41
0.9
  0
LINE
  5
C7
  8
SIZE
  6
BYBLOCK
 62
    30
 10
-206.0
 20
-40.0
 30
0.0
 11
-206.0
 21
-835.30237899999986
 31
0.0
  0
LINE
  5
C8
  8
SIZE
  6
BYBLOCK
 62
    30
 10
206.0
 20
-40.0
 30
0.0
 11
206.0
 21
-835.30237899999986
 31
0.0
  0
LINE
  5
C9
  8
SIZE
  6
BYBLOCK
 62
    30
 10
-204.0
 20
-805.30237899999986
 30
0.0
 11
0.0
 21
-805.30237899999986
 31
0.0
  0
LINE
  5
CA
  8
SIZE
  6
BYBLOCK
 62
    30
 10
204.0
 20
-805.30237899999986
 30
0.0
 11
0.0
 21
-805.30237899999986
 31
0.0
  0
TEXT
  5
CB
  8
SIZE
  6
BYBLOCK
 62
    30
 10
-68.571429000000009
 20
-773.30237899999986
 30
0.0
 40
64.0
  1
412
 41
0.9
  0
LINE
  5
CC
  8
SIZE
  6
BYBLOCK
 62
    30
 10
-150.0
 20
-40.0
 30
0.0
 11
-150.0
 21
-579.55483099999992
 31
0.0
  0
LINE
  5
CD
  8
SIZE
  6
BYBLOCK
 62
    30
 10
150.0
 20
-40.0
 30
0.0
 11
150.0
 21
-579.55483099999992
 31
0.0
  0
LINE
  5
CE
  8
SIZE
  6
BYBLOCK
 62
    30
 10
-148.0
 20
-549.55483099999992
 30
0.0
 11
0.0
 21
-549.55483099999992
 31
0.0
  0
LINE
  5
CF
  8
SIZE
  6
BYBLOCK
 62
    30
 10
148.0
 20
-549.55483099999992
 30
0.0
 11
0.0
 21
-549.55483099999992
 31
0.0
  0
TEXT
  5
D0
  8
SIZE
  6
BYBLOCK
 62
    30
 10
-74.057143000000011
 20
-517.55483099999992
 30
0.0
 40
64.0
  1
300
 41
0.9
  0
CIRCLE
  5
D1
  8
SIZE
  6
CONTINUOUS
 62
    30
 10
150.0
 20
-549.55483099999992
 30
0.0
 40
6.0
  0
CIRCLE
  5
D2
  8
SIZE
  6
CONTINUOUS
 62
    30
 10
-150.0
 20
-549.55483099999992
 30
0.0
 40
6.0
  0
CIRCLE
  5
D3
  8
SIZE
  6
CONTINUOUS
 62
    30
 10
206.0
 20
-805.30237899999986
 30
0.0
 40
6.0
  0
CIRCLE
  5
D4
  8
SIZE
  6
CONTINUOUS
 62
    30
 10
-206.0
 20
-805.30237899999986
 30
0.0
 40
6.0
  0
CIRCLE
  5
D5
  8
SIZE
  6
CONTINUOUS
 62
    30
 10
-227.49999999999989
 20
-948.67600400000003
 30
0.0
 40
6.0
  0
CIRCLE
  5
D6
  8
SIZE
  6
CONTINUOUS
 62
    30
 10
227.49999999999989
 20
-948.67600400000003
 30
0.0
 40
6.0
  0
CIRCLE
  5
D7
  8
SIZE
  6
CONTINUOUS
 62
    30
 10
0.0
 20
430.80715800000002
 30
0.0
 40
6.0
  0
CIRCLE
  5
D8
  8
SIZE
  6
CONTINUOUS
 62
    30
 10
33.0
 20
430.80715800000002
 30
0.0
 40
6.0
  0
CIRCLE
  5
D9
  8
SIZE
  6
CONTINUOUS
 62
    30
 10
115.0
 20
562.55589400000008
 30
0.0
 40
6.0
  0
CIRCLE
  5
DA
  8
SIZE
  6
CONTINUOUS
 62
    30
 10
-115.0
 20
562.55589400000008
 30
0.0
 40
6.0
  0
CIRCLE
  5
DB
  8
SIZE
  6
CONTINUOUS
 62
    30
 10
-193.0
 20
-681.30356799999993
 30
0.0
 40
6.0
  0
CIRCLE
  5
DC
  8
SIZE
  6
CONTINUOUS
 62
    30
 10
193.0
 20
-681.30356799999993
 30
0.0
 40
6.0
  0
CIRCLE
  5
DD
  8
SIZE
  6
CONTINUOUS
 62
    30
 10
562.87604999999985
 20
-9.0
 30
0.0
 40
6.0
  0
CIRCLE
  5
DE
  8
SIZE
  6
CONTINUOUS
 62
    30
 10
562.87604999999985
 20
0.0
 30
0.0
 40
6.0
  0
CIRCLE
  5
DF
  8
SIZE
  6
CONTINUOUS
 62
    30
 10
562.87604999999985
 20
293.0
 30
0.0
 40
6.0
  0
CIRCLE
  5
E0
  8
SIZE
  6
CONTINUOUS
 62
    30
 10
562.87604999999985
 20
0.0
 30
0.0
 40
6.0
  0
CIRCLE
  5
E1
  8
SIZE
  6
CONTINUOUS
 62
    30
 10
426.343616
 20
220.0
 30
0.0
 40
6.0
  0
CIRCLE
  5
E2
  8
SIZE
  6
CONTINUOUS
 62
    30
 10
426.343616
 20
0.0
 30
0.0
 40
6.0
  0
CIRCLE
  5
E3
  8
SIZE
  6
CONTINUOUS
 62
    30
 10
-377.48666200000002
 20
0.0
 30
0.0
 40
6.0
  0
CIRCLE
  5
E4
  8
SIZE
  6
CONTINUOUS
 62
    30
 10
-377.48666200000002
 20
147.5
 30
0.0
 40
6.0
  0
CIRCLE
  5
E5
  8
SIZE
  6
CONTINUOUS
 62
    30
 10
-220.0
 20
684.09947999999986
 30
0.0
 40
6.0
  0
CIRCLE
  5
E6
  8
SIZE
  6
CONTINUOUS
 62
    30
 10
220.0
 20
684.09947999999986
 30
0.0
 40
6.0
  0
CIRCLE
  5
E7
  8
SIZE
  6
CONTINUOUS
 62
    30
 10
-66.0
 20
-264.69528700000001
 30
0.0
 40
6.0
  0
CIRCLE
  5
E8
  8
SIZE
  6
CONTINUOUS
 62
    30
 10
-164.0
 20
-264.69528700000001
 30
0.0
 40
6.0
  0
CIRCLE
  5
E9
  8
SIZE
  6
CONTINUOUS
 62
    30
 10
-62.5
 20
-391.09848999999991
 30
0.0
 40
6.0
  0
CIRCLE
  5
EA
  8
SIZE
  6
CONTINUOUS
 62
    30
 10
-167.5
 20
-391.09848999999991
 30
0.0
 40
6.0
  0
LINE
  5
109
  8
NOTE
  6
CONTINUOUS
 62
     4
 10
206.0
 20
-20.0
 30
0.0
 11
206.0
 21
20.0
 31
0.0
  0
LINE
  5
10A
  8
NOTE
  6
CONTINUOUS
 62
     4
 10
186.0
 20
0.0
 30
0.0
 11
226.0
 21
0.0
 31
0.0
  0
LINE
  5
10B
  8
NOTE
  6
CONTINUOUS
 62
     4
 10
150.0
 20
-20.0
 30
0.0
 11
150.0
 21
20.0
 31
0.0
  0
LINE
  5
10C
  8
NOTE
  6
CONTINUOUS
 62
     4
 10
130.0
 20
0.0
 30
0.0
 11
170.0
 21
0.0
 31
0.0
  0
LINE
  5
10D
  8
NOTE
  6
CONTINUOUS
 62
     4
 10
-150.0
 20
-20.0
 30
0.0
 11
-150.0
 21
20.0
 31
0.0
  0
LINE
  5
10E
  8
NOTE
  6
CONTINUOUS
 62
     4
 10
-170.0
 20
0.0
 30
0.0
 11
-130.0
 21
0.0
 31
0.0
  0
LINE
  5
10F
  8
NOTE
  6
CONTINUOUS
 62
     4
 10
-206.0
 20
-20.0
 30
0.0
 11
-206.0
 21
20.0
 31
0.0
  0
LINE
  5
110
  8
NOTE
  6
CONTINUOUS
 62
     4
 10
-226.0
 20
0.0
 30
0.0
 11
-186.0
 21
0.0
 31
0.0
  0
LINE
  5
111
  8
NOTE
  6
CONTINUOUS
 62
     4
 10
33.0
 20
273.0
 30
0.0
 11
33.0
 21
313.0
 31
0.0
  0
LINE
  5
112
  8
NOTE
  6
CONTINUOUS
 62
     4
 10
13.0
 20
293.0
 30
0.0
 11
53.0
 21
293.0
 31
0.0
  0
LINE
  5
113
  8
NOTE
  6
CONTINUOUS
 62
     4
 10
220.0
 20
127.5
 30
0.0
 11
220.0
 21
167.5
 31
0.0
  0
LINE
  5
114
  8
NOTE
  6
CONTINUOUS
 62
     4
 10
200.0
 20
147.5
 30
0.0
 11
240.0
 21
147.5
 31
0.0
  0
LINE
  5
115
  8
NOTE
  6
CONTINUOUS
 62
     4
 10
-220.0
 20
127.5
 30
0.0
 11
-220.0
 21
167.5
 31
0.0
  0
LINE
  5
116
  8
NOTE
  6
CONTINUOUS
 62
     4
 10
-240.0
 20
147.5
 30
0.0
 11
-200.0
 21
147.5
 31
0.0
  0
TEXT
  5
123
  8
ETC
  6
CONTINUOUS
 62
    61
 10
721.55011488239438
 20
417.32403446579309
 30
0.0
 40
50.0
  1
VL-150ZSD2
 41
0.9
  0
TEXT
  5
124
  8
ETC
  6
CONTINUOUS
 62
    61
 10
715.38719307104782
 20
503.63299800389791
 30
0.0
 40
50.0
  1
VL-150ZS2
 41
0.9
  0
TEXT
  5
125
  8
ETC
  6
CONTINUOUS
 62
    61
 10
715.38719307104782
 20
589.81186737778864
 30
0.0
 40
50.0
  1
VL-130ZS2
 41
0.9
  0
TEXT
  5
126
  8
ETC
  6
CONTINUOUS
 62
    61
 10
585.59788833240725
 20
791.94992675435583
 30
0.0
 40
64.0
  1
VL-130ZS2_2
 41
0.9
  0
TEXT
  5
127
  8
ETC
  6
CONTINUOUS
 62
    61
 10
581.41189433240709
 20
677.59131275435584
 30
0.0
 40
64.0
  1
換気扇
 41
0.9
  0
LINE
  5
128
  8
NOTE
  6
CONTINUOUS
 62
     4
 10
-0.459095
 20
314.92005799999998
 30
0.0
 11
33.0
 21
293.0
 31
0.0
  0
LINE
  5
129
  8
NOTE
  6
CONTINUOUS
 62
     4
 10
33.0
 20
293.0
 30
0.0
 11
14.983603
 21
328.71287499999988
 31
0.0
  0
LINE
  5
12A
  8
NOTE
  6
CONTINUOUS
 62
     4
 10
-90.120373000000015
 20
-90.847459999999998
 30
0.0
 11
-100.4731349999999
 21
-52.210427000000003
 31
0.0
  0
LINE
  5
12B
  8
NOTE
  6
CONTINUOUS
 62
     4
 10
-100.4731349999999
 20
-52.210427000000003
 30
0.0
 11
-110.825897
 21
-90.847459999999998
 31
0.0
  0
LINE
  5
12C
  8
NOTE
  6
CONTINUOUS
 62
     4
 10
-252.94765799999999
 20
170.18153100000001
 30
0.0
 11
-220.0
 21
147.5
 31
0.0
  0
LINE
  5
12D
  8
NOTE
  6
CONTINUOUS
 62
     4
 10
-220.0
 20
147.5
 30
0.0
 11
-237.19274299999989
 21
183.61661100000001
 31
0.0
  0
LINE
  5
12E
  8
NOTE
  6
CONTINUOUS
 62
     4
 10
235.93562700000001
 20
-26.530327
 30
0.0
 11
206.0
 21
0.0
 31
0.0
  0
LINE
  5
12F
  8
NOTE
  6
CONTINUOUS
 62
     4
 10
206.0
 20
0.0
 30
0.0
 11
218.65985000000001
 21
-37.943750000000001
 31
0.0
  0
LINE
  5
130
  8
NOTE
  6
CONTINUOUS
 62
     4
 10
90.329977999999997
 20
-88.573393999999979
 30
0.0
 11
100.6827399999999
 21
-127.210427
 31
0.0
  0
LINE
  5
131
  8
NOTE
  6
CONTINUOUS
 62
     4
 10
100.6827399999999
 20
-127.210427
 30
0.0
 11
111.03550199999999
 21
-88.573393999999979
 31
0.0
  0
LINE
  5
132
  8
NOTE
  6
CONTINUOUS
 62
     4
 10
230.729848
 20
186.03401599999989
 30
0.0
 11
220.0
 21
147.5
 31
0.0
  0
LINE
  5
133
  8
NOTE
  6
CONTINUOUS
 62
     4
 10
220.0
 20
147.5
 30
0.0
 11
248.55932899999999
 21
175.50651199999999
 31
0.0
  0
TEXT
  5
177
  8
ETC
  6
CONTINUOUS
 62
    61
 10
724.27562252335463
 20
335.98338573370961
 30
0.0
 40
50.0
  1
VL-250ZSD2
 41
0.9
  0
ENDSEC
  0
EOF
