  0
SECTION
  2
HEADER
  9
$ACADVER
  1
AC1009
  9
$INSBASE
 10
0.0
 20
0.0
 30
0.0
  9
$EXTMIN
 10
-679.75782100000004
 20
-786.18445799999995
 30
0.0
  9
$EXTMAX
 10
1119.3122825510659
 20
725.13549774080275
 30
0.0
  9
$LIMMIN
 10
-2970.0
 20
-2100.0
  9
$LIMMAX
 10
2970.0
 20
2100.0
  9
$ORTHOMODE
 70
     0
  9
$REGENMODE
 70
     0
  9
$FILLMODE
 70
     1
  9
$QTEXTMODE
 70
     0
  9
$MIRRTEXT
 70
     0
  9
$DRAGMODE
 70
     2
  9
$LTSCALE
 40
20.0
  9
$OSMODE
 70
    41
  9
$ATTMODE
 70
     1
  9
$TEXTSIZE
 40
64.0
  9
$TRACEWID
 40
0.05
  9
$TEXTSTYLE
  7
STANDARD
  9
$CLAYER
  8
0
  9
$CELTYPE
  6
CONTINUOUS
  9
$CECOLOR
 62
     8
  9
$DIMSCALE
 40
1.0
  9
$DIMASZ
 40
2.0
  9
$DIMEXO
 40
20.0
  9
$DIMDLI
 40
200.0
  9
$DIMRND
 40
0.0
  9
$DIMDLE
 40
0.0
  9
$DIMEXE
 40
30.0
  9
$DIMTP
 40
0.0
  9
$DIMTM
 40
0.0
  9
$DIMTXT
 40
64.0
  9
$DIMCEN
 40
0.09
  9
$DIMTSZ
 40
0.0
  9
$DIMTOL
 70
     0
  9
$DIMLIM
 70
     0
  9
$DIMTIH
 70
     0
  9
$DIMTOH
 70
     0
  9
$DIMSE1
 70
     0
  9
$DIMSE2
 70
     0
  9
$DIMTAD
 70
     1
  9
$DIMZIN
 70
     8
  9
$DIMBLK
  1

  9
$DIMASO
 70
     1
  9
$DIMSHO
 70
     0
  9
$DIMPOST
  1

  9
$DIMAPOST
  1

  9
$DIMALT
 70
     0
  9
$DIMALTD
 70
     2
  9
$DIMALTF
 40
25.399999999999999
  9
$DIMLFAC
 40
1.0
  9
$DIMTOFL
 70
     1
  9
$DIMTVP
 40
0.0
  9
$DIMTIX
 70
     1
  9
$DIMSOXD
 70
     0
  9
$DIMSAH
 70
     0
  9
$DIMBLK1
  1

  9
$DIMBLK2
  1

  9
$DIMSTYLE
  2
STANDARD
  9
$DIMCLRD
 70
     0
  9
$DIMCLRE
 70
     0
  9
$DIMCLRT
 70
     0
  9
$DIMTFAC
 40
1.0
  9
$DIMGAP
 40
0.09
  9
$LUNITS
 70
     2
  9
$LUPREC
 70
     4
  9
$SKETCHINC
 40
0.1
  9
$FILLETRAD
 40
15.0
  9
$AUNITS
 70
     1
  9
$AUPREC
 70
     3
  9
$MENU
  1
ACAD
  9
$ELEVATION
 40
0.0
  9
$PELEVATION
 40
0.0
  9
$THICKNESS
 40
0.0
  9
$LIMCHECK
 70
     1
  9
$BLIPMODE
 70
     0
  9
$CHAMFERA
 40
0.0
  9
$CHAMFERB
 40
0.0
  9
$SKPOLY
 70
     0
  9
$TDCREATE
 40
2451120.7068865742
  9
$TDUPDATE
 40
2453759.6604050919
  9
$TDINDWG
 40
0.0085827199
  9
$TDUSRTIMER
 40
0.0085825463
  9
$USRTIMER
 70
     1
  9
$ANGBASE
 50
0.0
  9
$ANGDIR
 70
     0
  9
$PDMODE
 70
     3
  9
$PDSIZE
 40
-2.0
  9
$PLINEWID
 40
0.0
  9
$COORDS
 70
     2
  9
$SPLFRAME
 70
     0
  9
$SPLINETYPE
 70
     6
  9
$SPLINESEGS
 70
     8
  9
$ATTDIA
 70
     0
  9
$ATTREQ
 70
     1
  9
$HANDLING
 70
 22529
  9
$HANDSEED
  5
228
  9
$SURFTAB1
 70
     6
  9
$SURFTAB2
 70
     6
  9
$SURFTYPE
 70
     6
  9
$SURFU
 70
     6
  9
$SURFV
 70
     6
  9
$UCSNAME
  2

  9
$UCSORG
 10
0.0
 20
0.0
 30
0.0
  9
$UCSXDIR
 10
1.0
 20
0.0
 30
0.0
  9
$UCSYDIR
 10
0.0
 20
1.0
 30
0.0
  9
$PUCSNAME
  2

  9
$PUCSORG
 10
0.0
 20
0.0
 30
0.0
  9
$PUCSXDIR
 10
1.0
 20
0.0
 30
0.0
  9
$PUCSYDIR
 10
0.0
 20
1.0
 30
0.0
  9
$USERI1
 70
     0
  9
$USERI2
 70
     0
  9
$USERI3
 70
     0
  9
$USERI4
 70
     0
  9
$USERI5
 70
     0
  9
$USERR1
 40
20.0
  9
$USERR2
 40
0.0
  9
$USERR3
 40
0.0
  9
$USERR4
 40
0.0
  9
$USERR5
 40
0.0
  9
$WORLDVIEW
 70
     1
  9
$SHADEDGE
 70
     3
  9
$SHADEDIF
 70
    70
  9
$TILEMODE
 70
     1
  9
$MAXACTVP
 70
    48
  9
$PLIMCHECK
 70
     0
  9
$PEXTMIN
 10
1.0000000000000000E+020
 20
1.0000000000000000E+020
 30
1.0000000000000000E+020
  9
$PEXTMAX
 10
-1.0000000000000000E+020
 20
-1.0000000000000000E+020
 30
-1.0000000000000000E+020
  9
$PLIMMIN
 10
0.0
 20
0.0
  9
$PLIMMAX
 10
12.0
 20
9.0
  9
$UNITMODE
 70
     0
  9
$VISRETAIN
 70
     1
  9
$PLINEGEN
 70
     0
  9
$PSLTSCALE
 70
     1
  0
ENDSEC
  0
SECTION
  2
TABLES
  0
TABLE
  2
VPORT
 70
    10
  0
VPORT
  2
*ACTIVE
 70
     0
 10
0.0
 20
0.0
 11
1.0
 21
1.0
 12
101.1564989212865
 22
-62.184080331458517
 13
0.0
 23
0.0
 14
400.0
 24
400.0
 15
400.0
 25
400.0
 16
0.0
 26
0.0
 36
1.0
 17
0.0
 27
0.0
 37
0.0
 40
2205.3175902789412
 41
1.4423558897243101
 42
50.0
 43
0.0
 44
0.0
 50
0.0
 51
0.0
 71
     0
 72
   500
 73
     1
 74
     0
 75
     0
 76
     0
 77
     0
 78
     0
  0
ENDTAB
  0
TABLE
  2
LTYPE
 70
     7
  0
LTYPE
  2
CONTINUOUS
 70
     0
  3
実線
 72
    65
 73
     0
 40
0.0
  0
LTYPE
  2
DOT
 70
     0
  3
...............................................
 72
    65
 73
     2
 40
0.8
 49
0.5
 49
-0.3
  0
LTYPE
  2
DASHED
 70
     0
  3
_ _ _ _ _ _ _ _ _ _ _ _ _ _ _ _ _ _ _ _ _ _ _
 72
    65
 73
     2
 40
2.0
 49
1.1999999999999991
 49
-0.8
  0
LTYPE
  2
DASHDOT
 70
     0
  3
____ _ ____ _ ____ _ ____ _ ____ _ ____ _ ____
 72
    65
 73
     4
 40
5.5
 49
4.0
 49
-0.6
 49
0.3
 49
-0.6
  0
LTYPE
  2
DASHDOT1
 70
     0
  3
____ _ ____ _ ____ _ ____ _ ____ _ ____ _ ____
 72
    65
 73
     4
 40
2.0
 49
1.5
 49
-0.2
 49
0.1
 49
-0.2
  0
LTYPE
  2
DIVIDE
 70
     0
  3
_____ _ _ _____ _ _ _____ _ _ _____ _ _ ____
 72
    65
 73
     6
 40
6.4000000000000004
 49
4.0
 49
-0.6
 49
0.3
 49
-0.6
 49
0.3
 49
-0.6
  0
LTYPE
  2
DIVIDE1
 70
     0
  3
_____ _ _ _____ _ _ _____ _ _ _____ _ _ ____
 72
    65
 73
     6
 40
3.2000000000000002
 49
2.0
 49
-0.3
 49
0.15
 49
-0.3
 49
0.15
 49
-0.3
  0
ENDTAB
  0
TABLE
  2
LAYER
 70
    12
  0
LAYER
  2
0
 70
     0
 62
     7
  6
CONTINUOUS
  0
LAYER
  2
OUTLINE
 70
     0
 62
     3
  6
CONTINUOUS
  0
LAYER
  2
DETAIL
 70
     0
 62
     5
  6
CONTINUOUS
  0
LAYER
  2
BASIS
 70
     0
 62
     6
  6
DASHDOT
  0
LAYER
  2
SIZE
 70
     0
 62
    30
  6
CONTINUOUS
  0
LAYER
  2
NOTE
 70
     0
 62
     4
  6
CONTINUOUS
  0
LAYER
  2
ARRANGE
 70
     0
 62
     1
  6
CONTINUOUS
  0
LAYER
  2
DEFPOINTS
 70
     0
 62
     7
  6
CONTINUOUS
  0
LAYER
  2
ETC
 70
     0
 62
    61
  6
CONTINUOUS
  0
LAYER
  2
FIX
 70
     0
 62
    11
  6
CONTINUOUS
  0
LAYER
  2
SERVICESPACE
 70
     0
 62
     2
  6
DASHDOT
  0
LAYER
  2
SYMBOLLINE
 70
     0
 62
    15
  6
CONTINUOUS
  0
ENDTAB
  0
TABLE
  2
STYLE
 70
     1
  0
STYLE
  2
STANDARD
 70
     0
 40
0.0
 41
0.9
 50
0.0
 71
     0
 42
64.0
  3
SIMPLEX
  4
BIGFONT
  0
ENDTAB
  0
TABLE
  2
VIEW
 70
     1
  0
VIEW
  2
ALL
 70
     0
 40
4508.0208510000002
 10
0.0
 20
41.309903999999989
 41
6252.631578999999
 11
0.0
 21
0.0
 31
1.0
 12
0.0
 22
0.0
 32
0.0
 42
50.0
 43
0.0
 44
0.0
 50
0.0
 71
     0
  0
ENDTAB
  0
TABLE
  2
UCS
 70
     0
  0
ENDTAB
  0
TABLE
  2
APPID
 70
     1
  0
APPID
  2
ACAD
 70
     0
  0
ENDTAB
  0
TABLE
  2
DIMSTYLE
 70
     1
  0
DIMSTYLE
  2
STANDARD
 70
     0
  3

  4

  5

  6

  7

 40
1.0
 41
0.18
 42
0.0625
 43
0.38
 44
0.18
 45
0.0
 46
0.0
 47
0.0
 48
0.0
140
0.18
141
0.09
142
0.0
143
25.399999999999999
144
1.0
145
0.0
146
1.0
147
0.09
 71
     0
 72
     0
 73
     1
 74
     1
 75
     0
 76
     0
 77
     0
 78
     0
170
     0
171
     2
172
     0
173
     0
174
     0
175
     0
176
     0
177
     0
178
     0
  0
ENDTAB
  0
ENDSEC
  0
SECTION
  2
BLOCKS
  0
BLOCK
  8
0
  2
$MODEL_SPACE
 70
     0
 10
0.0
 20
0.0
 30
0.0
  3
$MODEL_SPACE
  1

  0
ENDBLK
  5
20
  8
0
  0
BLOCK
 67
     1
  8
0
  2
$PAPER_SPACE
 70
     0
 10
0.0
 20
0.0
 30
0.0
  3
$PAPER_SPACE
  1

  0
ENDBLK
  5
1C
 67
     1
  8
0
  0
ENDSEC
  0
SECTION
  2
ENTITIES
  0
LINE
  5
38
  8
DETAIL
  6
CONTINUOUS
 62
     5
 10
-227.49999999999989
 20
-2.0
 30
0.0
 11
-227.49999999999989
 21
0.0
 31
0.0
  0
LINE
  5
39
  8
DETAIL
  6
CONTINUOUS
 62
     5
 10
227.49999999999989
 20
-2.0
 30
0.0
 11
227.49999999999989
 21
0.0
 31
0.0
  0
LINE
  5
3A
  8
BASIS
  6
DASHDOT
 62
     6
 10
0.0
 20
-84.944275000000005
 30
0.0
 11
0.0
 21
345.22279099999997
 31
0.0
  0
LINE
  5
3B
  8
DETAIL
  6
CONTINUOUS
 62
     5
 10
220.5
 20
-9.0
 30
0.0
 11
-220.5
 21
-9.0
 31
0.0
  0
LINE
  5
3C
  8
DETAIL
  6
CONTINUOUS
 62
     5
 10
227.49999999999989
 20
0.0
 30
0.0
 11
-227.49999999999989
 21
0.0
 31
0.0
  0
LINE
  5
3D
  8
DETAIL
  6
CONTINUOUS
 62
     5
 10
185.0
 20
293.0
 30
0.0
 11
-185.0
 21
293.0
 31
0.0
  0
ARC
  5
3E
  8
DETAIL
  6
CONTINUOUS
 62
     5
 10
-220.5
 20
-2.0
 30
0.0
 40
7.0
 50
180.0
 51
270.0
  0
ARC
  5
3F
  8
DETAIL
  6
CONTINUOUS
 62
     5
 10
220.5
 20
-2.0
 30
0.0
 40
7.0
 50
270.0
 51
0.0
  0
LINE
  5
40
  8
DETAIL
  6
CONTINUOUS
 62
     5
 10
-193.0
 20
0.0
 30
0.0
 11
-185.0
 21
293.0
 31
0.0
  0
LINE
  5
41
  8
DETAIL
  6
CONTINUOUS
 62
     5
 10
193.0
 20
0.0
 30
0.0
 11
185.0
 21
293.0
 31
0.0
  0
CIRCLE
  5
42
  8
ARRANGE
  6
CONTINUOUS
 62
     1
 10
0.0
 20
0.0
 30
0.0
 40
40.0
  0
LINE
  5
43
  8
DETAIL
  6
CONTINUOUS
 62
     5
 10
191.43137300000001
 20
40.0
 30
0.0
 11
-191.43137300000001
 21
40.0
 31
0.0
  0
LINE
  5
44
  8
DETAIL
  6
CONTINUOUS
 62
     5
 10
-198.0
 20
137.5
 30
0.0
 11
-198.0
 21
147.5
 31
0.0
  0
LINE
  5
45
  8
DETAIL
  6
CONTINUOUS
 62
     5
 10
-241.22824299999999
 20
137.5
 30
0.0
 11
-241.22824299999999
 21
147.5
 31
0.0
  0
LINE
  5
46
  8
DETAIL
  6
CONTINUOUS
 62
     5
 10
198.0
 20
137.5
 30
0.0
 11
198.0
 21
147.5
 31
0.0
  0
LINE
  5
47
  8
DETAIL
  6
CONTINUOUS
 62
     5
 10
241.0
 20
137.5
 30
0.0
 11
241.0
 21
147.5
 31
0.0
  0
LINE
  5
48
  8
DETAIL
  6
CONTINUOUS
 62
     5
 10
241.0
 20
147.5
 30
0.0
 11
198.0
 21
147.5
 31
0.0
  0
LINE
  5
49
  8
DETAIL
  6
CONTINUOUS
 62
     5
 10
241.0
 20
137.5
 30
0.0
 11
190.93275
 21
137.5
 31
0.0
  0
LINE
  5
4A
  8
DETAIL
  6
CONTINUOUS
 62
     5
 10
-198.0
 20
147.5
 30
0.0
 11
-241.22824299999999
 21
147.5
 31
0.0
  0
LINE
  5
4B
  8
DETAIL
  6
CONTINUOUS
 62
     5
 10
-190.93681499999991
 20
137.5
 30
0.0
 11
-241.22824299999999
 21
137.5
 31
0.0
  0
LINE
  5
4C
  8
DETAIL
  6
CONTINUOUS
 62
     5
 10
190.93275
 20
76.5
 30
0.0
 11
190.93275
 21
137.5
 31
0.0
  0
LINE
  5
4D
  8
DETAIL
  6
CONTINUOUS
 62
     5
 10
-190.93681499999991
 20
76.5
 30
0.0
 11
-190.93681499999991
 21
137.5
 31
0.0
  0
LINE
  5
4E
  8
DETAIL
  6
CONTINUOUS
 62
     5
 10
198.0
 20
142.5
 30
0.0
 11
189.10921499999989
 21
142.5
 31
0.0
  0
LINE
  5
4F
  8
DETAIL
  6
CONTINUOUS
 62
     5
 10
-189.10921499999989
 20
142.5
 30
0.0
 11
-198.0
 21
142.5
 31
0.0
  0
CIRCLE
  5
50
  8
FIX
  6
CONTINUOUS
 62
    11
 10
220.0
 20
147.5
 30
0.0
 40
6.5
  0
CIRCLE
  5
51
  8
FIX
  6
CONTINUOUS
 62
    11
 10
-220.0
 20
147.5
 30
0.0
 40
6.5
  0
TEXT
  5
52
  8
NOTE
  6
CONTINUOUS
 62
     4
 10
-462.53331799999989
 20
371.08970399999993
 30
0.0
 40
64.0
  1
AH
 41
0.9
  0
LINE
  5
53
  8
NOTE
  6
CONTINUOUS
 62
     4
 10
-488.48942599999998
 20
347.2498129999999
 30
0.0
 11
-345.45709399999993
 21
347.2498129999999
 31
0.0
  0
TEXT
  5
54
  8
NOTE
  6
CONTINUOUS
 62
     4
 10
337.67066499999999
 20
284.95893399999989
 30
0.0
 40
64.0
  1
AH
 41
0.9
  0
LINE
  5
55
  8
NOTE
  6
CONTINUOUS
 62
     4
 10
459.38703099999992
 20
256.23311100000001
 30
0.0
 11
314.55330499999991
 21
256.23311100000001
 31
0.0
  0
TEXT
  5
56
  8
NOTE
  6
CONTINUOUS
 62
     4
 10
-673.71556499999997
 20
-231.97399999999999
 30
0.0
 40
64.0
  1
8-5×7
 41
0.9
  0
TEXT
  5
57
  8
NOTE
  6
CONTINUOUS
 62
     4
 10
-507.76521500000001
 20
502.95927899999992
 30
0.0
 40
64.0
  1
EL,CL
 41
0.9
  0
LINE
  5
58
  8
NOTE
  6
CONTINUOUS
 62
     4
 10
-530.13794199999995
 20
472.7134099999999
 30
0.0
 11
-275.29061799999999
 21
472.7134099999999
 31
0.0
  0
LINE
  5
59
  8
SIZE
  6
CONTINUOUS
 62
    30
 10
-378.25685099999993
 20
-13.0
 30
0.0
 11
-378.25685099999993
 21
-109.511382
 31
0.0
  0
LINE
  5
5A
  8
NOTE
  6
CONTINUOUS
 62
     4
 10
-206.0
 20
0.0
 30
0.0
 11
-371.318331
 21
-255.360311
 31
0.0
  0
LINE
  5
5B
  8
NOTE
  6
CONTINUOUS
 62
     4
 10
-679.75782100000004
 20
-255.360311
 30
0.0
 11
-371.318331
 21
-255.360311
 31
0.0
  0
LINE
  5
5C
  8
NOTE
  6
CONTINUOUS
 62
     4
 10
220.0
 20
147.5
 30
0.0
 11
314.55330499999991
 21
256.23311100000001
 31
0.0
  0
LINE
  5
5D
  8
NOTE
  6
CONTINUOUS
 62
     4
 10
-220.0
 20
147.5
 30
0.0
 11
-345.45709399999993
 21
347.2498129999999
 31
0.0
  0
LINE
  5
5E
  8
NOTE
  6
CONTINUOUS
 62
     4
 10
-33.0
 20
293.0
 30
0.0
 11
-275.29061799999999
 21
472.7134099999999
 31
0.0
  0
CIRCLE
  5
5F
  8
FIX
  6
CONTINUOUS
 62
    11
 10
206.0
 20
0.0
 30
0.0
 40
2.5
  0
CIRCLE
  5
60
  8
FIX
  6
CONTINUOUS
 62
    11
 10
150.0
 20
0.0
 30
0.0
 40
2.5
  0
CIRCLE
  5
61
  8
FIX
  6
CONTINUOUS
 62
    11
 10
-150.0
 20
0.0
 30
0.0
 40
2.5
  0
CIRCLE
  5
62
  8
FIX
  6
CONTINUOUS
 62
    11
 10
-206.0
 20
0.0
 30
0.0
 40
2.5
  0
LINE
  5
63
  8
OUTLINE
  6
CONTINUOUS
 62
     3
 10
193.0
 20
0.0
 30
0.0
 11
185.0
 21
293.0
 31
0.0
  0
LINE
  5
64
  8
OUTLINE
  6
CONTINUOUS
 62
     3
 10
-193.0
 20
0.0
 30
0.0
 11
-185.0
 21
293.0
 31
0.0
  0
ARC
  5
65
  8
OUTLINE
  6
CONTINUOUS
 62
     3
 10
220.5
 20
-2.0
 30
0.0
 40
7.0
 50
270.0
 51
0.0
  0
ARC
  5
66
  8
OUTLINE
  6
CONTINUOUS
 62
     3
 10
-220.5
 20
-2.0
 30
0.0
 40
7.0
 50
180.0
 51
270.0
  0
LINE
  5
67
  8
OUTLINE
  6
CONTINUOUS
 62
     3
 10
185.0
 20
293.0
 30
0.0
 11
-185.0
 21
293.0
 31
0.0
  0
LINE
  5
68
  8
OUTLINE
  6
CONTINUOUS
 62
     3
 10
227.49999999999989
 20
0.0
 30
0.0
 11
-227.49999999999989
 21
0.0
 31
0.0
  0
LINE
  5
69
  8
OUTLINE
  6
CONTINUOUS
 62
     3
 10
220.5
 20
-9.0
 30
0.0
 11
-220.5
 21
-9.0
 31
0.0
  0
LINE
  5
6A
  8
OUTLINE
  6
CONTINUOUS
 62
     3
 10
227.49999999999989
 20
-2.0
 30
0.0
 11
227.49999999999989
 21
0.0
 31
0.0
  0
LINE
  5
6B
  8
OUTLINE
  6
CONTINUOUS
 62
     3
 10
-227.49999999999989
 20
-2.0
 30
0.0
 11
-227.49999999999989
 21
0.0
 31
0.0
  0
TEXT
  5
6C
  8
NOTE
  6
CONTINUOUS
 62
     4
 10
-143.53328499999989
 20
-184.912363
 30
0.0
 40
64.0
  1
SA
 41
0.9
  0
LINE
  5
6D
  8
NOTE
  6
CONTINUOUS
 62
     4
 10
-93.114495000000005
 20
-33.535803999999999
 30
0.0
 11
-93.114495000000005
 21
-108.535804
 31
0.0
  0
LINE
  5
6E
  8
NOTE
  6
CONTINUOUS
 62
     4
 10
91.984084999999993
 20
-108.535804
 30
0.0
 11
91.984084999999993
 21
-33.535803999999999
 31
0.0
  0
TEXT
  5
6F
  8
NOTE
  6
CONTINUOUS
 62
     4
 10
40.130496000000001
 20
-182.2037959999999
 30
0.0
 40
64.0
  1
RA
 41
0.9
  0
POINT
  5
70
  8
ARRANGE
  6
CONTINUOUS
 62
     1
 10
0.0
 20
0.0
 30
0.0
  0
LINE
  5
71
  8
SIZE
  6
BYBLOCK
 62
    30
 10
-205.0
 20
293.0
 30
0.0
 11
-408.25685099999993
 21
293.0
 31
0.0
  0
LINE
  5
72
  8
SIZE
  6
BYBLOCK
 62
    30
 10
-247.5
 20
0.0
 30
0.0
 11
-408.25685099999993
 21
0.0
 31
0.0
  0
LINE
  5
73
  8
SIZE
  6
BYBLOCK
 62
    30
 10
-378.25685099999993
 20
291.0
 30
0.0
 11
-378.25685099999993
 21
146.5
 31
0.0
  0
LINE
  5
74
  8
SIZE
  6
BYBLOCK
 62
    30
 10
-378.25685099999993
 20
2.0
 30
0.0
 11
-378.25685099999993
 21
146.5
 31
0.0
  0
TEXT
  5
75
  8
SIZE
  6
BYBLOCK
 62
    30
 10
-410.25685099999998
 20
72.442856999999975
 30
0.0
 40
64.0
  1
293
 50
90.0
 41
0.9
  0
LINE
  5
76
  8
SIZE
  6
BYBLOCK
 62
    30
 10
-246.0
 20
0.0
 30
0.0
 11
-408.25685099999993
 21
0.0
 31
0.0
  0
LINE
  5
77
  8
SIZE
  6
BYBLOCK
 62
    30
 10
-240.5
 20
-9.0
 30
0.0
 11
-408.25685099999993
 21
-9.0
 31
0.0
  0
LINE
  5
78
  8
SIZE
  6
BYBLOCK
 62
    30
 10
-378.25685099999993
 20
-11.0
 30
0.0
 11
-378.25685099999993
 21
-13.0
 31
0.0
  0
LINE
  5
79
  8
SIZE
  6
BYBLOCK
 62
    30
 10
-378.25685099999993
 20
2.0
 30
0.0
 11
-378.25685099999993
 21
4.0
 31
0.0
  0
LINE
  5
7A
  8
SIZE
  6
BYBLOCK
 62
    30
 10
-378.25685099999993
 20
-9.0
 30
0.0
 11
-378.25685099999993
 21
0.0
 31
0.0
  0
TEXT
  5
7B
  8
SIZE
  6
BYBLOCK
 62
    30
 10
-410.25685099999998
 20
-81.815866999999997
 30
0.0
 40
64.0
  1
9
 50
90.0
 41
0.9
  0
LINE
  5
7C
  8
SIZE
  6
BYBLOCK
 62
    30
 10
246.0
 20
0.0
 30
0.0
 11
476.73243400000001
 21
0.0
 31
0.0
  0
LINE
  5
7D
  8
SIZE
  6
BYBLOCK
 62
    30
 10
260.0
 20
147.5
 30
0.0
 11
476.73243400000001
 21
147.5
 31
0.0
  0
LINE
  5
7E
  8
SIZE
  6
BYBLOCK
 62
    30
 10
446.73243400000001
 20
149.5
 30
0.0
 11
446.73243400000001
 21
151.5
 31
0.0
  0
LINE
  5
7F
  8
SIZE
  6
BYBLOCK
 62
    30
 10
446.73243400000001
 20
-2.0
 30
0.0
 11
446.73243400000001
 21
-4.0
 31
0.0
  0
LINE
  5
80
  8
SIZE
  6
BYBLOCK
 62
    30
 10
446.73243400000001
 20
147.5
 30
0.0
 11
446.73243400000001
 21
0.0
 31
0.0
  0
TEXT
  5
81
  8
SIZE
  6
BYBLOCK
 62
    30
 10
414.7324339999999
 20
-26.703925000000002
 30
0.0
 40
64.0
  1
147.5
 50
90.0
 41
0.9
  0
LINE
  5
82
  8
SIZE
  6
BYBLOCK
 62
    30
 10
-220.0
 20
187.5
 30
0.0
 11
-220.0
 21
588.76849500000003
 31
0.0
  0
LINE
  5
83
  8
SIZE
  6
BYBLOCK
 62
    30
 10
220.0
 20
187.5
 30
0.0
 11
220.0
 21
588.76849500000003
 31
0.0
  0
LINE
  5
84
  8
SIZE
  6
BYBLOCK
 62
    30
 10
-218.0
 20
558.76849500000003
 30
0.0
 11
0.0
 21
558.76849500000003
 31
0.0
  0
LINE
  5
85
  8
SIZE
  6
BYBLOCK
 62
    30
 10
218.0
 20
558.76849500000003
 30
0.0
 11
0.0
 21
558.76849500000003
 31
0.0
  0
TEXT
  5
86
  8
SIZE
  6
BYBLOCK
 62
    30
 10
-74.057143000000011
 20
592.57265700000005
 30
0.0
 40
64.0
  1
440
 41
0.9
  0
LINE
  5
87
  8
SIZE
  6
BYBLOCK
 62
    30
 10
-193.0
 20
-20.0
 30
0.0
 11
-193.0
 21
-518.81202199999996
 31
0.0
  0
LINE
  5
88
  8
SIZE
  6
BYBLOCK
 62
    30
 10
193.0
 20
-20.0
 30
0.0
 11
193.0
 21
-518.81202199999996
 31
0.0
  0
LINE
  5
89
  8
SIZE
  6
BYBLOCK
 62
    30
 10
-191.0
 20
-488.8120219999999
 30
0.0
 11
0.0
 21
-488.8120219999999
 31
0.0
  0
LINE
  5
8A
  8
SIZE
  6
BYBLOCK
 62
    30
 10
191.0
 20
-488.8120219999999
 30
0.0
 11
0.0
 21
-488.8120219999999
 31
0.0
  0
TEXT
  5
8B
  8
SIZE
  6
BYBLOCK
 62
    30
 10
-105.32571399999991
 20
-456.8120219999999
 30
0.0
 40
64.0
  1
□386
 41
0.9
  0
LINE
  5
8C
  8
SIZE
  6
BYBLOCK
 62
    30
 10
0.0
 20
365.22279099999997
 30
0.0
 11
0.0
 21
460.8071579999999
 31
0.0
  0
LINE
  5
8D
  8
SIZE
  6
BYBLOCK
 62
    30
 10
-33.0
 20
333.0
 30
0.0
 11
-33.0
 21
460.8071579999999
 31
0.0
  0
LINE
  5
8E
  8
SIZE
  6
BYBLOCK
 62
    30
 10
-35.0
 20
430.80715800000002
 30
0.0
 11
-37.0
 21
430.80715800000002
 31
0.0
  0
LINE
  5
8F
  8
SIZE
  6
BYBLOCK
 62
    30
 10
2.0
 20
430.80715800000002
 30
0.0
 11
4.0
 21
430.80715800000002
 31
0.0
  0
LINE
  5
90
  8
SIZE
  6
BYBLOCK
 62
    30
 10
-33.0
 20
430.80715800000002
 30
0.0
 11
0.0
 21
430.80715800000002
 31
0.0
  0
TEXT
  5
91
  8
SIZE
  6
BYBLOCK
 62
    30
 10
-63.128570999999987
 20
462.80715800000002
 30
0.0
 40
64.0
  1
33
 41
0.9
  0
LINE
  5
92
  8
SIZE
  6
BYBLOCK
 62
    30
 10
-227.49999999999989
 20
-22.0
 30
0.0
 11
-227.49999999999989
 21
-786.18445799999995
 31
0.0
  0
LINE
  5
93
  8
SIZE
  6
BYBLOCK
 62
    30
 10
227.49999999999989
 20
-22.0
 30
0.0
 11
227.49999999999989
 21
-786.18445799999995
 31
0.0
  0
LINE
  5
94
  8
SIZE
  6
BYBLOCK
 62
    30
 10
-225.49999999999989
 20
-756.18445799999995
 30
0.0
 11
0.0
 21
-756.18445799999995
 31
0.0
  0
LINE
  5
95
  8
SIZE
  6
BYBLOCK
 62
    30
 10
225.49999999999989
 20
-756.18445799999995
 30
0.0
 11
0.0
 21
-756.18445799999995
 31
0.0
  0
TEXT
  5
96
  8
SIZE
  6
BYBLOCK
 62
    30
 10
-106.6971429999999
 20
-724.18445799999995
 30
0.0
 40
64.0
  1
□455
 41
0.9
  0
LINE
  5
97
  8
SIZE
  6
BYBLOCK
 62
    30
 10
206.0
 20
-40.0
 30
0.0
 11
206.0
 21
-642.810833
 31
0.0
  0
LINE
  5
98
  8
SIZE
  6
BYBLOCK
 62
    30
 10
-206.0
 20
-40.0
 30
0.0
 11
-206.0
 21
-642.810833
 31
0.0
  0
LINE
  5
99
  8
SIZE
  6
BYBLOCK
 62
    30
 10
204.0
 20
-612.81083299999989
 30
0.0
 11
0.0
 21
-612.81083299999989
 31
0.0
  0
LINE
  5
9A
  8
SIZE
  6
BYBLOCK
 62
    30
 10
-204.0
 20
-612.81083299999989
 30
0.0
 11
0.0
 21
-612.81083299999989
 31
0.0
  0
TEXT
  5
9B
  8
SIZE
  6
BYBLOCK
 62
    30
 10
-68.571429000000009
 20
-580.810833
 30
0.0
 40
64.0
  1
412
 41
0.9
  0
LINE
  5
9C
  8
SIZE
  6
BYBLOCK
 62
    30
 10
150.0
 20
-40.0
 30
0.0
 11
150.0
 21
-387.06328500000001
 31
0.0
  0
LINE
  5
9D
  8
SIZE
  6
BYBLOCK
 62
    30
 10
-150.0
 20
-40.0
 30
0.0
 11
-150.0
 21
-387.06328500000001
 31
0.0
  0
LINE
  5
9E
  8
SIZE
  6
BYBLOCK
 62
    30
 10
148.0
 20
-357.06328499999989
 30
0.0
 11
0.0
 21
-357.06328499999989
 31
0.0
  0
LINE
  5
9F
  8
SIZE
  6
BYBLOCK
 62
    30
 10
-148.0
 20
-357.06328499999989
 30
0.0
 11
0.0
 21
-357.06328499999989
 31
0.0
  0
TEXT
  5
A0
  8
SIZE
  6
BYBLOCK
 62
    30
 10
-74.057143000000011
 20
-325.06328500000001
 30
0.0
 40
64.0
  1
300
 41
0.9
  0
CIRCLE
  5
A1
  8
SIZE
  6
CONTINUOUS
 62
    30
 10
-150.0
 20
-357.06328499999989
 30
0.0
 40
6.0
  0
CIRCLE
  5
A2
  8
SIZE
  6
CONTINUOUS
 62
    30
 10
150.0
 20
-357.06328499999989
 30
0.0
 40
6.0
  0
CIRCLE
  5
A3
  8
SIZE
  6
CONTINUOUS
 62
    30
 10
-206.0
 20
-612.81083299999989
 30
0.0
 40
6.0
  0
CIRCLE
  5
A4
  8
SIZE
  6
CONTINUOUS
 62
    30
 10
206.0
 20
-612.81083299999989
 30
0.0
 40
6.0
  0
CIRCLE
  5
A5
  8
SIZE
  6
CONTINUOUS
 62
    30
 10
227.49999999999989
 20
-756.18445799999995
 30
0.0
 40
6.0
  0
CIRCLE
  5
A6
  8
SIZE
  6
CONTINUOUS
 62
    30
 10
-227.49999999999989
 20
-756.18445799999995
 30
0.0
 40
6.0
  0
CIRCLE
  5
A7
  8
SIZE
  6
CONTINUOUS
 62
    30
 10
0.0
 20
430.80715800000002
 30
0.0
 40
6.0
  0
CIRCLE
  5
A8
  8
SIZE
  6
CONTINUOUS
 62
    30
 10
-33.0
 20
430.80715800000002
 30
0.0
 40
6.0
  0
CIRCLE
  5
A9
  8
SIZE
  6
CONTINUOUS
 62
    30
 10
193.0
 20
-488.8120219999999
 30
0.0
 40
6.0
  0
CIRCLE
  5
AA
  8
SIZE
  6
CONTINUOUS
 62
    30
 10
-193.0
 20
-488.8120219999999
 30
0.0
 40
6.0
  0
CIRCLE
  5
AB
  8
SIZE
  6
CONTINUOUS
 62
    30
 10
220.0
 20
558.76849500000003
 30
0.0
 40
6.0
  0
CIRCLE
  5
AC
  8
SIZE
  6
CONTINUOUS
 62
    30
 10
-220.0
 20
558.76849500000003
 30
0.0
 40
6.0
  0
CIRCLE
  5
AD
  8
SIZE
  6
CONTINUOUS
 62
    30
 10
446.73243400000001
 20
0.0
 30
0.0
 40
6.0
  0
CIRCLE
  5
AE
  8
SIZE
  6
CONTINUOUS
 62
    30
 10
446.73243400000001
 20
147.5
 30
0.0
 40
6.0
  0
CIRCLE
  5
AF
  8
SIZE
  6
CONTINUOUS
 62
    30
 10
-378.25685099999993
 20
0.0
 30
0.0
 40
6.0
  0
CIRCLE
  5
B0
  8
SIZE
  6
CONTINUOUS
 62
    30
 10
-378.25685099999993
 20
-9.0
 30
0.0
 40
6.0
  0
CIRCLE
  5
B1
  8
SIZE
  6
CONTINUOUS
 62
    30
 10
-378.25685099999993
 20
0.0
 30
0.0
 40
6.0
  0
CIRCLE
  5
B2
  8
SIZE
  6
CONTINUOUS
 62
    30
 10
-378.25685099999993
 20
293.0
 30
0.0
 40
6.0
  0
LINE
  5
D1
  8
NOTE
  6
CONTINUOUS
 62
     4
 10
-206.0
 20
-20.0
 30
0.0
 11
-206.0
 21
20.0
 31
0.0
  0
LINE
  5
D2
  8
NOTE
  6
CONTINUOUS
 62
     4
 10
-186.0
 20
0.0
 30
0.0
 11
-226.0
 21
0.0
 31
0.0
  0
LINE
  5
D3
  8
NOTE
  6
CONTINUOUS
 62
     4
 10
-150.0
 20
-20.0
 30
0.0
 11
-150.0
 21
20.0
 31
0.0
  0
LINE
  5
D4
  8
NOTE
  6
CONTINUOUS
 62
     4
 10
-130.0
 20
0.0
 30
0.0
 11
-170.0
 21
0.0
 31
0.0
  0
LINE
  5
D5
  8
NOTE
  6
CONTINUOUS
 62
     4
 10
150.0
 20
-20.0
 30
0.0
 11
150.0
 21
20.0
 31
0.0
  0
LINE
  5
D6
  8
NOTE
  6
CONTINUOUS
 62
     4
 10
170.0
 20
0.0
 30
0.0
 11
130.0
 21
0.0
 31
0.0
  0
LINE
  5
D7
  8
NOTE
  6
CONTINUOUS
 62
     4
 10
206.0
 20
-20.0
 30
0.0
 11
206.0
 21
20.0
 31
0.0
  0
LINE
  5
D8
  8
NOTE
  6
CONTINUOUS
 62
     4
 10
226.0
 20
0.0
 30
0.0
 11
186.0
 21
0.0
 31
0.0
  0
LINE
  5
D9
  8
NOTE
  6
CONTINUOUS
 62
     4
 10
-33.0
 20
273.0
 30
0.0
 11
-33.0
 21
313.0
 31
0.0
  0
LINE
  5
DA
  8
NOTE
  6
CONTINUOUS
 62
     4
 10
-13.0
 20
293.0
 30
0.0
 11
-53.0
 21
293.0
 31
0.0
  0
LINE
  5
DB
  8
NOTE
  6
CONTINUOUS
 62
     4
 10
-220.0
 20
127.5
 30
0.0
 11
-220.0
 21
167.5
 31
0.0
  0
LINE
  5
DC
  8
NOTE
  6
CONTINUOUS
 62
     4
 10
-200.0
 20
147.5
 30
0.0
 11
-240.0
 21
147.5
 31
0.0
  0
LINE
  5
DD
  8
NOTE
  6
CONTINUOUS
 62
     4
 10
220.0
 20
127.5
 30
0.0
 11
220.0
 21
167.5
 31
0.0
  0
LINE
  5
DE
  8
NOTE
  6
CONTINUOUS
 62
     4
 10
240.0
 20
147.5
 30
0.0
 11
200.0
 21
147.5
 31
0.0
  0
TEXT
  5
EB
  8
ETC
  6
CONTINUOUS
 62
    61
 10
660.0645091010532
 20
286.50960545223978
 30
0.0
 40
50.0
  1
VL-150ZSD2
 41
0.9
  0
TEXT
  5
EC
  8
ETC
  6
CONTINUOUS
 62
    61
 10
653.90158728970653
 20
372.8185689903446
 30
0.0
 40
50.0
  1
VL-150ZS2
 41
0.9
  0
TEXT
  5
ED
  8
ETC
  6
CONTINUOUS
 62
    61
 10
653.90158728970653
 20
458.99743836423539
 30
0.0
 40
50.0
  1
VL-130ZS2
 41
0.9
  0
TEXT
  5
EE
  8
ETC
  6
CONTINUOUS
 62
    61
 10
524.11228255106585
 20
661.13549774080252
 30
0.0
 40
64.0
  1
VL-130ZS2_3
 41
0.9
  0
TEXT
  5
EF
  8
ETC
  6
CONTINUOUS
 62
    61
 10
519.92628855106591
 20
546.77688374080253
 30
0.0
 40
64.0
  1
換気扇
 41
0.9
  0
LINE
  5
F0
  8
NOTE
  6
CONTINUOUS
 62
     4
 10
-235.93562700000001
 20
-26.530327
 30
0.0
 11
-206.0
 21
0.0
 31
0.0
  0
LINE
  5
F1
  8
NOTE
  6
CONTINUOUS
 62
     4
 10
-206.0
 20
0.0
 30
0.0
 11
-218.65985000000001
 21
-37.943750000000001
 31
0.0
  0
LINE
  5
F2
  8
NOTE
  6
CONTINUOUS
 62
     4
 10
-82.76173399999999
 20
-69.898770999999996
 30
0.0
 11
-93.114495000000005
 21
-108.535804
 31
0.0
  0
LINE
  5
F3
  8
NOTE
  6
CONTINUOUS
 62
     4
 10
-93.114495000000005
 20
-108.535804
 30
0.0
 11
-103.4672569999999
 21
-69.898770999999996
 31
0.0
  0
LINE
  5
F4
  8
NOTE
  6
CONTINUOUS
 62
     4
 10
-230.729848
 20
186.03401599999989
 30
0.0
 11
-220.0
 21
147.5
 31
0.0
  0
LINE
  5
F5
  8
NOTE
  6
CONTINUOUS
 62
     4
 10
-220.0
 20
147.5
 30
0.0
 11
-248.55932899999999
 21
175.50651199999999
 31
0.0
  0
LINE
  5
F6
  8
NOTE
  6
CONTINUOUS
 62
     4
 10
-58.333348999999998
 20
323.955152
 30
0.0
 11
-33.0
 21
293.0
 31
0.0
  0
LINE
  5
F7
  8
NOTE
  6
CONTINUOUS
 62
     4
 10
-33.0
 20
293.0
 30
0.0
 11
-70.416899999999998
 21
307.1412739999999
 31
0.0
  0
LINE
  5
F8
  8
NOTE
  6
CONTINUOUS
 62
     4
 10
81.631324000000006
 20
-72.172837000000001
 30
0.0
 11
91.984084999999993
 21
-33.535803999999999
 31
0.0
  0
LINE
  5
F9
  8
NOTE
  6
CONTINUOUS
 62
     4
 10
91.984084999999993
 20
-33.535803999999999
 30
0.0
 11
102.33684699999991
 21
-72.172837000000001
 31
0.0
  0
LINE
  5
FA
  8
NOTE
  6
CONTINUOUS
 62
     4
 10
252.94765799999999
 20
170.18153100000001
 30
0.0
 11
220.0
 21
147.5
 31
0.0
  0
LINE
  5
FB
  8
NOTE
  6
CONTINUOUS
 62
     4
 10
220.0
 20
147.5
 30
0.0
 11
237.19274299999989
 21
183.61661100000001
 31
0.0
  0
TEXT
  5
13F
  8
ETC
  6
CONTINUOUS
 62
    61
 10
663.0519414173026
 20
194.5049547445839
 30
0.0
 40
50.0
  1
VL-250ZSD2
 41
0.9
  0
ENDSEC
  0
EOF
