  0
SECTION
  2
HEADER
  9
$ACADVER
  1
AC1009
  9
$INSBASE
 10
0.0
 20
0.0
 30
0.0
  9
$EXTMIN
 10
-1579.2164812539079
 20
-1121.8710000000001
 30
0.0
  9
$EXTMAX
 10
1201.4042627906381
 20
968.5531530322769
 30
0.0
  9
$LIMMIN
 10
-2970.0
 20
-2100.0
  9
$LIMMAX
 10
2970.0
 20
2100.0
  9
$ORTHOMODE
 70
     1
  9
$REGENMODE
 70
     0
  9
$FILLMODE
 70
     1
  9
$QTEXTMODE
 70
     0
  9
$MIRRTEXT
 70
     0
  9
$DRAGMODE
 70
     2
  9
$LTSCALE
 40
20.0
  9
$OSMODE
 70
    41
  9
$ATTMODE
 70
     1
  9
$TEXTSIZE
 40
64.0
  9
$TRACEWID
 40
0.05
  9
$TEXTSTYLE
  7
STANDARD
  9
$CLAYER
  8
0
  9
$CELTYPE
  6
CONTINUOUS
  9
$CECOLOR
 62
     8
  9
$DIMSCALE
 40
1.0
  9
$DIMASZ
 40
2.0
  9
$DIMEXO
 40
20.0
  9
$DIMDLI
 40
200.0
  9
$DIMRND
 40
0.0
  9
$DIMDLE
 40
0.0
  9
$DIMEXE
 40
30.0
  9
$DIMTP
 40
0.0
  9
$DIMTM
 40
0.0
  9
$DIMTXT
 40
64.0
  9
$DIMCEN
 40
0.09
  9
$DIMTSZ
 40
0.0
  9
$DIMTOL
 70
     0
  9
$DIMLIM
 70
     0
  9
$DIMTIH
 70
     0
  9
$DIMTOH
 70
     0
  9
$DIMSE1
 70
     0
  9
$DIMSE2
 70
     0
  9
$DIMTAD
 70
     1
  9
$DIMZIN
 70
     8
  9
$DIMBLK
  1

  9
$DIMASO
 70
     1
  9
$DIMSHO
 70
     0
  9
$DIMPOST
  1

  9
$DIMAPOST
  1

  9
$DIMALT
 70
     0
  9
$DIMALTD
 70
     2
  9
$DIMALTF
 40
25.399999999999999
  9
$DIMLFAC
 40
1.0
  9
$DIMTOFL
 70
     1
  9
$DIMTVP
 40
0.0
  9
$DIMTIX
 70
     1
  9
$DIMSOXD
 70
     0
  9
$DIMSAH
 70
     0
  9
$DIMBLK1
  1

  9
$DIMBLK2
  1

  9
$DIMSTYLE
  2
STANDARD
  9
$DIMCLRD
 70
     0
  9
$DIMCLRE
 70
     0
  9
$DIMCLRT
 70
     0
  9
$DIMTFAC
 40
1.0
  9
$DIMGAP
 40
0.09
  9
$LUNITS
 70
     2
  9
$LUPREC
 70
     4
  9
$SKETCHINC
 40
0.1
  9
$FILLETRAD
 40
10.0
  9
$AUNITS
 70
     1
  9
$AUPREC
 70
     3
  9
$MENU
  1
ACAD
  9
$ELEVATION
 40
0.0
  9
$PELEVATION
 40
0.0
  9
$THICKNESS
 40
0.0
  9
$LIMCHECK
 70
     1
  9
$BLIPMODE
 70
     0
  9
$CHAMFERA
 40
0.0
  9
$CHAMFERB
 40
0.0
  9
$SKPOLY
 70
     0
  9
$TDCREATE
 40
2451122.6866782401
  9
$TDUPDATE
 40
2453757.7930701971
  9
$TDINDWG
 40
0.012962419
  9
$TDUSRTIMER
 40
0.012962419
  9
$USRTIMER
 70
     1
  9
$ANGBASE
 50
0.0
  9
$ANGDIR
 70
     0
  9
$PDMODE
 70
     3
  9
$PDSIZE
 40
-2.0
  9
$PLINEWID
 40
0.0
  9
$COORDS
 70
     2
  9
$SPLFRAME
 70
     0
  9
$SPLINETYPE
 70
     6
  9
$SPLINESEGS
 70
     8
  9
$ATTDIA
 70
     0
  9
$ATTREQ
 70
     1
  9
$HANDLING
 70
 22529
  9
$HANDSEED
  5
337
  9
$SURFTAB1
 70
     6
  9
$SURFTAB2
 70
     6
  9
$SURFTYPE
 70
     6
  9
$SURFU
 70
     6
  9
$SURFV
 70
     6
  9
$UCSNAME
  2

  9
$UCSORG
 10
0.0
 20
0.0
 30
0.0
  9
$UCSXDIR
 10
1.0
 20
0.0
 30
0.0
  9
$UCSYDIR
 10
0.0
 20
1.0
 30
0.0
  9
$PUCSNAME
  2

  9
$PUCSORG
 10
0.0
 20
0.0
 30
0.0
  9
$PUCSXDIR
 10
1.0
 20
0.0
 30
0.0
  9
$PUCSYDIR
 10
0.0
 20
1.0
 30
0.0
  9
$USERI1
 70
     0
  9
$USERI2
 70
     0
  9
$USERI3
 70
     0
  9
$USERI4
 70
     0
  9
$USERI5
 70
     0
  9
$USERR1
 40
20.0
  9
$USERR2
 40
0.0
  9
$USERR3
 40
0.0
  9
$USERR4
 40
0.0
  9
$USERR5
 40
0.0
  9
$WORLDVIEW
 70
     1
  9
$SHADEDGE
 70
     3
  9
$SHADEDIF
 70
    70
  9
$TILEMODE
 70
     1
  9
$MAXACTVP
 70
    48
  9
$PLIMCHECK
 70
     0
  9
$PEXTMIN
 10
1.0000000000000000E+020
 20
1.0000000000000000E+020
 30
1.0000000000000000E+020
  9
$PEXTMAX
 10
-1.0000000000000000E+020
 20
-1.0000000000000000E+020
 30
-1.0000000000000000E+020
  9
$PLIMMIN
 10
0.0
 20
0.0
  9
$PLIMMAX
 10
12.0
 20
9.0
  9
$UNITMODE
 70
     0
  9
$VISRETAIN
 70
     1
  9
$PLINEGEN
 70
     0
  9
$PSLTSCALE
 70
     1
  0
ENDSEC
  0
SECTION
  2
TABLES
  0
TABLE
  2
VPORT
 70
    11
  0
VPORT
  2
*ACTIVE
 70
     0
 10
0.0
 20
0.0
 11
1.0
 21
1.0
 12
32.85278395315936
 22
-11.63742750079882
 13
0.0
 23
0.0
 14
400.0
 24
400.0
 15
400.0
 25
400.0
 16
0.0
 26
0.0
 36
1.0
 17
0.0
 27
0.0
 37
0.0
 40
2588.9614464714582
 41
1.4423558897243101
 42
50.0
 43
0.0
 44
0.0
 50
0.0
 51
0.0
 71
     0
 72
   500
 73
     1
 74
     0
 75
     0
 76
     0
 77
     0
 78
     0
  0
ENDTAB
  0
TABLE
  2
LTYPE
 70
     7
  0
LTYPE
  2
CONTINUOUS
 70
     0
  3
実線
 72
    65
 73
     0
 40
0.0
  0
LTYPE
  2
DOT
 70
     0
  3
...............................................
 72
    65
 73
     2
 40
0.8
 49
0.5
 49
-0.3
  0
LTYPE
  2
DASHED
 70
     0
  3
_ _ _ _ _ _ _ _ _ _ _ _ _ _ _ _ _ _ _ _ _ _ _
 72
    65
 73
     2
 40
2.0
 49
1.1999999999999991
 49
-0.8
  0
LTYPE
  2
DASHDOT
 70
     0
  3
____ _ ____ _ ____ _ ____ _ ____ _ ____ _ ____
 72
    65
 73
     4
 40
5.5
 49
4.0
 49
-0.6
 49
0.3
 49
-0.6
  0
LTYPE
  2
DASHDOT1
 70
     0
  3
____ _ ____ _ ____ _ ____ _ ____ _ ____ _ ____
 72
    65
 73
     4
 40
2.0
 49
1.5
 49
-0.2
 49
0.1
 49
-0.2
  0
LTYPE
  2
DIVIDE
 70
     0
  3
_____ _ _ _____ _ _ _____ _ _ _____ _ _ ____
 72
    65
 73
     6
 40
6.4000000000000004
 49
4.0
 49
-0.6
 49
0.3
 49
-0.6
 49
0.3
 49
-0.6
  0
LTYPE
  2
DIVIDE1
 70
     0
  3
_____ _ _ _____ _ _ _____ _ _ _____ _ _ ____
 72
    65
 73
     6
 40
3.2000000000000002
 49
2.0
 49
-0.3
 49
0.15
 49
-0.3
 49
0.15
 49
-0.3
  0
ENDTAB
  0
TABLE
  2
LAYER
 70
    12
  0
LAYER
  2
0
 70
     0
 62
     7
  6
CONTINUOUS
  0
LAYER
  2
SIZE
 70
     0
 62
    30
  6
CONTINUOUS
  0
LAYER
  2
FIX
 70
     0
 62
    11
  6
CONTINUOUS
  0
LAYER
  2
OUTLINE
 70
     0
 62
     3
  6
CONTINUOUS
  0
LAYER
  2
DETAIL
 70
     0
 62
     5
  6
CONTINUOUS
  0
LAYER
  2
BASIS
 70
     0
 62
     6
  6
DASHDOT
  0
LAYER
  2
NOTE
 70
     0
 62
     4
  6
CONTINUOUS
  0
LAYER
  2
ARRANGE
 70
     0
 62
     1
  6
CONTINUOUS
  0
LAYER
  2
DEFPOINTS
 70
     0
 62
     7
  6
CONTINUOUS
  0
LAYER
  2
ETC
 70
     0
 62
    61
  6
CONTINUOUS
  0
LAYER
  2
SERVICESPACE
 70
     0
 62
     2
  6
DASHDOT
  0
LAYER
  2
SYMBOLLINE
 70
     0
 62
    15
  6
CONTINUOUS
  0
ENDTAB
  0
TABLE
  2
STYLE
 70
     2
  0
STYLE
  2
STANDARD
 70
     0
 40
0.0
 41
0.9
 50
0.0
 71
     0
 42
64.0
  3
SIMPLEX
  4
BIGFONT
  0
STYLE
  2
STANDARD1
 70
     0
 40
0.0
 41
1.0
 50
0.0
 71
     0
 42
3.2000000000000002
  3
MONOTXT
  4
BIGFONT
  0
ENDTAB
  0
TABLE
  2
VIEW
 70
     1
  0
VIEW
  2
ALL
 70
     0
 40
4508.0208510000002
 10
0.0
 20
41.309903999999989
 41
6252.631578999999
 11
0.0
 21
0.0
 31
1.0
 12
0.0
 22
0.0
 32
0.0
 42
50.0
 43
0.0
 44
0.0
 50
0.0
 71
     0
  0
ENDTAB
  0
TABLE
  2
UCS
 70
     0
  0
ENDTAB
  0
TABLE
  2
APPID
 70
     1
  0
APPID
  2
ACAD
 70
     0
  0
ENDTAB
  0
TABLE
  2
DIMSTYLE
 70
     1
  0
DIMSTYLE
  2
STANDARD
 70
     0
  3

  4

  5

  6

  7

 40
1.0
 41
0.18
 42
0.0625
 43
0.38
 44
0.18
 45
0.0
 46
0.0
 47
0.0
 48
0.0
140
0.18
141
0.09
142
0.0
143
25.399999999999999
144
1.0
145
0.0
146
1.0
147
0.09
 71
     0
 72
     0
 73
     1
 74
     1
 75
     0
 76
     0
 77
     0
 78
     0
170
     0
171
     2
172
     0
173
     0
174
     0
175
     0
176
     0
177
     0
178
     0
  0
ENDTAB
  0
ENDSEC
  0
SECTION
  2
BLOCKS
  0
BLOCK
  8
0
  2
$MODEL_SPACE
 70
     0
 10
0.0
 20
0.0
 30
0.0
  3
$MODEL_SPACE
  1

  0
ENDBLK
  5
20
  8
0
  0
BLOCK
 67
     1
  8
0
  2
$PAPER_SPACE
 70
     0
 10
0.0
 20
0.0
 30
0.0
  3
$PAPER_SPACE
  1

  0
ENDBLK
  5
1C
 67
     1
  8
0
  0
ENDSEC
  0
SECTION
  2
ENTITIES
  0
LINE
  5
39
  8
BASIS
  6
DASHDOT
 62
     6
 10
0.0
 20
-274.66358199999991
 30
0.0
 11
0.0
 21
278.31787800000001
 31
0.0
  0
LINE
  5
3A
  8
BASIS
  6
DASHDOT
 62
     6
 10
-289.35779100000002
 20
0.0
 30
0.0
 11
283.70019200000002
 21
0.0
 31
0.0
  0
LINE
  5
3B
  8
BASIS
  6
DASHDOT
 62
     6
 10
115.0
 20
-329.01170799999989
 30
0.0
 11
115.0
 21
-172.395895
 31
0.0
  0
LINE
  5
3C
  8
BASIS
  6
DASHDOT
 62
     6
 10
-115.0
 20
-330.24490299999991
 30
0.0
 11
-115.0
 21
-172.395895
 31
0.0
  0
TEXT
  5
3F
  8
ETC
  6
CONTINUOUS
 62
    61
 10
517.46059000000002
 20
904.55315303227667
 30
0.0
 40
64.0
  1
VL-130ZSK2_1
 41
0.9
  0
LINE
  5
40
  8
NOTE
  6
CONTINUOUS
 62
     4
 10
310.462987
 20
14.279145
 30
0.0
 11
72.82402900000001
 21
14.279145
 31
0.0
  0
LINE
  5
41
  8
NOTE
  6
CONTINUOUS
 62
     4
 10
-389.02419800000001
 20
245.9238959999999
 30
0.0
 11
-709.2947989999999
 21
245.9238959999999
 31
0.0
  0
TEXT
  5
42
  8
NOTE
  6
CONTINUOUS
 62
     4
 10
-695.44613700000002
 20
269.31020699999999
 30
0.0
 40
64.0
  1
8-5×7
 41
0.9
  0
TEXT
  5
43
  8
NOTE
  6
CONTINUOUS
 62
     4
 10
85.976887000000005
 20
41.610340999999998
 30
0.0
 40
64.0
  1
EL,CL
 41
0.9
  0
TEXT
  5
44
  8
NOTE
  6
CONTINUOUS
 62
     4
 10
-160.23468700000001
 20
-152.86659
 30
0.0
 40
64.0
  1
EA
 41
0.9
  0
TEXT
  5
45
  8
NOTE
  6
CONTINUOUS
 62
     4
 10
62.125605999999998
 20
-149.40806499999991
 30
0.0
 40
64.0
  1
OA
 41
0.9
  0
LINE
  5
46
  8
DETAIL
  6
CONTINUOUS
 62
     5
 10
193.0
 20
-193.0
 30
0.0
 11
193.0
 21
193.0
 31
0.0
  0
LINE
  5
47
  8
DETAIL
  6
CONTINUOUS
 62
     5
 10
-193.0
 20
-193.0
 30
0.0
 11
-193.0
 21
193.0
 31
0.0
  0
LINE
  5
48
  8
DETAIL
  6
CONTINUOUS
 62
     5
 10
-193.0
 20
-193.0
 30
0.0
 11
193.0
 21
-193.0
 31
0.0
  0
LINE
  5
49
  8
DETAIL
  6
CONTINUOUS
 62
     5
 10
-193.0
 20
193.0
 30
0.0
 11
193.0
 21
193.0
 31
0.0
  0
LINE
  5
4E
  8
DETAIL
  6
CONTINUOUS
 62
     5
 10
66.0
 20
-299.0
 30
0.0
 11
164.0
 21
-299.0
 31
0.0
  0
LINE
  5
4F
  8
DETAIL
  6
CONTINUOUS
 62
     5
 10
62.5
 20
-272.5
 30
0.0
 11
167.5
 21
-272.5
 31
0.0
  0
LINE
  5
50
  8
DETAIL
  6
CONTINUOUS
 62
     5
 10
62.5
 20
-229.49999999999989
 30
0.0
 11
167.5
 21
-229.49999999999989
 31
0.0
  0
LINE
  5
51
  8
DETAIL
  6
CONTINUOUS
 62
     5
 10
66.0
 20
-299.0
 30
0.0
 11
66.0
 21
-272.5
 31
0.0
  0
LINE
  5
52
  8
DETAIL
  6
CONTINUOUS
 62
     5
 10
164.0
 20
-299.0
 30
0.0
 11
164.0
 21
-272.5
 31
0.0
  0
LINE
  5
53
  8
DETAIL
  6
CONTINUOUS
 62
     5
 10
62.5
 20
-272.5
 30
0.0
 11
62.5
 21
-229.49999999999989
 31
0.0
  0
LINE
  5
54
  8
DETAIL
  6
CONTINUOUS
 62
     5
 10
167.5
 20
-272.5
 30
0.0
 11
167.5
 21
-229.49999999999989
 31
0.0
  0
LINE
  5
55
  8
DETAIL
  6
CONTINUOUS
 62
     5
 10
180.0
 20
-193.0
 30
0.0
 11
167.5
 21
-229.49999999999989
 31
0.0
  0
LINE
  5
56
  8
DETAIL
  6
CONTINUOUS
 62
     5
 10
50.0
 20
-193.0
 30
0.0
 11
62.5
 21
-229.49999999999989
 31
0.0
  0
LINE
  5
58
  8
DETAIL
  6
CONTINUOUS
 62
     5
 10
-180.0
 20
-193.0
 30
0.0
 11
-167.5
 21
-229.49999999999989
 31
0.0
  0
LINE
  5
59
  8
DETAIL
  6
CONTINUOUS
 62
     5
 10
-50.0
 20
-193.0
 30
0.0
 11
-62.5
 21
-229.49999999999989
 31
0.0
  0
LINE
  5
5A
  8
DETAIL
  6
CONTINUOUS
 62
     5
 10
-62.5
 20
-272.5
 30
0.0
 11
-62.5
 21
-229.49999999999989
 31
0.0
  0
LINE
  5
5B
  8
DETAIL
  6
CONTINUOUS
 62
     5
 10
-167.5
 20
-272.5
 30
0.0
 11
-167.5
 21
-229.49999999999989
 31
0.0
  0
LINE
  5
5C
  8
DETAIL
  6
CONTINUOUS
 62
     5
 10
-66.0
 20
-299.0
 30
0.0
 11
-66.0
 21
-272.5
 31
0.0
  0
LINE
  5
5D
  8
DETAIL
  6
CONTINUOUS
 62
     5
 10
-164.0
 20
-299.0
 30
0.0
 11
-164.0
 21
-272.5
 31
0.0
  0
LINE
  5
5E
  8
DETAIL
  6
CONTINUOUS
 62
     5
 10
-167.5
 20
-229.49999999999989
 30
0.0
 11
-62.5
 21
-229.49999999999989
 31
0.0
  0
LINE
  5
5F
  8
DETAIL
  6
CONTINUOUS
 62
     5
 10
-167.5
 20
-272.5
 30
0.0
 11
-62.5
 21
-272.5
 31
0.0
  0
LINE
  5
60
  8
DETAIL
  6
CONTINUOUS
 62
     5
 10
-164.0
 20
-299.0
 30
0.0
 11
-66.0
 21
-299.0
 31
0.0
  0
LINE
  5
61
  8
NOTE
  6
CONTINUOUS
 62
     4
 10
-150.0
 20
-226.0
 30
0.0
 11
-150.0
 21
-186.0
 31
0.0
  0
LINE
  5
62
  8
NOTE
  6
CONTINUOUS
 62
     4
 10
-170.0
 20
-206.0
 30
0.0
 11
-130.0
 21
-206.0
 31
0.0
  0
LINE
  5
63
  8
DETAIL
  6
CONTINUOUS
 62
     5
 10
-147.5
 20
-207.00904299999999
 30
0.0
 11
-147.5
 21
-204.81614200000001
 31
0.0
  0
LINE
  5
64
  8
DETAIL
  6
CONTINUOUS
 62
     5
 10
-152.5
 20
-207.00904299999999
 30
0.0
 11
-152.5
 21
-204.81614200000001
 31
0.0
  0
ARC
  5
65
  8
DETAIL
  6
CONTINUOUS
 62
     5
 10
-150.0
 20
-205.0
 30
0.0
 40
2.5
 50
4.2175310000000001
 51
175.78246899999991
  0
ARC
  5
66
  8
DETAIL
  6
CONTINUOUS
 62
     5
 10
-150.0
 20
-207.0
 30
0.0
 40
2.5
 50
180.20725999999999
 51
359.79273999999992
  0
ARC
  5
67
  8
DETAIL
  6
CONTINUOUS
 62
     5
 10
150.0
 20
-207.0
 30
0.0
 40
2.5
 50
180.20725999999999
 51
359.79273999999992
  0
ARC
  5
68
  8
DETAIL
  6
CONTINUOUS
 62
     5
 10
150.0
 20
-205.0
 30
0.0
 40
2.5
 50
4.2175310000000001
 51
175.78246899999991
  0
LINE
  5
69
  8
DETAIL
  6
CONTINUOUS
 62
     5
 10
147.5
 20
-207.00904299999999
 30
0.0
 11
147.5
 21
-204.81614200000001
 31
0.0
  0
LINE
  5
6A
  8
DETAIL
  6
CONTINUOUS
 62
     5
 10
152.5
 20
-207.00904299999999
 30
0.0
 11
152.5
 21
-204.81614200000001
 31
0.0
  0
ARC
  5
6B
  8
DETAIL
  6
CONTINUOUS
 62
     5
 10
-150.0
 20
205.0
 30
0.0
 40
2.5
 50
180.20725999999999
 51
359.79273999999992
  0
ARC
  5
6C
  8
DETAIL
  6
CONTINUOUS
 62
     5
 10
-150.0
 20
207.0
 30
0.0
 40
2.5
 50
4.2175310000000001
 51
175.78246899999991
  0
LINE
  5
6D
  8
DETAIL
  6
CONTINUOUS
 62
     5
 10
-152.5
 20
204.99095700000001
 30
0.0
 11
-152.5
 21
207.18385799999999
 31
0.0
  0
LINE
  5
6E
  8
DETAIL
  6
CONTINUOUS
 62
     5
 10
-147.5
 20
204.99095700000001
 30
0.0
 11
-147.5
 21
207.18385799999999
 31
0.0
  0
LINE
  5
6F
  8
DETAIL
  6
CONTINUOUS
 62
     5
 10
152.5
 20
204.99095700000001
 30
0.0
 11
152.5
 21
207.18385799999999
 31
0.0
  0
LINE
  5
70
  8
DETAIL
  6
CONTINUOUS
 62
     5
 10
147.5
 20
204.99095700000001
 30
0.0
 11
147.5
 21
207.18385799999999
 31
0.0
  0
ARC
  5
71
  8
DETAIL
  6
CONTINUOUS
 62
     5
 10
150.0
 20
207.0
 30
0.0
 40
2.5
 50
4.2175310000000001
 51
175.78246899999991
  0
ARC
  5
72
  8
DETAIL
  6
CONTINUOUS
 62
     5
 10
150.0
 20
205.0
 30
0.0
 40
2.5
 50
180.20725999999999
 51
359.79273999999992
  0
ARC
  5
73
  8
DETAIL
  6
CONTINUOUS
 62
     5
 10
-207.0
 20
-150.0
 30
0.0
 40
2.5
 50
90.207259999999991
 51
269.79273999999992
  0
ARC
  5
74
  8
DETAIL
  6
CONTINUOUS
 62
     5
 10
-205.0
 20
-150.0
 30
0.0
 40
2.5
 50
274.21753099999989
 51
85.782469000000006
  0
LINE
  5
75
  8
DETAIL
  6
CONTINUOUS
 62
     5
 10
-207.00904299999999
 20
-147.5
 30
0.0
 11
-204.81614200000001
 21
-147.5
 31
0.0
  0
LINE
  5
76
  8
DETAIL
  6
CONTINUOUS
 62
     5
 10
-207.00904299999999
 20
-152.5
 30
0.0
 11
-204.81614200000001
 21
-152.5
 31
0.0
  0
LINE
  5
77
  8
DETAIL
  6
CONTINUOUS
 62
     5
 10
-207.00904299999999
 20
147.5
 30
0.0
 11
-204.81614200000001
 21
147.5
 31
0.0
  0
LINE
  5
78
  8
DETAIL
  6
CONTINUOUS
 62
     5
 10
-207.00904299999999
 20
152.5
 30
0.0
 11
-204.81614200000001
 21
152.5
 31
0.0
  0
ARC
  5
79
  8
DETAIL
  6
CONTINUOUS
 62
     5
 10
-205.0
 20
150.0
 30
0.0
 40
2.5
 50
274.21753099999989
 51
85.782469000000006
  0
ARC
  5
7A
  8
DETAIL
  6
CONTINUOUS
 62
     5
 10
-207.0
 20
150.0
 30
0.0
 40
2.5
 50
90.207259999999991
 51
269.79273999999992
  0
LINE
  5
7B
  8
DETAIL
  6
CONTINUOUS
 62
     5
 10
204.99095700000001
 20
-152.5
 30
0.0
 11
207.18385799999999
 21
-152.5
 31
0.0
  0
LINE
  5
7C
  8
DETAIL
  6
CONTINUOUS
 62
     5
 10
204.99095700000001
 20
-147.5
 30
0.0
 11
207.18385799999999
 21
-147.5
 31
0.0
  0
ARC
  5
7D
  8
DETAIL
  6
CONTINUOUS
 62
     5
 10
207.0
 20
-150.0
 30
0.0
 40
2.5
 50
274.21753099999989
 51
85.782469000000006
  0
ARC
  5
7E
  8
DETAIL
  6
CONTINUOUS
 62
     5
 10
205.0
 20
-150.0
 30
0.0
 40
2.5
 50
90.207259999999991
 51
269.79273999999992
  0
ARC
  5
7F
  8
DETAIL
  6
CONTINUOUS
 62
     5
 10
205.0
 20
150.0
 30
0.0
 40
2.5
 50
90.207259999999991
 51
269.79273999999992
  0
ARC
  5
80
  8
DETAIL
  6
CONTINUOUS
 62
     5
 10
207.0
 20
150.0
 30
0.0
 40
2.5
 50
274.21753099999989
 51
85.782469000000006
  0
LINE
  5
81
  8
DETAIL
  6
CONTINUOUS
 62
     5
 10
204.99095700000001
 20
152.5
 30
0.0
 11
207.18385799999999
 21
152.5
 31
0.0
  0
LINE
  5
82
  8
DETAIL
  6
CONTINUOUS
 62
     5
 10
204.99095700000001
 20
147.5
 30
0.0
 11
207.18385799999999
 21
147.5
 31
0.0
  0
CIRCLE
  5
83
  8
FIX
  6
CONTINUOUS
 62
    11
 10
-150.0
 20
206.0
 30
0.0
 40
2.5
  0
CIRCLE
  5
84
  8
FIX
  6
CONTINUOUS
 62
    11
 10
-206.0
 20
150.0
 30
0.0
 40
2.5
  0
CIRCLE
  5
85
  8
FIX
  6
CONTINUOUS
 62
    11
 10
-206.0
 20
-150.0
 30
0.0
 40
2.5
  0
CIRCLE
  5
86
  8
FIX
  6
CONTINUOUS
 62
    11
 10
-150.0
 20
-206.0
 30
0.0
 40
2.5
  0
CIRCLE
  5
87
  8
FIX
  6
CONTINUOUS
 62
    11
 10
150.0
 20
-206.0
 30
0.0
 40
2.5
  0
CIRCLE
  5
88
  8
FIX
  6
CONTINUOUS
 62
    11
 10
206.0
 20
-150.0
 30
0.0
 40
2.5
  0
CIRCLE
  5
89
  8
FIX
  6
CONTINUOUS
 62
    11
 10
150.0
 20
206.0
 30
0.0
 40
2.5
  0
CIRCLE
  5
8A
  8
FIX
  6
CONTINUOUS
 62
    11
 10
206.0
 20
150.0
 30
0.0
 40
2.5
  0
LINE
  5
8B
  8
DETAIL
  6
CONTINUOUS
 62
     5
 10
169.35185200000001
 20
-227.49999999999989
 30
0.0
 11
217.5
 21
-227.49999999999989
 31
0.0
  0
LINE
  5
8C
  8
DETAIL
  6
CONTINUOUS
 62
     5
 10
-227.49999999999989
 20
-217.5
 30
0.0
 11
-227.49999999999989
 21
217.5
 31
0.0
  0
LINE
  5
8D
  8
DETAIL
  6
CONTINUOUS
 62
     5
 10
-217.5
 20
-227.49999999999989
 30
0.0
 11
169.35185200000001
 21
-227.49999999999989
 31
0.0
  0
LINE
  5
8E
  8
DETAIL
  6
CONTINUOUS
 62
     5
 10
227.49999999999989
 20
-217.5
 30
0.0
 11
227.49999999999989
 21
217.5
 31
0.0
  0
LINE
  5
8F
  8
DETAIL
  6
CONTINUOUS
 62
     5
 10
-217.5
 20
227.49999999999989
 30
0.0
 11
217.5
 21
227.49999999999989
 31
0.0
  0
LINE
  5
90
  8
SIZE
  6
CONTINUOUS
 62
    30
 10
-171.5
 20
-556.02922999999987
 30
0.0
 11
-432.23965099999992
 21
-556.02922999999987
 31
0.0
  0
LINE
  5
91
  8
SIZE
  6
CONTINUOUS
 62
    30
 10
-168.0
 20
-432.45149800000002
 30
0.0
 11
-399.53102200000001
 21
-432.45149800000002
 31
0.0
  0
LINE
  5
92
  8
SIZE
  6
CONTINUOUS
 62
    30
 10
483.07864599999988
 20
-303.54561999999999
 30
0.0
 11
483.07864599999988
 21
-513.40684399999998
 31
0.0
  0
LINE
  5
93
  8
SIZE
  6
CONTINUOUS
 62
    30
 10
360.83699000000001
 20
-306.728274
 30
0.0
 11
360.83699000000001
 21
-520.46857699999998
 31
0.0
  0
LINE
  5
94
  8
NOTE
  6
CONTINUOUS
 62
     4
 10
33.0
 20
-177.5
 30
0.0
 11
72.82402900000001
 21
14.279145
 31
0.0
  0
LINE
  5
95
  8
NOTE
  6
CONTINUOUS
 62
     4
 10
-206.35533499999991
 20
151.28468399999991
 30
0.0
 11
-389.02419800000001
 21
245.9238959999999
 31
0.0
  0
TEXT
  5
96
  8
NOTE
  6
CONTINUOUS
 62
     4
 10
-490.97686099999999
 20
400.36708700000003
 30
0.0
 40
64.0
  1
AH
 41
0.9
  0
LINE
  5
97
  8
NOTE
  6
CONTINUOUS
 62
     4
 10
-513.95037000000002
 20
371.64126399999998
 30
0.0
 11
-366.30433099999988
 21
371.64126399999998
 31
0.0
  0
LINE
  5
98
  8
NOTE
  6
CONTINUOUS
 62
     4
 10
-472.1596889999999
 20
-319.27875499999988
 30
0.0
 11
-337.20891699999987
 21
-319.27875499999988
 31
0.0
  0
LINE
  5
99
  8
NOTE
  6
CONTINUOUS
 62
     4
 10
407.47391199999998
 20
-107.64323899999989
 30
0.0
 11
273.671785
 21
-107.64323899999989
 31
0.0
  0
LINE
  5
9A
  8
NOTE
  6
CONTINUOUS
 62
     4
 10
488.48942599999998
 20
294.378083
 30
0.0
 11
342.58897799999988
 21
294.378083
 31
0.0
  0
TEXT
  5
9B
  8
NOTE
  6
CONTINUOUS
 62
     4
 10
363.79046
 20
318.21797400000003
 30
0.0
 40
64.0
  1
AH
 41
0.9
  0
TEXT
  5
9C
  8
NOTE
  6
CONTINUOUS
 62
     4
 10
291.60638999999992
 20
-85.581502
 30
0.0
 40
64.0
  1
AH
 41
0.9
  0
TEXT
  5
9D
  8
NOTE
  6
CONTINUOUS
 62
     4
 10
-455.32965000000002
 20
-291.4472209999999
 30
0.0
 40
64.0
  1
AH
 41
0.9
  0
LINE
  5
9E
  8
DETAIL
  6
CONTINUOUS
 62
     5
 10
-198.0
 20
145.5
 30
0.0
 11
-198.0
 21
207.0
 31
0.0
  0
CIRCLE
  5
9F
  8
FIX
  6
CONTINUOUS
 62
    11
 10
-220.0
 20
185.0
 30
0.0
 40
6.5
  0
LINE
  5
A0
  8
DETAIL
  6
CONTINUOUS
 62
     5
 10
-213.5
 20
145.5
 30
0.0
 11
-198.0
 21
145.5
 31
0.0
  0
LINE
  5
A1
  8
DETAIL
  6
CONTINUOUS
 62
     5
 10
-241.0
 20
145.5
 30
0.0
 11
-226.5
 21
145.5
 31
0.0
  0
LINE
  5
A2
  8
DETAIL
  6
CONTINUOUS
 62
     5
 10
-213.5
 20
145.5
 30
0.0
 11
-213.5
 21
185.0
 31
0.0
  0
LINE
  5
A3
  8
DETAIL
  6
CONTINUOUS
 62
     5
 10
-226.5
 20
145.5
 30
0.0
 11
-226.5
 21
185.0
 31
0.0
  0
ARC
  5
A4
  8
DETAIL
  6
CONTINUOUS
 62
     5
 10
-220.0
 20
185.0
 30
0.0
 40
6.5
 50
0.0
 51
180.0
  0
LINE
  5
A5
  8
DETAIL
  6
CONTINUOUS
 62
     5
 10
-241.0
 20
207.0
 30
0.0
 11
-241.0
 21
145.5
 31
0.0
  0
LINE
  5
A6
  8
DETAIL
  6
CONTINUOUS
 62
     5
 10
241.0
 20
163.0
 30
0.0
 11
241.0
 21
224.5
 31
0.0
  0
ARC
  5
A7
  8
DETAIL
  6
CONTINUOUS
 62
     5
 10
220.0
 20
185.0
 30
0.0
 40
6.5
 50
180.0
 51
0.0
  0
LINE
  5
A8
  8
DETAIL
  6
CONTINUOUS
 62
     5
 10
226.5
 20
224.5
 30
0.0
 11
226.5
 21
185.0
 31
0.0
  0
LINE
  5
A9
  8
DETAIL
  6
CONTINUOUS
 62
     5
 10
213.5
 20
224.5
 30
0.0
 11
213.5
 21
185.0
 31
0.0
  0
LINE
  5
AA
  8
DETAIL
  6
CONTINUOUS
 62
     5
 10
241.0
 20
224.5
 30
0.0
 11
226.5
 21
224.5
 31
0.0
  0
LINE
  5
AB
  8
DETAIL
  6
CONTINUOUS
 62
     5
 10
213.5
 20
224.5
 30
0.0
 11
198.0
 21
224.5
 31
0.0
  0
CIRCLE
  5
AC
  8
FIX
  6
CONTINUOUS
 62
    11
 10
220.0
 20
185.0
 30
0.0
 40
6.5
  0
LINE
  5
AD
  8
DETAIL
  6
CONTINUOUS
 62
     5
 10
198.0
 20
224.5
 30
0.0
 11
198.0
 21
163.0
 31
0.0
  0
LINE
  5
AE
  8
DETAIL
  6
CONTINUOUS
 62
     5
 10
-198.0
 20
207.0
 30
0.0
 11
-241.0
 21
207.0
 31
0.0
  0
LINE
  5
AF
  8
DETAIL
  6
CONTINUOUS
 62
     5
 10
-241.0
 20
-163.0
 30
0.0
 11
-241.0
 21
-224.5
 31
0.0
  0
ARC
  5
B0
  8
DETAIL
  6
CONTINUOUS
 62
     5
 10
-220.0
 20
-185.0
 30
0.0
 40
6.5
 50
0.0
 51
180.0
  0
LINE
  5
B1
  8
DETAIL
  6
CONTINUOUS
 62
     5
 10
-226.5
 20
-224.5
 30
0.0
 11
-226.5
 21
-185.0
 31
0.0
  0
LINE
  5
B2
  8
DETAIL
  6
CONTINUOUS
 62
     5
 10
-213.5
 20
-224.5
 30
0.0
 11
-213.5
 21
-185.0
 31
0.0
  0
LINE
  5
B3
  8
DETAIL
  6
CONTINUOUS
 62
     5
 10
-241.0
 20
-224.5
 30
0.0
 11
-226.5
 21
-224.5
 31
0.0
  0
CIRCLE
  5
B4
  8
FIX
  6
CONTINUOUS
 62
    11
 10
-220.0
 20
-185.0
 30
0.0
 40
6.5
  0
LINE
  5
B5
  8
DETAIL
  6
CONTINUOUS
 62
     5
 10
-198.0
 20
-224.5
 30
0.0
 11
-198.0
 21
-163.0
 31
0.0
  0
LINE
  5
B6
  8
DETAIL
  6
CONTINUOUS
 62
     5
 10
-213.5
 20
-224.5
 30
0.0
 11
-198.0
 21
-224.5
 31
0.0
  0
LINE
  5
B7
  8
DETAIL
  6
CONTINUOUS
 62
     5
 10
-198.0
 20
-163.0
 30
0.0
 11
-241.0
 21
-163.0
 31
0.0
  0
LINE
  5
B8
  8
DETAIL
  6
CONTINUOUS
 62
     5
 10
198.0
 20
163.0
 30
0.0
 11
241.0
 21
163.0
 31
0.0
  0
LINE
  5
B9
  8
DETAIL
  6
CONTINUOUS
 62
     5
 10
198.0
 20
-145.5
 30
0.0
 11
198.0
 21
-207.0
 31
0.0
  0
CIRCLE
  5
BA
  8
FIX
  6
CONTINUOUS
 62
    11
 10
220.0
 20
-185.0
 30
0.0
 40
6.5
  0
LINE
  5
BB
  8
DETAIL
  6
CONTINUOUS
 62
     5
 10
213.5
 20
-145.5
 30
0.0
 11
198.0
 21
-145.5
 31
0.0
  0
LINE
  5
BC
  8
DETAIL
  6
CONTINUOUS
 62
     5
 10
213.5
 20
-145.5
 30
0.0
 11
213.5
 21
-185.0
 31
0.0
  0
LINE
  5
BD
  8
DETAIL
  6
CONTINUOUS
 62
     5
 10
226.5
 20
-145.5
 30
0.0
 11
226.5
 21
-185.0
 31
0.0
  0
ARC
  5
BE
  8
DETAIL
  6
CONTINUOUS
 62
     5
 10
220.0
 20
-185.0
 30
0.0
 40
6.5
 50
180.0
 51
0.0
  0
LINE
  5
BF
  8
DETAIL
  6
CONTINUOUS
 62
     5
 10
241.0
 20
-207.0
 30
0.0
 11
241.0
 21
-145.5
 31
0.0
  0
LINE
  5
C0
  8
DETAIL
  6
CONTINUOUS
 62
     5
 10
241.0
 20
-145.5
 30
0.0
 11
226.5
 21
-145.5
 31
0.0
  0
LINE
  5
C1
  8
DETAIL
  6
CONTINUOUS
 62
     5
 10
198.0
 20
-207.0
 30
0.0
 11
241.0
 21
-207.0
 31
0.0
  0
LINE
  5
C2
  8
NOTE
  6
CONTINUOUS
 62
     4
 10
-220.0
 20
185.0
 30
0.0
 11
-366.30433099999988
 21
371.64126399999998
 31
0.0
  0
LINE
  5
C3
  8
NOTE
  6
CONTINUOUS
 62
     4
 10
220.0
 20
185.0
 30
0.0
 11
342.58897799999988
 21
294.378083
 31
0.0
  0
LINE
  5
C4
  8
NOTE
  6
CONTINUOUS
 62
     4
 10
220.0
 20
-185.0
 30
0.0
 11
273.671785
 21
-107.64323899999989
 31
0.0
  0
LINE
  5
C5
  8
NOTE
  6
CONTINUOUS
 62
     4
 10
-220.0
 20
-185.0
 30
0.0
 11
-337.20891699999987
 21
-319.27875499999988
 31
0.0
  0
LINE
  5
C6
  8
SIZE
  6
CONTINUOUS
 62
    30
 10
604.31645999999989
 20
-301.0
 30
0.0
 11
604.31645999999989
 21
-526.15243199999986
 31
0.0
  0
ARC
  5
C7
  8
DETAIL
  6
CONTINUOUS
 62
     5
 10
217.5
 20
-217.5
 30
0.0
 40
10.0
 50
270.0
 51
0.0
  0
ARC
  5
C8
  8
DETAIL
  6
CONTINUOUS
 62
     5
 10
217.5
 20
217.5
 30
0.0
 40
10.0
 50
0.0
 51
90.0
  0
ARC
  5
C9
  8
DETAIL
  6
CONTINUOUS
 62
     5
 10
-217.5
 20
217.5
 30
0.0
 40
10.0
 50
90.0
 51
180.0
  0
ARC
  5
CA
  8
DETAIL
  6
CONTINUOUS
 62
     5
 10
-217.5
 20
-217.5
 30
0.0
 40
10.0
 50
180.0
 51
270.0
  0
LINE
  5
CF
  8
NOTE
  6
CONTINUOUS
 62
     4
 10
33.0
 20
-197.5
 30
0.0
 11
33.0
 21
-157.5
 31
0.0
  0
LINE
  5
D0
  8
NOTE
  6
CONTINUOUS
 62
     4
 10
13.0
 20
-177.5
 30
0.0
 11
53.0
 21
-177.5
 31
0.0
  0
LINE
  5
D1
  8
DETAIL
  6
CONTINUOUS
 62
     5
 10
25.0
 20
-172.5
 30
0.0
 11
41.0
 21
-172.5
 31
0.0
  0
LINE
  5
D2
  8
DETAIL
  6
CONTINUOUS
 62
     5
 10
25.0
 20
-182.5
 30
0.0
 11
41.0
 21
-182.5
 31
0.0
  0
LINE
  5
D3
  8
DETAIL
  6
CONTINUOUS
 62
     5
 10
25.0
 20
-182.5
 30
0.0
 11
25.0
 21
-172.5
 31
0.0
  0
LINE
  5
D4
  8
DETAIL
  6
CONTINUOUS
 62
     5
 10
41.0
 20
-182.5
 30
0.0
 11
41.0
 21
-172.5
 31
0.0
  0
LINE
  5
D5
  8
SIZE
  6
BYBLOCK
 62
    30
 10
184.0
 20
-299.0
 30
0.0
 11
513.07864600000005
 21
-299.0
 31
0.0
  0
LINE
  5
D6
  8
SIZE
  6
BYBLOCK
 62
    30
 10
187.5
 20
-229.49999999999989
 30
0.0
 11
513.07864600000005
 21
-229.49999999999989
 31
0.0
  0
LINE
  5
D7
  8
SIZE
  6
BYBLOCK
 62
    30
 10
483.07864599999988
 20
-227.49999999999989
 30
0.0
 11
483.07864599999988
 21
-225.49999999999989
 31
0.0
  0
LINE
  5
D8
  8
SIZE
  6
BYBLOCK
 62
    30
 10
483.07864599999988
 20
-301.0
 30
0.0
 11
483.07864599999988
 21
-303.0
 31
0.0
  0
LINE
  5
D9
  8
SIZE
  6
BYBLOCK
 62
    30
 10
483.07864599999988
 20
-229.49999999999989
 30
0.0
 11
483.07864599999988
 21
-299.0
 31
0.0
  0
TEXT
  5
DA
  8
SIZE
  6
BYBLOCK
 62
    30
 10
451.07864599999999
 20
-497.99951499999997
 30
0.0
 40
64.0
  1
69.5
 50
90.0
 41
0.9
  0
LINE
  5
DB
  8
SIZE
  6
BYBLOCK
 62
    30
 10
184.0
 20
-299.0
 30
0.0
 11
390.83699000000001
 21
-299.0
 31
0.0
  0
LINE
  5
DC
  8
SIZE
  6
BYBLOCK
 62
    30
 10
187.5
 20
-272.5
 30
0.0
 11
390.83699000000001
 21
-272.5
 31
0.0
  0
LINE
  5
DD
  8
SIZE
  6
BYBLOCK
 62
    30
 10
360.83699000000001
 20
-270.5
 30
0.0
 11
360.83699000000001
 21
-268.5
 31
0.0
  0
LINE
  5
DE
  8
SIZE
  6
BYBLOCK
 62
    30
 10
360.83699000000001
 20
-301.0
 30
0.0
 11
360.83699000000001
 21
-303.0
 31
0.0
  0
LINE
  5
DF
  8
SIZE
  6
BYBLOCK
 62
    30
 10
360.83699000000001
 20
-272.5
 30
0.0
 11
360.83699000000001
 21
-299.0
 31
0.0
  0
TEXT
  5
E0
  8
SIZE
  6
BYBLOCK
 62
    30
 10
328.83699000000001
 20
-498.76889999999992
 30
0.0
 40
64.0
  1
26.5
 50
90.0
 41
0.9
  0
LINE
  5
E1
  8
SIZE
  6
BYBLOCK
 62
    30
 10
-260.0
 20
185.0
 30
0.0
 11
-638.37809600000003
 21
185.0
 31
0.0
  0
LINE
  5
E2
  8
SIZE
  6
BYBLOCK
 62
    30
 10
-260.0
 20
-185.0
 30
0.0
 11
-638.37809600000003
 21
-185.0
 31
0.0
  0
LINE
  5
E3
  8
SIZE
  6
BYBLOCK
 62
    30
 10
-608.37809600000003
 20
183.0
 30
0.0
 11
-608.37809600000003
 21
-183.0
 31
0.0
  0
TEXT
  5
E4
  8
SIZE
  6
BYBLOCK
 62
    30
 10
-640.37809600000003
 20
-74.057143000000011
 30
0.0
 40
64.0
  1
370
 50
90.0
 41
0.9
  0
LINE
  5
E5
  8
SIZE
  6
BYBLOCK
 62
    30
 10
220.0
 20
-225.0
 30
0.0
 11
220.0
 21
-1121.8710000000001
 31
0.0
  0
LINE
  5
E6
  8
SIZE
  6
BYBLOCK
 62
    30
 10
-220.0
 20
-225.0
 30
0.0
 11
-220.0
 21
-1121.8710000000001
 31
0.0
  0
LINE
  5
E7
  8
SIZE
  6
BYBLOCK
 62
    30
 10
218.0
 20
-1091.8710000000001
 30
0.0
 11
-218.0
 21
-1091.8710000000001
 31
0.0
  0
TEXT
  5
E8
  8
SIZE
  6
BYBLOCK
 62
    30
 10
-74.057143000000011
 20
-1059.8710000000001
 30
0.0
 40
64.0
  1
440
 41
0.9
  0
LINE
  5
E9
  8
SIZE
  6
BYBLOCK
 62
    30
 10
213.0
 20
-193.0
 30
0.0
 11
634.31646000000001
 21
-193.0
 31
0.0
  0
LINE
  5
EA
  8
SIZE
  6
BYBLOCK
 62
    30
 10
184.0
 20
-299.0
 30
0.0
 11
634.31646000000001
 21
-299.0
 31
0.0
  0
LINE
  5
EB
  8
SIZE
  6
BYBLOCK
 62
    30
 10
604.31645999999989
 20
-301.0
 30
0.0
 11
604.31645999999989
 21
-303.0
 31
0.0
  0
LINE
  5
EC
  8
SIZE
  6
BYBLOCK
 62
    30
 10
604.31645999999989
 20
-191.0
 30
0.0
 11
604.31645999999989
 21
-189.0
 31
0.0
  0
LINE
  5
ED
  8
SIZE
  6
BYBLOCK
 62
    30
 10
604.31645999999989
 20
-299.0
 30
0.0
 11
604.31645999999989
 21
-193.0
 31
0.0
  0
TEXT
  5
EE
  8
SIZE
  6
BYBLOCK
 62
    30
 10
572.31646000000001
 20
-510.43156999999991
 30
0.0
 40
64.0
  1
106
 50
90.0
 41
0.9
  0
LINE
  5
EF
  8
SIZE
  6
BYBLOCK
 62
    30
 10
0.0
 20
-294.66358199999991
 30
0.0
 11
0.0
 21
-583.04246599999999
 31
0.0
  0
LINE
  5
F0
  8
SIZE
  6
BYBLOCK
 62
    30
 10
33.0
 20
-217.5
 30
0.0
 11
33.0
 21
-583.04246599999999
 31
0.0
  0
LINE
  5
F1
  8
SIZE
  6
BYBLOCK
 62
    30
 10
35.0
 20
-553.04246599999999
 30
0.0
 11
37.0
 21
-553.04246599999999
 31
0.0
  0
LINE
  5
F2
  8
SIZE
  6
BYBLOCK
 62
    30
 10
-2.0
 20
-553.04246599999999
 30
0.0
 11
-4.0
 21
-553.04246599999999
 31
0.0
  0
LINE
  5
F3
  8
SIZE
  6
BYBLOCK
 62
    30
 10
33.0
 20
-553.04246599999999
 30
0.0
 11
0.0
 21
-553.04246599999999
 31
0.0
  0
TEXT
  5
F4
  8
SIZE
  6
BYBLOCK
 62
    30
 10
-30.128571000000001
 20
-521.04246599999999
 30
0.0
 40
64.0
  1
33
 41
0.9
  0
LINE
  5
F5
  8
SIZE
  6
BYBLOCK
 62
    30
 10
260.0
 20
185.0
 30
0.0
 11
706.59307899999999
 21
185.0
 31
0.0
  0
LINE
  5
F6
  8
SIZE
  6
BYBLOCK
 62
    30
 10
260.0
 20
-185.0
 30
0.0
 11
706.59307899999999
 21
-185.0
 31
0.0
  0
LINE
  5
F7
  8
SIZE
  6
BYBLOCK
 62
    30
 10
676.59307899999988
 20
183.0
 30
0.0
 11
676.59307899999988
 21
0.0
 31
0.0
  0
LINE
  5
F8
  8
SIZE
  6
BYBLOCK
 62
    30
 10
676.59307899999988
 20
-183.0
 30
0.0
 11
676.59307899999988
 21
0.0
 31
0.0
  0
TEXT
  5
F9
  8
SIZE
  6
BYBLOCK
 62
    30
 10
644.59307899999999
 20
-74.057143000000011
 30
0.0
 40
64.0
  1
370
 50
90.0
 41
0.9
  0
LINE
  5
FA
  8
SIZE
  6
BYBLOCK
 62
    30
 10
220.0
 20
225.0
 30
0.0
 11
220.0
 21
740.91474900000003
 31
0.0
  0
LINE
  5
FB
  8
SIZE
  6
BYBLOCK
 62
    30
 10
-220.0
 20
225.0
 30
0.0
 11
-220.0
 21
740.91474900000003
 31
0.0
  0
LINE
  5
FC
  8
SIZE
  6
BYBLOCK
 62
    30
 10
218.0
 20
710.91474900000003
 30
0.0
 11
-218.0
 21
710.91474900000003
 31
0.0
  0
TEXT
  5
FD
  8
SIZE
  6
BYBLOCK
 62
    30
 10
-74.057143000000011
 20
742.91474900000003
 30
0.0
 40
64.0
  1
440
 41
0.9
  0
LINE
  5
FE
  8
SIZE
  6
BYBLOCK
 62
    30
 10
-66.0
 20
-323.0
 30
0.0
 11
-66.0
 21
-462.45149800000002
 31
0.0
  0
LINE
  5
FF
  8
SIZE
  6
BYBLOCK
 62
    30
 10
-164.0
 20
-323.0
 30
0.0
 11
-164.0
 21
-462.45149800000002
 31
0.0
  0
LINE
  5
100
  8
SIZE
  6
BYBLOCK
 62
    30
 10
-166.0
 20
-432.45149800000002
 30
0.0
 11
-168.0
 21
-432.45149800000002
 31
0.0
  0
LINE
  5
101
  8
SIZE
  6
BYBLOCK
 62
    30
 10
-64.0
 20
-432.45149800000002
 30
0.0
 11
-62.0
 21
-432.45149800000002
 31
0.0
  0
LINE
  5
102
  8
SIZE
  6
BYBLOCK
 62
    30
 10
-164.0
 20
-432.45149800000002
 30
0.0
 11
-66.0
 21
-432.45149800000002
 31
0.0
  0
TEXT
  5
103
  8
SIZE
  6
BYBLOCK
 62
    30
 10
-393.94893300000001
 20
-400.45149800000002
 30
0.0
 40
64.0
  1
φ98
 41
0.9
  0
LINE
  5
104
  8
SIZE
  6
BYBLOCK
 62
    30
 10
-62.5
 20
-296.49999999999989
 30
0.0
 11
-62.5
 21
-586.02922999999998
 31
0.0
  0
LINE
  5
105
  8
SIZE
  6
BYBLOCK
 62
    30
 10
-167.5
 20
-296.49999999999989
 30
0.0
 11
-167.5
 21
-586.02922999999998
 31
0.0
  0
LINE
  5
106
  8
SIZE
  6
BYBLOCK
 62
    30
 10
-169.5
 20
-556.02922999999987
 30
0.0
 11
-171.5
 21
-556.02922999999987
 31
0.0
  0
LINE
  5
107
  8
SIZE
  6
BYBLOCK
 62
    30
 10
-60.5
 20
-556.02922999999987
 30
0.0
 11
-58.5
 21
-556.02922999999987
 31
0.0
  0
LINE
  5
108
  8
SIZE
  6
BYBLOCK
 62
    30
 10
-167.5
 20
-556.02922999999987
 30
0.0
 11
-62.5
 21
-556.02922999999987
 31
0.0
  0
TEXT
  5
109
  8
SIZE
  6
BYBLOCK
 62
    30
 10
-439.51468999999997
 20
-524.02922999999998
 30
0.0
 40
64.0
  1
φ105
 41
0.9
  0
LINE
  5
10A
  8
SIZE
  6
BYBLOCK
 62
    30
 10
115.0
 20
-349.011708
 30
0.0
 11
115.0
 21
-729.59747699999991
 31
0.0
  0
LINE
  5
10B
  8
SIZE
  6
BYBLOCK
 62
    30
 10
-115.0
 20
-350.24490299999991
 30
0.0
 11
-115.0
 21
-729.59747699999991
 31
0.0
  0
LINE
  5
10C
  8
SIZE
  6
BYBLOCK
 62
    30
 10
113.0
 20
-699.59747699999991
 30
0.0
 11
0.0
 21
-699.59747699999991
 31
0.0
  0
LINE
  5
10D
  8
SIZE
  6
BYBLOCK
 62
    30
 10
-113.0
 20
-699.59747699999991
 30
0.0
 11
0.0
 21
-699.59747699999991
 31
0.0
  0
TEXT
  5
10E
  8
SIZE
  6
BYBLOCK
 62
    30
 10
-74.057143000000011
 20
-667.5974769999998
 30
0.0
 40
64.0
  1
230
 41
0.9
  0
LINE
  5
10F
  8
SIZE
  6
BYBLOCK
 62
    30
 10
-150.0
 20
-246.0
 30
0.0
 11
-150.0
 21
-856.53332499999999
 31
0.0
  0
LINE
  5
110
  8
SIZE
  6
BYBLOCK
 62
    30
 10
150.0
 20
-246.0
 30
0.0
 11
150.0
 21
-856.53332499999999
 31
0.0
  0
LINE
  5
111
  8
SIZE
  6
BYBLOCK
 62
    30
 10
-148.0
 20
-826.53332499999988
 30
0.0
 11
0.0
 21
-826.53332499999988
 31
0.0
  0
LINE
  5
112
  8
SIZE
  6
BYBLOCK
 62
    30
 10
148.0
 20
-826.53332499999988
 30
0.0
 11
0.0
 21
-826.53332499999988
 31
0.0
  0
TEXT
  5
113
  8
SIZE
  6
BYBLOCK
 62
    30
 10
-74.057143000000011
 20
-794.53332499999999
 30
0.0
 40
64.0
  1
300
 41
0.9
  0
LINE
  5
114
  8
SIZE
  6
BYBLOCK
 62
    30
 10
206.0
 20
-190.0
 30
0.0
 11
206.0
 21
-977.557007
 31
0.0
  0
LINE
  5
115
  8
SIZE
  6
BYBLOCK
 62
    30
 10
-206.0
 20
-190.0
 30
0.0
 11
-206.0
 21
-977.557007
 31
0.0
  0
LINE
  5
116
  8
SIZE
  6
BYBLOCK
 62
    30
 10
204.0
 20
-947.55700699999989
 30
0.0
 11
0.0
 21
-947.55700699999989
 31
0.0
  0
LINE
  5
117
  8
SIZE
  6
BYBLOCK
 62
    30
 10
-204.0
 20
-947.55700699999989
 30
0.0
 11
0.0
 21
-947.55700699999989
 31
0.0
  0
TEXT
  5
118
  8
SIZE
  6
BYBLOCK
 62
    30
 10
-68.571429000000009
 20
-915.55700699999989
 30
0.0
 40
64.0
  1
412
 41
0.9
  0
LINE
  5
119
  8
SIZE
  6
BYBLOCK
 62
    30
 10
-190.0
 20
206.0
 30
0.0
 11
-761.89057600000001
 21
206.0
 31
0.0
  0
LINE
  5
11A
  8
SIZE
  6
BYBLOCK
 62
    30
 10
-190.0
 20
-206.0
 30
0.0
 11
-761.89057600000001
 21
-206.0
 31
0.0
  0
LINE
  5
11B
  8
SIZE
  6
BYBLOCK
 62
    30
 10
-731.8905759999999
 20
204.0
 30
0.0
 11
-731.8905759999999
 21
0.0
 31
0.0
  0
LINE
  5
11C
  8
SIZE
  6
BYBLOCK
 62
    30
 10
-731.8905759999999
 20
-204.0
 30
0.0
 11
-731.8905759999999
 21
0.0
 31
0.0
  0
TEXT
  5
11D
  8
SIZE
  6
BYBLOCK
 62
    30
 10
-763.89057600000001
 20
-70.097482999999997
 30
0.0
 40
64.0
  1
412
 50
90.0
 41
0.9
  0
LINE
  5
11E
  8
SIZE
  6
BYBLOCK
 62
    30
 10
-246.0
 20
150.0
 30
0.0
 11
-510.62436300000002
 21
150.0
 31
0.0
  0
LINE
  5
11F
  8
SIZE
  6
BYBLOCK
 62
    30
 10
-246.0
 20
-150.0
 30
0.0
 11
-510.62436300000002
 21
-150.0
 31
0.0
  0
LINE
  5
120
  8
SIZE
  6
BYBLOCK
 62
    30
 10
-480.6243629999999
 20
148.0
 30
0.0
 11
-480.6243629999999
 21
0.0
 31
0.0
  0
LINE
  5
121
  8
SIZE
  6
BYBLOCK
 62
    30
 10
-480.6243629999999
 20
-148.0
 30
0.0
 11
-480.6243629999999
 21
0.0
 31
0.0
  0
TEXT
  5
122
  8
SIZE
  6
BYBLOCK
 62
    30
 10
-512.62436300000002
 20
-74.057143000000011
 30
0.0
 40
64.0
  1
300
 50
90.0
 41
0.9
  0
LINE
  5
123
  8
SIZE
  6
BYBLOCK
 62
    30
 10
206.0
 20
190.0
 30
0.0
 11
206.0
 21
627.22400500000003
 31
0.0
  0
LINE
  5
124
  8
SIZE
  6
BYBLOCK
 62
    30
 10
-206.0
 20
190.0
 30
0.0
 11
-206.0
 21
627.22400500000003
 31
0.0
  0
LINE
  5
125
  8
SIZE
  6
BYBLOCK
 62
    30
 10
204.0
 20
597.22400500000003
 30
0.0
 11
-204.0
 21
597.22400500000003
 31
0.0
  0
TEXT
  5
126
  8
SIZE
  6
BYBLOCK
 62
    30
 10
-68.571429000000009
 20
629.22400500000003
 30
0.0
 40
64.0
  1
412
 41
0.9
  0
LINE
  5
127
  8
SIZE
  6
BYBLOCK
 62
    30
 10
190.0
 20
-206.0
 30
0.0
 11
827.80478400000015
 21
-206.0
 31
0.0
  0
LINE
  5
128
  8
SIZE
  6
BYBLOCK
 62
    30
 10
190.0
 20
206.0
 30
0.0
 11
827.80478400000015
 21
206.0
 31
0.0
  0
LINE
  5
129
  8
SIZE
  6
BYBLOCK
 62
    30
 10
797.80478400000004
 20
-204.0
 30
0.0
 11
797.80478400000004
 21
0.0
 31
0.0
  0
LINE
  5
12A
  8
SIZE
  6
BYBLOCK
 62
    30
 10
797.80478400000004
 20
204.0
 30
0.0
 11
797.80478400000004
 21
0.0
 31
0.0
  0
TEXT
  5
12B
  8
SIZE
  6
BYBLOCK
 62
    30
 10
765.80478400000004
 20
-68.571429000000009
 30
0.0
 40
64.0
  1
412
 50
90.0
 41
0.9
  0
LINE
  5
12C
  8
SIZE
  6
BYBLOCK
 62
    30
 10
246.0
 20
150.0
 30
0.0
 11
574.87626900000009
 21
150.0
 31
0.0
  0
LINE
  5
12D
  8
SIZE
  6
BYBLOCK
 62
    30
 10
246.0
 20
-150.0
 30
0.0
 11
574.87626900000009
 21
-150.0
 31
0.0
  0
LINE
  5
12E
  8
SIZE
  6
BYBLOCK
 62
    30
 10
544.87626900000009
 20
148.0
 30
0.0
 11
544.87626900000009
 21
0.0
 31
0.0
  0
LINE
  5
12F
  8
SIZE
  6
BYBLOCK
 62
    30
 10
544.87626900000009
 20
-148.0
 30
0.0
 11
544.87626900000009
 21
0.0
 31
0.0
  0
TEXT
  5
130
  8
SIZE
  6
BYBLOCK
 62
    30
 10
512.87626900000009
 20
-74.057143000000011
 30
0.0
 40
64.0
  1
300
 50
90.0
 41
0.9
  0
LINE
  5
131
  8
SIZE
  6
BYBLOCK
 62
    30
 10
150.0
 20
246.0
 30
0.0
 11
150.0
 21
382.36798299999992
 31
0.0
  0
LINE
  5
132
  8
SIZE
  6
BYBLOCK
 62
    30
 10
-150.0
 20
246.0
 30
0.0
 11
-150.0
 21
382.36798299999992
 31
0.0
  0
LINE
  5
133
  8
SIZE
  6
BYBLOCK
 62
    30
 10
148.0
 20
352.36798299999992
 30
0.0
 11
-148.0
 21
352.36798299999992
 31
0.0
  0
TEXT
  5
134
  8
SIZE
  6
BYBLOCK
 62
    30
 10
-74.057143000000011
 20
384.36798299999992
 30
0.0
 40
64.0
  1
300
 41
0.9
  0
LINE
  5
135
  8
SIZE
  6
BYBLOCK
 62
    30
 10
193.0
 20
213.0
 30
0.0
 11
193.0
 21
507.61680399999989
 31
0.0
  0
LINE
  5
136
  8
SIZE
  6
BYBLOCK
 62
    30
 10
-193.0
 20
213.0
 30
0.0
 11
-193.0
 21
507.61680399999989
 31
0.0
  0
LINE
  5
137
  8
SIZE
  6
BYBLOCK
 62
    30
 10
191.0
 20
477.61680399999989
 30
0.0
 11
0.0
 21
477.61680399999989
 31
0.0
  0
LINE
  5
138
  8
SIZE
  6
BYBLOCK
 62
    30
 10
-191.0
 20
477.61680399999989
 30
0.0
 11
0.0
 21
477.61680399999989
 31
0.0
  0
TEXT
  5
139
  8
SIZE
  6
BYBLOCK
 62
    30
 10
-108.246425
 20
509.616804
 30
0.0
 40
64.0
  1
□386
 41
0.9
  0
LINE
  5
13A
  8
SIZE
  6
BYBLOCK
 62
    30
 10
227.49999999999989
 20
227.49999999999989
 30
0.0
 11
227.49999999999989
 21
857.2019130000001
 31
0.0
  0
LINE
  5
13B
  8
SIZE
  6
BYBLOCK
 62
    30
 10
-227.49999999999989
 20
227.49999999999989
 30
0.0
 11
-227.49999999999989
 21
857.2019130000001
 31
0.0
  0
LINE
  5
13C
  8
SIZE
  6
BYBLOCK
 62
    30
 10
225.49999999999989
 20
827.20191299999999
 30
0.0
 11
0.0
 21
827.20191299999999
 31
0.0
  0
LINE
  5
13D
  8
SIZE
  6
BYBLOCK
 62
    30
 10
-225.49999999999989
 20
827.20191299999999
 30
0.0
 11
0.0
 21
827.20191299999999
 31
0.0
  0
TEXT
  5
13E
  8
SIZE
  6
BYBLOCK
 62
    30
 10
-109.61785399999999
 20
859.20191299999999
 30
0.0
 40
64.0
  1
□455
 41
0.9
  0
CIRCLE
  5
13F
  8
SIZE
  6
CONTINUOUS
 62
    30
 10
-227.49999999999989
 20
827.20191299999999
 30
0.0
 40
6.0
  0
CIRCLE
  5
140
  8
SIZE
  6
CONTINUOUS
 62
    30
 10
227.49999999999989
 20
827.20191299999999
 30
0.0
 40
6.0
  0
CIRCLE
  5
141
  8
SIZE
  6
CONTINUOUS
 62
    30
 10
-193.0
 20
477.61680399999989
 30
0.0
 40
6.0
  0
CIRCLE
  5
142
  8
SIZE
  6
CONTINUOUS
 62
    30
 10
193.0
 20
477.61680399999989
 30
0.0
 40
6.0
  0
CIRCLE
  5
143
  8
SIZE
  6
CONTINUOUS
 62
    30
 10
-150.0
 20
352.36798299999992
 30
0.0
 40
6.0
  0
CIRCLE
  5
144
  8
SIZE
  6
CONTINUOUS
 62
    30
 10
150.0
 20
352.36798299999992
 30
0.0
 40
6.0
  0
CIRCLE
  5
145
  8
SIZE
  6
CONTINUOUS
 62
    30
 10
544.87626900000009
 20
-150.0
 30
0.0
 40
6.0
  0
CIRCLE
  5
146
  8
SIZE
  6
CONTINUOUS
 62
    30
 10
544.87626900000009
 20
150.0
 30
0.0
 40
6.0
  0
CIRCLE
  5
147
  8
SIZE
  6
CONTINUOUS
 62
    30
 10
797.80478400000004
 20
206.0
 30
0.0
 40
6.0
  0
CIRCLE
  5
148
  8
SIZE
  6
CONTINUOUS
 62
    30
 10
797.80478400000004
 20
-206.0
 30
0.0
 40
6.0
  0
CIRCLE
  5
149
  8
SIZE
  6
CONTINUOUS
 62
    30
 10
-206.0
 20
597.22400500000003
 30
0.0
 40
6.0
  0
CIRCLE
  5
14A
  8
SIZE
  6
CONTINUOUS
 62
    30
 10
206.0
 20
597.22400500000003
 30
0.0
 40
6.0
  0
CIRCLE
  5
14B
  8
SIZE
  6
CONTINUOUS
 62
    30
 10
-480.6243629999999
 20
-150.0
 30
0.0
 40
6.0
  0
CIRCLE
  5
14C
  8
SIZE
  6
CONTINUOUS
 62
    30
 10
-480.6243629999999
 20
150.0
 30
0.0
 40
6.0
  0
CIRCLE
  5
14D
  8
SIZE
  6
CONTINUOUS
 62
    30
 10
-731.8905759999999
 20
-206.0
 30
0.0
 40
6.0
  0
CIRCLE
  5
14E
  8
SIZE
  6
CONTINUOUS
 62
    30
 10
-731.8905759999999
 20
206.0
 30
0.0
 40
6.0
  0
CIRCLE
  5
14F
  8
SIZE
  6
CONTINUOUS
 62
    30
 10
-206.0
 20
-947.55700699999989
 30
0.0
 40
6.0
  0
CIRCLE
  5
150
  8
SIZE
  6
CONTINUOUS
 62
    30
 10
206.0
 20
-947.55700699999989
 30
0.0
 40
6.0
  0
CIRCLE
  5
151
  8
SIZE
  6
CONTINUOUS
 62
    30
 10
150.0
 20
-826.53332499999988
 30
0.0
 40
6.0
  0
CIRCLE
  5
152
  8
SIZE
  6
CONTINUOUS
 62
    30
 10
-150.0
 20
-826.53332499999988
 30
0.0
 40
6.0
  0
CIRCLE
  5
153
  8
SIZE
  6
CONTINUOUS
 62
    30
 10
-115.0
 20
-699.59747699999991
 30
0.0
 40
6.0
  0
CIRCLE
  5
154
  8
SIZE
  6
CONTINUOUS
 62
    30
 10
115.0
 20
-699.59747699999991
 30
0.0
 40
6.0
  0
CIRCLE
  5
155
  8
SIZE
  6
CONTINUOUS
 62
    30
 10
-62.5
 20
-556.02922999999987
 30
0.0
 40
6.0
  0
CIRCLE
  5
156
  8
SIZE
  6
CONTINUOUS
 62
    30
 10
-167.5
 20
-556.02922999999987
 30
0.0
 40
6.0
  0
CIRCLE
  5
157
  8
SIZE
  6
CONTINUOUS
 62
    30
 10
-66.0
 20
-432.45149800000002
 30
0.0
 40
6.0
  0
CIRCLE
  5
158
  8
SIZE
  6
CONTINUOUS
 62
    30
 10
-164.0
 20
-432.45149800000002
 30
0.0
 40
6.0
  0
CIRCLE
  5
159
  8
SIZE
  6
CONTINUOUS
 62
    30
 10
-220.0
 20
710.91474900000003
 30
0.0
 40
6.0
  0
CIRCLE
  5
15A
  8
SIZE
  6
CONTINUOUS
 62
    30
 10
220.0
 20
710.91474900000003
 30
0.0
 40
6.0
  0
CIRCLE
  5
15B
  8
SIZE
  6
CONTINUOUS
 62
    30
 10
676.59307899999988
 20
-185.0
 30
0.0
 40
6.0
  0
CIRCLE
  5
15C
  8
SIZE
  6
CONTINUOUS
 62
    30
 10
676.59307899999988
 20
185.0
 30
0.0
 40
6.0
  0
CIRCLE
  5
15D
  8
SIZE
  6
CONTINUOUS
 62
    30
 10
0.0
 20
-553.04246599999999
 30
0.0
 40
6.0
  0
CIRCLE
  5
15E
  8
SIZE
  6
CONTINUOUS
 62
    30
 10
33.0
 20
-553.04246599999999
 30
0.0
 40
6.0
  0
CIRCLE
  5
15F
  8
SIZE
  6
CONTINUOUS
 62
    30
 10
604.31645999999989
 20
-193.0
 30
0.0
 40
6.0
  0
CIRCLE
  5
160
  8
SIZE
  6
CONTINUOUS
 62
    30
 10
604.31645999999989
 20
-299.0
 30
0.0
 40
6.0
  0
CIRCLE
  5
161
  8
SIZE
  6
CONTINUOUS
 62
    30
 10
-220.0
 20
-1091.8710000000001
 30
0.0
 40
6.0
  0
CIRCLE
  5
162
  8
SIZE
  6
CONTINUOUS
 62
    30
 10
220.0
 20
-1091.8710000000001
 30
0.0
 40
6.0
  0
CIRCLE
  5
163
  8
SIZE
  6
CONTINUOUS
 62
    30
 10
-608.37809600000003
 20
-185.0
 30
0.0
 40
6.0
  0
CIRCLE
  5
164
  8
SIZE
  6
CONTINUOUS
 62
    30
 10
-608.37809600000003
 20
185.0
 30
0.0
 40
6.0
  0
CIRCLE
  5
165
  8
SIZE
  6
CONTINUOUS
 62
    30
 10
360.83699000000001
 20
-299.0
 30
0.0
 40
6.0
  0
CIRCLE
  5
166
  8
SIZE
  6
CONTINUOUS
 62
    30
 10
360.83699000000001
 20
-272.5
 30
0.0
 40
6.0
  0
CIRCLE
  5
167
  8
SIZE
  6
CONTINUOUS
 62
    30
 10
483.07864599999988
 20
-299.0
 30
0.0
 40
6.0
  0
CIRCLE
  5
168
  8
SIZE
  6
CONTINUOUS
 62
    30
 10
483.07864599999988
 20
-229.49999999999989
 30
0.0
 40
6.0
  0
LINE
  5
17D
  8
NOTE
  6
CONTINUOUS
 62
     4
 10
200.0
 20
-185.0
 30
0.0
 11
240.0
 21
-185.0
 31
0.0
  0
LINE
  5
17E
  8
NOTE
  6
CONTINUOUS
 62
     4
 10
220.0
 20
-165.0
 30
0.0
 11
220.0
 21
-205.0
 31
0.0
  0
LINE
  5
17F
  8
NOTE
  6
CONTINUOUS
 62
     4
 10
-200.0
 20
-185.0
 30
0.0
 11
-240.0
 21
-185.0
 31
0.0
  0
LINE
  5
180
  8
NOTE
  6
CONTINUOUS
 62
     4
 10
-220.0
 20
-205.0
 30
0.0
 11
-220.0
 21
-165.0
 31
0.0
  0
LINE
  5
181
  8
NOTE
  6
CONTINUOUS
 62
     4
 10
200.0
 20
185.0
 30
0.0
 11
240.0
 21
185.0
 31
0.0
  0
LINE
  5
182
  8
NOTE
  6
CONTINUOUS
 62
     4
 10
220.0
 20
205.0
 30
0.0
 11
220.0
 21
165.0
 31
0.0
  0
LINE
  5
183
  8
NOTE
  6
CONTINUOUS
 62
     4
 10
-200.0
 20
185.0
 30
0.0
 11
-240.0
 21
185.0
 31
0.0
  0
LINE
  5
184
  8
NOTE
  6
CONTINUOUS
 62
     4
 10
-220.0
 20
165.0
 30
0.0
 11
-220.0
 21
205.0
 31
0.0
  0
LINE
  5
18F
  8
NOTE
  6
CONTINUOUS
 62
     4
 10
150.0
 20
-226.0
 30
0.0
 11
150.0
 21
-186.0
 31
0.0
  0
LINE
  5
190
  8
NOTE
  6
CONTINUOUS
 62
     4
 10
130.0
 20
-206.0
 30
0.0
 11
170.0
 21
-206.0
 31
0.0
  0
LINE
  5
191
  8
NOTE
  6
CONTINUOUS
 62
     4
 10
150.0
 20
186.0
 30
0.0
 11
150.0
 21
226.0
 31
0.0
  0
LINE
  5
192
  8
NOTE
  6
CONTINUOUS
 62
     4
 10
130.0
 20
206.0
 30
0.0
 11
170.0
 21
206.0
 31
0.0
  0
LINE
  5
193
  8
NOTE
  6
CONTINUOUS
 62
     4
 10
-150.0
 20
186.0
 30
0.0
 11
-150.0
 21
226.0
 31
0.0
  0
LINE
  5
194
  8
NOTE
  6
CONTINUOUS
 62
     4
 10
-170.0
 20
206.0
 30
0.0
 11
-130.0
 21
206.0
 31
0.0
  0
LINE
  5
195
  8
NOTE
  6
CONTINUOUS
 62
     4
 10
206.0
 20
130.0
 30
0.0
 11
206.0
 21
170.0
 31
0.0
  0
LINE
  5
196
  8
NOTE
  6
CONTINUOUS
 62
     4
 10
186.0
 20
150.0
 30
0.0
 11
226.0
 21
150.0
 31
0.0
  0
LINE
  5
197
  8
NOTE
  6
CONTINUOUS
 62
     4
 10
206.0
 20
-170.0
 30
0.0
 11
206.0
 21
-130.0
 31
0.0
  0
LINE
  5
198
  8
NOTE
  6
CONTINUOUS
 62
     4
 10
186.0
 20
-150.0
 30
0.0
 11
226.0
 21
-150.0
 31
0.0
  0
LINE
  5
199
  8
NOTE
  6
CONTINUOUS
 62
     4
 10
-206.0
 20
130.0
 30
0.0
 11
-206.0
 21
170.0
 31
0.0
  0
LINE
  5
19A
  8
NOTE
  6
CONTINUOUS
 62
     4
 10
-226.0
 20
150.0
 30
0.0
 11
-186.0
 21
150.0
 31
0.0
  0
LINE
  5
19B
  8
NOTE
  6
CONTINUOUS
 62
     4
 10
-206.0
 20
-170.0
 30
0.0
 11
-206.0
 21
-130.0
 31
0.0
  0
LINE
  5
19C
  8
NOTE
  6
CONTINUOUS
 62
     4
 10
-226.0
 20
-150.0
 30
0.0
 11
-186.0
 21
-150.0
 31
0.0
  0
TEXT
  5
19D
  8
ETC
  6
CONTINUOUS
 62
    61
 10
513.27459599999997
 20
790.19453903227657
 30
0.0
 40
64.0
  1
換気扇
 41
0.9
  0
TEXT
  5
1A6
  8
ETC
  6
CONTINUOUS
 62
    61
 10
642.11854850492398
 20
701.66990131952093
 30
0.0
 40
50.0
  1
VL-130ZSK2
 41
0.9
  0
TEXT
  5
1AD
  8
ETC
  6
CONTINUOUS
 62
    61
 10
642.11854850492398
 20
622.44618067022168
 30
0.0
 40
50.0
  1
VL-130ZSK2-BR
 41
0.9
  0
TEXT
  5
1B3
  8
ETC
  6
CONTINUOUS
 62
    61
 10
651.66113711553351
 20
539.77920084582252
 30
0.0
 40
50.0
  1
VL-150ZSK2
 41
0.9
  0
TEXT
  5
1B9
  8
ETC
  6
CONTINUOUS
 62
    61
 10
648.48027662810625
 20
447.57372617726531
 30
0.0
 40
50.0
  1
VL-150ZSDK2
 41
0.9
  0
TEXT
  5
1BF
  8
ETC
  6
CONTINUOUS
 62
    61
 10
648.48027424532972
 20
355.36825150870823
 30
0.0
 40
50.0
  1
VL-250ZSDK2
 41
0.9
  0
LINE
  5
1C0
  8
NOTE
  6
CONTINUOUS
 62
     4
 10
-236.93877900000001
 20
-221.23641499999991
 30
0.0
 11
-220.0
 21
-185.0
 31
0.0
  0
LINE
  5
1C1
  8
NOTE
  6
CONTINUOUS
 62
     4
 10
-220.0
 20
-185.0
 30
0.0
 11
-252.787621
 21
-207.9122659999999
 31
0.0
  0
LINE
  5
1C2
  8
NOTE
  6
CONTINUOUS
 62
     4
 10
-245.40535399999999
 20
159.95048099999991
 30
0.0
 11
-206.35533499999991
 21
151.28468399999991
 31
0.0
  0
LINE
  5
1C3
  8
NOTE
  6
CONTINUOUS
 62
     4
 10
-206.35533499999991
 20
151.28468399999991
 30
0.0
 11
-235.840745
 21
178.31449399999991
 31
0.0
  0
LINE
  5
1C4
  8
NOTE
  6
CONTINUOUS
 62
     4
 10
-251.5704089999999
 20
209.562355
 30
0.0
 11
-220.0
 21
185.0
 31
0.0
  0
LINE
  5
1C5
  8
NOTE
  6
CONTINUOUS
 62
     4
 10
-220.0
 20
185.0
 30
0.0
 11
-235.05959899999999
 21
222.05682799999991
 31
0.0
  0
LINE
  5
1C6
  8
NOTE
  6
CONTINUOUS
 62
     4
 10
234.32222400000001
 20
-147.6519889999999
 30
0.0
 11
220.0
 21
-185.0
 31
0.0
  0
LINE
  5
1C7
  8
NOTE
  6
CONTINUOUS
 62
     4
 10
220.0
 20
-185.0
 30
0.0
 11
251.077415
 21
-159.81678600000001
 31
0.0
  0
LINE
  5
1C8
  8
NOTE
  6
CONTINUOUS
 62
     4
 10
31.159632999999999
 20
-137.542359
 30
0.0
 11
33.0
 21
-177.5
 31
0.0
  0
LINE
  5
1C9
  8
NOTE
  6
CONTINUOUS
 62
     4
 10
33.0
 20
-177.5
 30
0.0
 11
51.385015000000003
 21
-141.97548399999991
 31
0.0
  0
LINE
  5
1CA
  8
NOTE
  6
CONTINUOUS
 62
     4
 10
241.22824299999999
 20
218.9022369999999
 30
0.0
 11
220.0
 21
185.0
 31
0.0
  0
LINE
  5
1CB
  8
NOTE
  6
CONTINUOUS
 62
     4
 10
220.0
 20
185.0
 30
0.0
 11
255.33531599999989
 21
203.74607700000001
 31
0.0
  0
LINE
  5
20A
  8
OUTLINE
  6
CONTINUOUS
 62
     3
 10
227.49999999999989
 20
-217.5
 30
0.0
 11
227.49999999999989
 21
217.5
 31
0.0
  0
LINE
  5
20B
  8
OUTLINE
  6
CONTINUOUS
 62
     3
 10
-227.49999999999989
 20
-217.5
 30
0.0
 11
-227.49999999999989
 21
217.5
 31
0.0
  0
POINT
  5
20C
  8
ARRANGE
  6
CONTINUOUS
 62
     1
 10
0.0
 20
0.0
 30
0.0
  0
CIRCLE
  5
20D
  8
ARRANGE
  6
CONTINUOUS
 62
     1
 10
0.0
 20
0.0
 30
0.0
 40
40.0
  0
LINE
  5
20E
  8
OUTLINE
  6
CONTINUOUS
 62
     3
 10
-217.5
 20
-227.49999999999989
 30
0.0
 11
169.35185200000001
 21
-227.49999999999989
 31
0.0
  0
ARC
  5
20F
  8
OUTLINE
  6
CONTINUOUS
 62
     3
 10
-217.5
 20
-217.5
 30
0.0
 40
10.0
 50
180.0
 51
270.0
  0
LINE
  5
210
  8
OUTLINE
  6
CONTINUOUS
 62
     3
 10
169.35185200000001
 20
-227.49999999999989
 30
0.0
 11
217.5
 21
-227.49999999999989
 31
0.0
  0
ARC
  5
211
  8
OUTLINE
  6
CONTINUOUS
 62
     3
 10
217.5
 20
-217.5
 30
0.0
 40
10.0
 50
270.0
 51
0.0
  0
LINE
  5
212
  8
OUTLINE
  6
CONTINUOUS
 62
     3
 10
-217.5
 20
227.49999999999989
 30
0.0
 11
217.5
 21
227.49999999999989
 31
0.0
  0
ARC
  5
213
  8
OUTLINE
  6
CONTINUOUS
 62
     3
 10
-217.5
 20
217.5
 30
0.0
 40
10.0
 50
90.0
 51
180.0
  0
ARC
  5
214
  8
OUTLINE
  6
CONTINUOUS
 62
     3
 10
217.5
 20
217.5
 30
0.0
 40
10.0
 50
0.0
 51
90.0
  0
ENDSEC
  0
EOF
