  0
SECTION
  2
HEADER
  9
$ACADVER
  1
AC1009
  9
$INSBASE
 10
0.0
 20
0.0
 30
0.0
  9
$EXTMIN
 10
-706.12316399999986
 20
-543.04218600000002
 30
0.0
  9
$EXTMAX
 10
1229.0283192986701
 20
469.34032000435769
 30
50.0
  9
$LIMMIN
 10
-2970.0
 20
-2100.0
  9
$LIMMAX
 10
2970.0
 20
2100.0
  9
$ORTHOMODE
 70
     1
  9
$REGENMODE
 70
     1
  9
$FILLMODE
 70
     1
  9
$QTEXTMODE
 70
     0
  9
$MIRRTEXT
 70
     0
  9
$DRAGMODE
 70
     2
  9
$LTSCALE
 40
20.0
  9
$OSMODE
 70
   167
  9
$ATTMODE
 70
     1
  9
$TEXTSIZE
 40
64.0
  9
$TRACEWID
 40
0.05
  9
$TEXTSTYLE
  7
STANDARD
  9
$CLAYER
  8
DETAIL
  9
$CELTYPE
  6
PHANTOM
  9
$CECOLOR
 62
     5
  9
$DIMSCALE
 40
1.0
  9
$DIMASZ
 40
12.0
  9
$DIMEXO
 40
20.0
  9
$DIMDLI
 40
200.0
  9
$DIMRND
 40
0.0
  9
$DIMDLE
 40
0.0
  9
$DIMEXE
 40
20.0
  9
$DIMTP
 40
0.0
  9
$DIMTM
 40
0.0
  9
$DIMTXT
 40
64.0
  9
$DIMCEN
 40
0.09
  9
$DIMTSZ
 40
0.0
  9
$DIMTOL
 70
     0
  9
$DIMLIM
 70
     0
  9
$DIMTIH
 70
     0
  9
$DIMTOH
 70
     0
  9
$DIMSE1
 70
     0
  9
$DIMSE2
 70
     0
  9
$DIMTAD
 70
     1
  9
$DIMZIN
 70
     8
  9
$DIMBLK
  1
DOT1
  9
$DIMASO
 70
     1
  9
$DIMSHO
 70
     0
  9
$DIMPOST
  1

  9
$DIMAPOST
  1

  9
$DIMALT
 70
     0
  9
$DIMALTD
 70
     2
  9
$DIMALTF
 40
25.399999999999999
  9
$DIMLFAC
 40
1.0
  9
$DIMTOFL
 70
     1
  9
$DIMTVP
 40
0.0
  9
$DIMTIX
 70
     1
  9
$DIMSOXD
 70
     0
  9
$DIMSAH
 70
     1
  9
$DIMBLK1
  1
ORIGIN
  9
$DIMBLK2
  1
ORIGIN
  9
$DIMSTYLE
  2
STANDARD
  9
$DIMCLRD
 70
     7
  9
$DIMCLRE
 70
     7
  9
$DIMCLRT
 70
     7
  9
$DIMTFAC
 40
1.0
  9
$DIMGAP
 40
25.0
  9
$LUNITS
 70
     2
  9
$LUPREC
 70
     4
  9
$SKETCHINC
 40
0.1
  9
$FILLETRAD
 40
3.0
  9
$AUNITS
 70
     1
  9
$AUPREC
 70
     3
  9
$MENU
  1
ACAD
  9
$ELEVATION
 40
0.0
  9
$PELEVATION
 40
0.0
  9
$THICKNESS
 40
50.0
  9
$LIMCHECK
 70
     0
  9
$BLIPMODE
 70
     0
  9
$CHAMFERA
 40
0.0
  9
$CHAMFERB
 40
0.0
  9
$SKPOLY
 70
     0
  9
$TDCREATE
 40
2453019.6230103699
  9
$TDUPDATE
 40
2454985.7735429741
  9
$TDINDWG
 40
1.9012158102000001
  9
$TDUSRTIMER
 40
1.9012130903
  9
$USRTIMER
 70
     1
  9
$ANGBASE
 50
0.0
  9
$ANGDIR
 70
     0
  9
$PDMODE
 70
     3
  9
$PDSIZE
 40
-2.0
  9
$PLINEWID
 40
0.0
  9
$COORDS
 70
     2
  9
$SPLFRAME
 70
     0
  9
$SPLINETYPE
 70
     6
  9
$SPLINESEGS
 70
     8
  9
$ATTDIA
 70
     0
  9
$ATTREQ
 70
     1
  9
$HANDLING
 70
 22529
  9
$HANDSEED
  5
8E0
  9
$SURFTAB1
 70
     6
  9
$SURFTAB2
 70
     6
  9
$SURFTYPE
 70
     6
  9
$SURFU
 70
     6
  9
$SURFV
 70
     6
  9
$UCSNAME
  2

  9
$UCSORG
 10
0.0
 20
0.0
 30
0.0
  9
$UCSXDIR
 10
1.0
 20
0.0
 30
0.0
  9
$UCSYDIR
 10
0.0
 20
1.0
 30
0.0
  9
$PUCSNAME
  2

  9
$PUCSORG
 10
0.0
 20
0.0
 30
0.0
  9
$PUCSXDIR
 10
1.0
 20
0.0
 30
0.0
  9
$PUCSYDIR
 10
0.0
 20
1.0
 30
0.0
  9
$USERI1
 70
     0
  9
$USERI2
 70
     0
  9
$USERI3
 70
     0
  9
$USERI4
 70
     0
  9
$USERI5
 70
     0
  9
$USERR1
 40
20.0
  9
$USERR2
 40
0.0
  9
$USERR3
 40
0.0
  9
$USERR4
 40
0.0
  9
$USERR5
 40
0.0
  9
$WORLDVIEW
 70
     1
  9
$SHADEDGE
 70
     3
  9
$SHADEDIF
 70
    70
  9
$TILEMODE
 70
     1
  9
$MAXACTVP
 70
    48
  9
$PLIMCHECK
 70
     0
  9
$PEXTMIN
 10
-1.0000000000000000E+020
 20
-1.0000000000000000E+020
 30
-1.0000000000000000E+020
  9
$PEXTMAX
 10
1.0000000000000000E+020
 20
1.0000000000000000E+020
 30
1.0000000000000000E+020
  9
$PLIMMIN
 10
0.0
 20
0.0
  9
$PLIMMAX
 10
12.0
 20
9.0
  9
$UNITMODE
 70
     0
  9
$VISRETAIN
 70
     0
  9
$PLINEGEN
 70
     0
  9
$PSLTSCALE
 70
     0
  0
ENDSEC
  0
SECTION
  2
TABLES
  0
TABLE
  2
VPORT
 70
     3
  0
VPORT
  2
*ACTIVE
 70
     0
 10
0.0
 20
0.0
 11
1.0
 21
1.0
 12
261.43291973037537
 22
-39.75180749388641
 13
0.0
 23
0.0
 14
1.0
 24
1.0
 15
0.0
 25
0.0
 16
0.0
 26
0.0
 36
1.0
 17
0.0
 27
0.0
 37
0.0
 40
1751.022133968994
 41
1.493654822335025
 42
50.0
 43
0.0
 44
0.0
 50
0.0
 51
0.0
 71
     0
 72
  1000
 73
     1
 74
     0
 75
     0
 76
     0
 77
     0
 78
     0
  0
ENDTAB
  0
TABLE
  2
LTYPE
 70
     6
  0
LTYPE
  2
CONTINUOUS
 70
     0
  3
実線
 72
    65
 73
     0
 40
0.0
  0
LTYPE
  2
PHANTOM
 70
     0
  3
Phantom ______  __  __  ______  __  __  ______
 72
    65
 73
     6
 40
2.5
 49
1.25
 49
-0.25
 49
0.25
 49
-0.25
 49
0.25
 49
-0.25
  0
LTYPE
  2
DASHDOT
 70
     0
  3
____ _ ____ _ ____ _ ____ _ ____ _ ____ _ ____
 72
    65
 73
     4
 40
5.5
 49
4.0
 49
-0.6
 49
0.3
 49
-0.6
  0
LTYPE
  2
DASHED
 70
     0
  3
-- -- -- -- -- -- -- -- -- -- -- -- -- -- --
 72
    65
 73
     2
 40
0.75
 49
0.5
 49
-0.25
  0
LTYPE
  2
CENTER
 70
     0
  3
Center ____ _ ____ _ ____ _ ____ _ ____ _ ____
 72
    65
 73
     4
 40
2.0
 49
1.25
 49
-0.25
 49
0.25
 49
-0.25
  0
LTYPE
  2
HIDDEN
 70
     0
  3
Hidden __ __ __ __ __ __ __ __ __ __ __ __ __ _
 72
    65
 73
     2
 40
0.375
 49
0.25
 49
-0.125
  0
ENDTAB
  0
TABLE
  2
LAYER
 70
    12
  0
LAYER
  2
0
 70
     0
 62
     7
  6
CONTINUOUS
  0
LAYER
  2
DETAIL
 70
     0
 62
     5
  6
CONTINUOUS
  0
LAYER
  2
SIZE
 70
     0
 62
    30
  6
CONTINUOUS
  0
LAYER
  2
BASIS
 70
     0
 62
     6
  6
DASHDOT
  0
LAYER
  2
OUTLINE
 70
     0
 62
     3
  6
CONTINUOUS
  0
LAYER
  2
ARRANGE
 70
     0
 62
     1
  6
CONTINUOUS
  0
LAYER
  2
DEFPOINTS
 70
     0
 62
     7
  6
CONTINUOUS
  0
LAYER
  2
ETC
 70
     0
 62
    61
  6
CONTINUOUS
  0
LAYER
  2
FIX
 70
     0
 62
    11
  6
CONTINUOUS
  0
LAYER
  2
NOTE
 70
     0
 62
     4
  6
CONTINUOUS
  0
LAYER
  2
SERVICESPACE
 70
     0
 62
     2
  6
DASHDOT
  0
LAYER
  2
SYMBOLLINE
 70
     0
 62
    15
  6
CONTINUOUS
  0
ENDTAB
  0
TABLE
  2
STYLE
 70
     3
  0
STYLE
  2
STANDARD
 70
     0
 40
64.0
 41
0.9
 50
0.0
 71
     0
 42
64.0
  3
SIMPLEX.shx
  4
BIGFONT.shx
  0
STYLE
  2
ANNOTATIVE
 70
     0
 40
0.0
 41
1.0
 50
0.0
 71
     0
 42
0.2
  3
txt
  4

  0
STYLE
  2

 70
     1
 40
0.0
 41
1.0
 50
0.0
 71
     0
 42
64.0
  3
ltypeshp.shx
  4

  0
ENDTAB
  0
TABLE
  2
VIEW
 70
     1
  0
VIEW
  2
ALL
 70
     0
 40
4282.6198079999967
 10
0.0
 20
41.309903999999989
 41
5940.0
 11
0.0
 21
0.0
 31
1.0
 12
0.0
 22
0.0
 32
0.0
 42
50.0
 43
0.0
 44
0.0
 50
0.0
 71
     0
  0
ENDTAB
  0
TABLE
  2
UCS
 70
     0
  0
ENDTAB
  0
TABLE
  2
APPID
 70
    17
  0
APPID
  2
ACAD
 70
     0
  0
APPID
  2
ACADANNOTATIVE
 70
     0
  0
APPID
  2
ACAD_MLEADERVER
 70
     0
  0
APPID
  2
AUTOCAD_POSTSCRIPT_FIGURE
 70
     0
  0
APPID
  2
ACAD_EXEMPT_FROM_CAD_STANDARDS
 70
     0
  0
APPID
  2
ACAD_PSEXT
 70
     0
  0
APPID
  2
ACAUTHENVIRON
 70
     0
  0
APPID
  2
GENIUS_GENOENT_13
 70
     0
  0
APPID
  2
GENIUS_GENCFG_13
 70
     0
  0
APPID
  2
GENIUS_GENCFG0_13
 70
     0
  0
APPID
  2
GENIUS_GENCFG1_13
 70
     0
  0
APPID
  2
GENIUS_GENCFG2_13
 70
     0
  0
APPID
  2
GENIUS_GENCFG3_13
 70
     0
  0
APPID
  2
GENIUS_GENCFG4_13
 70
     0
  0
APPID
  2
GENIUS_GEVCFG0_13
 70
     0
  0
APPID
  2
CONTENTBLOCKICON
 70
     0
  0
APPID
  2
CONTENTBLOCKDESCRIPTION
 70
     0
  0
ENDTAB
  0
TABLE
  2
DIMSTYLE
 70
     2
  0
DIMSTYLE
  2
STANDARD
 70
     0
  3

  4

  5

  6

  7

 40
1.0
 41
0.18
 42
0.0625
 43
0.38
 44
0.18
 45
0.0
 46
0.0
 47
0.0
 48
0.0
140
0.18
141
0.09
142
0.0
143
25.399999999999999
144
1.0
145
0.0
146
1.0
147
0.09
 71
     0
 72
     0
 73
     1
 74
     1
 75
     0
 76
     0
 77
     0
 78
     0
170
     0
171
     2
172
     0
173
     0
174
     0
175
     0
176
     7
177
     7
178
     7
  0
DIMSTYLE
  2
ANNOTATIVE
 70
     0
  3

  4

  5

  6

  7

 40
1.0
 41
0.18
 42
0.0625
 43
0.38
 44
0.18
 45
0.0
 46
0.0
 47
0.0
 48
0.0
140
0.18
141
0.09
142
0.0
143
25.399999999999999
144
1.0
145
0.0
146
1.0
147
0.09
 71
     0
 72
     0
 73
     1
 74
     1
 75
     0
 76
     0
 77
     0
 78
     0
170
     0
171
     2
172
     0
173
     0
174
     0
175
     0
176
     0
177
     0
178
     0
  0
ENDTAB
  0
ENDSEC
  0
SECTION
  2
BLOCKS
  0
BLOCK
  8
0
  2
$MODEL_SPACE
 70
     0
 10
0.0
 20
0.0
 30
0.0
  3
$MODEL_SPACE
  1

  0
ENDBLK
  5
6F0
  8
0
  0
BLOCK
 67
     1
  8
0
  2
$PAPER_SPACE
 70
     0
 10
0.0
 20
0.0
 30
0.0
  3
$PAPER_SPACE
  1

  0
ENDBLK
  5
6EC
 67
     1
  8
0
  0
BLOCK
  8
0
  2
DOT1
 70
     0
 10
0.0
 20
0.0
 30
0.0
  3
DOT1
  1

  0
CIRCLE
  5
724
  8
SIZE
  6
CONTINUOUS
 62
     7
 10
0.0
 20
0.0
 30
0.0
 40
3.0
  0
ENDBLK
  5
725
  8
0
  0
BLOCK
  8
0
  2
_ORIGIN
 70
     0
 10
0.0
 20
0.0
 30
0.0
  3
_ORIGIN
  1

  0
CIRCLE
  5
728
  8
0
  6
CONTINUOUS
 62
     7
 10
0.0
 20
0.0
 30
0.0
 40
0.5
  0
LINE
  5
729
  8
0
  6
CONTINUOUS
 62
     7
 10
0.0
 20
0.0
 30
0.0
 11
-1.0
 21
0.0
 31
0.0
  0
ENDBLK
  5
72A
  8
0
  0
ENDSEC
  0
SECTION
  2
ENTITIES
  0
CIRCLE
  5
72B
  8
ARRANGE
  6
CONTINUOUS
 62
     1
 10
0.0
 20
0.0
 30
0.0
 40
40.0
  0
POINT
  5
72C
  8
ARRANGE
  6
CONTINUOUS
 62
     1
 10
0.0
 20
0.0
 30
0.0
 39
50.0
  0
LINE
  5
72D
  8
BASIS
  6
CENTER
 62
     6
 39
50.0
 10
0.0
 20
-240.753567
 30
0.0
 11
0.0
 21
50.629446000000002
 31
0.0
  0
LINE
  5
72E
  8
BASIS
  6
CENTER
 62
     6
 10
-461.00003299999997
 20
-114.0
 30
0.0
 11
-104.1646929999999
 21
-114.0
 31
0.0
  0
LINE
  5
72F
  8
BASIS
  6
CENTER
 62
     6
 10
105.490337
 20
-114.0
 30
0.0
 11
483.84510999999992
 21
-114.0
 31
0.0
  0
TEXT
  5
730
  8
NOTE
  6
CONTINUOUS
 62
     4
 10
-477.80895199999992
 20
-181.88510600000001
 30
0.0
 40
40.0
  1
EA OA1
 50
90.0
 41
0.9
  0
LINE
  5
731
  8
DETAIL
  6
CONTINUOUS
 62
     5
 10
219.88502
 20
-246.7999999999999
 30
0.0
 11
-219.88502
 21
-246.7999999999999
 31
0.0
  0
LINE
  5
732
  8
DETAIL
  6
CONTINUOUS
 62
     5
 10
-257.61229999999989
 20
-222.80000000000001
 30
0.0
 11
257.61229999999989
 21
-222.80000000000001
 31
0.0
  0
LINE
  5
733
  8
DETAIL
  6
CONTINUOUS
 62
     5
 10
137.2723499999999
 20
-232.2999999999999
 30
0.0
 11
7.5
 21
-232.29930999999999
 31
0.0
  0
LINE
  5
734
  8
DETAIL
  6
CONTINUOUS
 62
     5
 10
75.570280000000025
 20
-185.5
 30
0.0
 11
154.966679
 21
-185.5
 31
0.0
  0
LINE
  5
735
  8
DETAIL
  6
CONTINUOUS
 62
     5
 10
-210.40000000000001
 20
0.0
 30
0.0
 11
210.40000000000001
 21
0.0
 31
0.0
  0
LINE
  5
736
  8
DETAIL
  6
CONTINUOUS
 62
     5
 10
-195.40000000000001
 20
-24.0
 30
0.0
 11
-195.40000000000001
 21
-30.0
 31
0.0
  0
LINE
  5
737
  8
DETAIL
  6
CONTINUOUS
 62
     5
 10
-197.40000000000001
 20
-30.0
 30
0.0
 11
-197.40000000000001
 21
-24.0
 31
0.0
  0
LINE
  5
738
  8
DETAIL
  6
CONTINUOUS
 62
     5
 10
-200.40000000000001
 20
-32.0
 30
0.0
 11
-200.40000000000001
 21
-10.0
 31
0.0
  0
LINE
  5
739
  8
DETAIL
  6
CONTINUOUS
 62
     5
 10
-340.39999999999992
 20
-32.0
 30
0.0
 11
-340.39999999999992
 21
-10.0
 31
0.0
  0
LINE
  5
73A
  8
DETAIL
  6
CONTINUOUS
 62
     5
 10
-343.39999999999992
 20
-30.0
 30
0.0
 11
-343.39999999999992
 21
-24.0
 31
0.0
  0
LINE
  5
73B
  8
DETAIL
  6
CONTINUOUS
 62
     5
 10
-345.39999999999992
 20
-30.0
 30
0.0
 11
-345.39999999999992
 21
-24.0
 31
0.0
  0
LINE
  5
73C
  8
DETAIL
  6
CONTINUOUS
 62
     5
 10
-352.29624999999982
 20
-32.0
 30
0.0
 11
-187.75459000000001
 21
-32.0
 31
0.0
  0
LINE
  5
73D
  8
DETAIL
  6
CONTINUOUS
 62
     5
 10
-352.29624999999982
 20
-34.0
 30
0.0
 11
-187.75459000000001
 21
-34.0
 31
0.0
  0
LINE
  5
73E
  8
DETAIL
  6
CONTINUOUS
 62
     5
 10
-238.0
 20
-228.80000000000001
 30
0.0
 11
-257.0261799999999
 21
-228.80000000000001
 31
0.0
  0
LINE
  5
73F
  8
DETAIL
  6
CONTINUOUS
 62
     5
 10
-291.64664499999992
 20
-185.5
 30
0.0
 11
-245.033321
 21
-185.5
 31
0.0
  0
LINE
  5
740
  8
DETAIL
  6
CONTINUOUS
 62
     5
 10
-435.00243999999992
 20
-163.06982999999991
 30
0.0
 11
-389.0
 21
-166.28999999999999
 31
0.0
  0
LINE
  5
741
  8
DETAIL
  6
CONTINUOUS
 62
     5
 10
-435.00243999999992
 20
-64.93016999999999
 30
0.0
 11
-389.0
 21
-61.710000000000001
 31
0.0
  0
LINE
  5
742
  8
DETAIL
  6
CONTINUOUS
 62
     5
 10
-436.0
 20
-162.0
 30
0.0
 11
-436.0
 21
-66.0
 31
0.0
  0
LINE
  5
743
  8
DETAIL
  6
CONTINUOUS
 62
     5
 10
-435.00243999999992
 20
-163.06982999999991
 30
0.0
 11
-436.0
 21
-162.0
 31
0.0
  0
LINE
  5
744
  8
DETAIL
  6
CONTINUOUS
 62
     5
 10
-435.00243999999992
 20
-64.93016999999999
 30
0.0
 11
-436.0
 21
-66.0
 31
0.0
  0
LINE
  5
745
  8
DETAIL
  6
CONTINUOUS
 62
     5
 10
-288.0
 20
-178.5
 30
0.0
 11
-288.0
 21
-60.5
 31
0.0
  0
LINE
  5
746
  8
DETAIL
  6
CONTINUOUS
 62
     5
 10
-359.0
 20
-187.0
 30
0.0
 11
-359.0
 21
-41.0
 31
0.0
  0
LINE
  5
747
  8
DETAIL
  6
CONTINUOUS
 62
     5
 10
-329.0
 20
-198.5
 30
0.0
 11
-329.0
 21
-34.0
 31
0.0
  0
LINE
  5
748
  8
DETAIL
  6
CONTINUOUS
 62
     5
 10
-389.0
 20
-176.0
 30
0.0
 11
-389.0
 21
-52.0
 31
0.0
  0
LINE
  5
749
  8
DETAIL
  6
CONTINUOUS
 62
     5
 10
-329.0
 20
-187.0
 30
0.0
 11
-359.0
 21
-187.0
 31
0.0
  0
LINE
  5
74A
  8
DETAIL
  6
CONTINUOUS
 62
     5
 10
-359.0
 20
-176.0
 30
0.0
 11
-389.0
 21
-176.0
 31
0.0
  0
LINE
  5
74B
  8
DETAIL
  6
CONTINUOUS
 62
     5
 10
-261.69429000000002
 20
-220.85035999999991
 30
0.0
 11
-273.6737399999999
 21
-195.89318
 31
0.0
  0
LINE
  5
74C
  8
DETAIL
  6
CONTINUOUS
 62
     5
 10
-257.0261799999999
 20
-228.80000000000001
 30
0.0
 11
-257.11315000000002
 21
-223.81746000000001
 31
0.0
  0
ARC
  5
74D
  8
DETAIL
  6
CONTINUOUS
 62
     5
 10
-256.11329999999992
 20
-223.7999999999999
 30
0.0
 40
1.0
 50
90.0
 51
180.99999799999981
  0
ARC
  5
74E
  8
DETAIL
  6
CONTINUOUS
 62
     5
 10
-257.61229999999989
 20
-217.80000000000001
 30
0.0
 40
5.0
 50
216.9857669999999
 51
270.0
  0
ARC
  5
74F
  8
DETAIL
  6
CONTINUOUS
 62
     5
 10
-257.61229999999989
 20
-217.80000000000001
 30
0.0
 40
5.0
 50
205.641006
 51
208.6424839999998
  0
LINE
  5
750
  8
DETAIL
  6
CONTINUOUS
 62
     5
 10
-288.0
 20
-198.5
 30
0.0
 11
-329.0
 21
-198.5
 31
0.0
  0
LINE
  5
751
  8
DETAIL
  6
CONTINUOUS
 62
     5
 10
-288.0
 20
-198.5
 30
0.0
 11
-288.0
 21
-178.5
 31
0.0
  0
ARC
  5
752
  8
DETAIL
  6
CONTINUOUS
 62
     5
 10
-270.96917000000002
 20
-194.59499
 30
0.0
 40
3.0
 50
181.0
 51
205.641006
  0
LINE
  5
753
  8
DETAIL
  6
CONTINUOUS
 62
     5
 10
-273.96870999999982
 20
-194.6473499999999
 30
0.0
 11
-273.97158999999982
 21
-194.48255
 31
0.0
  0
LINE
  5
754
  8
DETAIL
  6
CONTINUOUS
 62
     5
 10
-289.54664500000001
 20
-193.5
 30
0.0
 11
-274.97143999999992
 21
-193.5
 31
0.0
  0
ARC
  5
755
  8
DETAIL
  6
CONTINUOUS
 62
     5
 10
-274.97143999999992
 20
-194.5
 30
0.0
 40
1.0
 50
0.999957
 51
90.0
  0
LINE
  5
756
  8
DETAIL
  6
CONTINUOUS
 62
     5
 10
-329.0
 20
-41.0
 30
0.0
 11
-359.0
 21
-41.0
 31
0.0
  0
LINE
  5
757
  8
DETAIL
  6
CONTINUOUS
 62
     5
 10
-359.0
 20
-52.0
 30
0.0
 11
-389.0
 21
-52.0
 31
0.0
  0
ARC
  5
758
  8
DETAIL
  6
CONTINUOUS
 62
     5
 10
-341.39999999999992
 20
-30.0
 30
0.0
 40
2.0
 50
180.0
 51
270.0
  0
ARC
  5
759
  8
DETAIL
  6
CONTINUOUS
 62
     5
 10
-341.39999999999992
 20
-30.0
 30
0.0
 40
4.0
 50
180.0
 51
210.0
  0
LINE
  5
75A
  8
DETAIL
  6
CONTINUOUS
 62
     5
 10
-352.29624999999982
 20
-34.0
 30
0.0
 11
-352.29624999999982
 21
-32.0
 31
0.0
  0
LINE
  5
75B
  8
DETAIL
  6
CONTINUOUS
 62
     5
 10
-296.7999999999999
 20
-35.306429999999992
 30
0.0
 11
-296.7999999999999
 21
-35.29999999999999
 31
0.0
  0
LINE
  5
75C
  8
DETAIL
  6
CONTINUOUS
 62
     5
 10
-296.30000000000001
 20
-35.331380000000003
 30
0.0
 11
-296.30000000000001
 21
-35.29999999999999
 31
0.0
  0
LINE
  5
75D
  8
DETAIL
  6
CONTINUOUS
 62
     5
 10
-288.0
 20
-60.5
 30
0.0
 11
-288.0
 21
-34.0
 31
0.0
  0
LINE
  5
75E
  8
DETAIL
  6
CONTINUOUS
 62
     5
 10
-7.7276499999999988
 20
-232.2999999999999
 30
0.0
 11
-90.5
 21
-232.2999999999999
 31
0.0
  0
LINE
  5
75F
  8
DETAIL
  6
CONTINUOUS
 62
     5
 10
-152.7276599999999
 20
-232.2999999999999
 30
0.0
 11
-211.5
 21
-232.2999999999999
 31
0.0
  0
ARC
  5
760
  8
DETAIL
  6
CONTINUOUS
 62
     5
 10
-219.88502
 20
-236.80000000000001
 30
0.0
 40
10.0
 50
181.0
 51
270.0
  0
LINE
  5
761
  8
DETAIL
  6
CONTINUOUS
 62
     5
 10
-212.5
 20
-230.30000000000001
 30
0.0
 11
-237.5
 21
-230.30000000000001
 31
0.0
  0
LINE
  5
762
  8
DETAIL
  6
CONTINUOUS
 62
     5
 10
-229.99141999999989
 20
-230.79127999999989
 30
0.0
 11
-229.88348999999999
 21
-236.9745299999999
 31
0.0
  0
LINE
  5
763
  8
DETAIL
  6
CONTINUOUS
 62
     5
 10
-238.0
 20
-228.80000000000001
 30
0.0
 11
-238.0
 21
-229.80000000000001
 31
0.0
  0
ARC
  5
764
  8
DETAIL
  6
CONTINUOUS
 62
     5
 10
-230.49135000000001
 20
-230.80000000000001
 30
0.0
 40
0.5
 50
1.0
 51
90.0
  0
ARC
  5
765
  8
DETAIL
  6
CONTINUOUS
 62
     5
 10
-237.5
 20
-229.80000000000001
 30
0.0
 40
0.5
 50
180.0
 51
270.0
  0
LINE
  5
766
  8
DETAIL
  6
CONTINUOUS
 62
     5
 10
-212.0
 20
-231.80000000000001
 30
0.0
 11
-212.0
 21
-230.80000999999999
 31
0.0
  0
ARC
  5
767
  8
DETAIL
  6
CONTINUOUS
 62
     5
 10
-211.5
 20
-231.80000000000001
 30
0.0
 40
0.5
 50
180.0
 51
270.0
  0
ARC
  5
768
  8
DETAIL
  6
CONTINUOUS
 62
     5
 10
-212.5
 20
-230.80000000000001
 30
0.0
 40
0.5
 50
359.99924299999992
 51
90.0
  0
LINE
  5
769
  8
DETAIL
  6
CONTINUOUS
 62
     5
 10
-90.500410000000002
 20
-232.16315
 30
0.0
 11
-137.72765000000001
 21
-232.2999999999999
 31
0.0
  0
LINE
  5
76A
  8
DETAIL
  6
CONTINUOUS
 62
     5
 10
-137.72765000000001
 20
-232.2999999999999
 30
0.0
 11
-152.5
 21
-232.29930999999999
 31
0.0
  0
LINE
  5
76B
  8
DETAIL
  6
CONTINUOUS
 62
     5
 10
-152.5
 20
-232.29930999999999
 30
0.0
 11
-152.72765000000001
 21
-232.2999999999999
 31
0.0
  0
ARC
  5
76C
  8
DETAIL
  6
CONTINUOUS
 62
     5
 10
-199.39999999999981
 20
-30.0
 30
0.0
 40
2.0
 50
270.0
 51
0.0
  0
ARC
  5
76D
  8
DETAIL
  6
CONTINUOUS
 62
     5
 10
-199.39999999999981
 20
-30.0
 30
0.0
 40
4.0
 50
330.0
 51
0.0
  0
LINE
  5
76E
  8
DETAIL
  6
CONTINUOUS
 62
     5
 10
-187.75459000000001
 20
-34.0
 30
0.0
 11
-187.75459000000001
 21
-32.0
 31
0.0
  0
LINE
  5
76F
  8
DETAIL
  6
CONTINUOUS
 62
     5
 10
7.2723500000000003
 20
-232.2999999999999
 30
0.0
 11
-7.5
 21
-232.29930999999999
 31
0.0
  0
LINE
  5
770
  8
DETAIL
  6
CONTINUOUS
 62
     5
 10
-73.008799999999979
 20
-193.5
 30
0.0
 11
72.915509999999998
 21
-193.5
 31
0.0
  0
LINE
  5
771
  8
DETAIL
  6
CONTINUOUS
 62
     5
 10
-72.511160000000004
 20
-192.0386399999999
 30
0.0
 11
-72.508169999999964
 21
-192.0713299999999
 31
0.0
  0
LINE
  5
772
  8
DETAIL
  6
CONTINUOUS
 62
     5
 10
-72.508169999999964
 20
-192.0713299999999
 30
0.0
 11
-72.506869999999978
 21
-192.10614000000001
 31
0.0
  0
LINE
  5
773
  8
DETAIL
  6
CONTINUOUS
 62
     5
 10
-72.570730000000026
 20
-188.44765000000001
 30
0.0
 11
-72.5
 21
-192.5
 31
0.0
  0
LINE
  5
774
  8
DETAIL
  6
CONTINUOUS
 62
     5
 10
-72.5
 20
-192.5
 30
0.0
 11
-72.508880000000005
 21
-193.00873000000001
 31
0.0
  0
ARC
  5
775
  8
DETAIL
  6
CONTINUOUS
 62
     5
 10
-73.008799999999979
 20
-193.0
 30
0.0
 40
0.5
 50
270.0
 51
358.99999200000002
  0
ARC
  5
776
  8
DETAIL
  6
CONTINUOUS
 62
     5
 10
-75.570280000000025
 20
-188.4999999999998
 30
0.0
 40
3.0
 50
1.0
 51
90.0
  0
LINE
  5
777
  8
DETAIL
  6
CONTINUOUS
 62
     5
 10
72.508880000000005
 20
-193.00873000000001
 30
0.0
 11
72.5
 21
-192.5
 31
0.0
  0
LINE
  5
778
  8
DETAIL
  6
CONTINUOUS
 62
     5
 10
72.5
 20
-192.5
 30
0.0
 11
72.570740000000001
 21
-188.44765000000001
 31
0.0
  0
LINE
  5
779
  8
DETAIL
  6
CONTINUOUS
 62
     5
 10
72.506880000000024
 20
-192.10614000000001
 30
0.0
 11
72.508099999999999
 21
-192.07243
 31
0.0
  0
LINE
  5
77A
  8
DETAIL
  6
CONTINUOUS
 62
     5
 10
72.508099999999999
 20
-192.07243
 30
0.0
 11
72.510940000000005
 21
-192.04035999999999
 31
0.0
  0
LINE
  5
77B
  8
DETAIL
  6
CONTINUOUS
 62
     5
 10
72.510940000000005
 20
-192.04035999999999
 30
0.0
 11
72.51600999999998
 21
-192.01009999999999
 31
0.0
  0
ARC
  5
77C
  8
DETAIL
  6
CONTINUOUS
 62
     5
 10
73.008799999999979
 20
-193.0
 30
0.0
 40
0.5
 50
181.0003659999999
 51
270.0
  0
ARC
  5
77D
  8
DETAIL
  6
CONTINUOUS
 62
     5
 10
75.570280000000025
 20
-188.4999999999998
 30
0.0
 40
3.0
 50
90.0
 51
179.0
  0
LINE
  5
77E
  8
DETAIL
  6
CONTINUOUS
 62
     5
 10
-330.39999999999992
 20
0.0
 30
0.0
 11
-210.40000000000001
 21
0.0
 31
0.0
  0
ARC
  5
77F
  8
DETAIL
  6
CONTINUOUS
 62
     5
 10
-330.39999999999992
 20
-10.0
 30
0.0
 40
10.0
 50
90.0
 51
180.0
  0
LINE
  5
780
  8
DETAIL
  6
CONTINUOUS
 62
     5
 10
-345.39999999999992
 20
-24.0
 30
0.0
 11
-343.39999999999992
 21
-24.0
 31
0.0
  0
CIRCLE
  5
781
  8
DETAIL
  6
CONTINUOUS
 62
     5
 10
-324.71746000000002
 20
-12.89997
 30
0.0
 40
3.0
  0
CIRCLE
  5
782
  8
DETAIL
  6
CONTINUOUS
 62
     5
 10
-284.71746000000002
 20
-12.89997
 30
0.0
 40
3.0
  0
CIRCLE
  5
783
  8
DETAIL
  6
CONTINUOUS
 62
     5
 10
-254.7174599999999
 20
-12.89997
 30
0.0
 40
3.0
  0
ARC
  5
784
  8
DETAIL
  6
CONTINUOUS
 62
     5
 10
-210.40000000000001
 20
-10.0
 30
0.0
 40
10.0
 50
0.0
 51
90.0
  0
CIRCLE
  5
785
  8
DETAIL
  6
CONTINUOUS
 62
     5
 10
-214.71745999999999
 20
-12.89997
 30
0.0
 40
3.0
  0
LINE
  5
786
  8
DETAIL
  6
CONTINUOUS
 62
     5
 10
-197.40000000000001
 20
-24.0
 30
0.0
 11
-195.40000000000001
 21
-24.0
 31
0.0
  0
LINE
  5
787
  8
DETAIL
  6
CONTINUOUS
 62
     5
 10
197.40000000000001
 20
-30.0
 30
0.0
 11
197.40000000000001
 21
-24.0
 31
0.0
  0
LINE
  5
788
  8
DETAIL
  6
CONTINUOUS
 62
     5
 10
195.40000000000001
 20
-30.0
 30
0.0
 11
195.40000000000001
 21
-24.0
 31
0.0
  0
LINE
  5
789
  8
DETAIL
  6
CONTINUOUS
 62
     5
 10
345.39999999999992
 20
-24.0
 30
0.0
 11
345.39999999999992
 21
-30.0
 31
0.0
  0
LINE
  5
78A
  8
DETAIL
  6
CONTINUOUS
 62
     5
 10
343.39999999999992
 20
-30.0
 30
0.0
 11
343.39999999999992
 21
-24.0
 31
0.0
  0
LINE
  5
78B
  8
DETAIL
  6
CONTINUOUS
 62
     5
 10
340.39999999999992
 20
-32.0
 30
0.0
 11
340.39999999999992
 21
-10.0
 31
0.0
  0
LINE
  5
78C
  8
DETAIL
  6
CONTINUOUS
 62
     5
 10
200.40000000000001
 20
-32.0
 30
0.0
 11
200.40000000000001
 21
-10.0
 31
0.0
  0
LINE
  5
78D
  8
DETAIL
  6
CONTINUOUS
 62
     5
 10
434.90915000000001
 20
-163.06982999999991
 30
0.0
 11
388.90670999999992
 21
-166.28999999999999
 31
0.0
  0
LINE
  5
78E
  8
DETAIL
  6
CONTINUOUS
 62
     5
 10
434.90915000000001
 20
-64.93016999999999
 30
0.0
 11
388.90670999999992
 21
-61.710000000000001
 31
0.0
  0
LINE
  5
78F
  8
DETAIL
  6
CONTINUOUS
 62
     5
 10
199.39999999999981
 20
-34.0
 30
0.0
 11
284.39999999999992
 21
-34.0
 31
0.0
  0
LINE
  5
790
  8
DETAIL
  6
CONTINUOUS
 62
     5
 10
189.0935299999999
 20
-32.0
 30
0.0
 11
351.76364999999998
 21
-32.0
 31
0.0
  0
LINE
  5
791
  8
DETAIL
  6
CONTINUOUS
 62
     5
 10
189.0935299999999
 20
-34.0
 30
0.0
 11
351.76364999999998
 21
-34.0
 31
0.0
  0
ARC
  5
792
  8
DETAIL
  6
CONTINUOUS
 62
     5
 10
257.61229999999989
 20
-217.80000000000001
 30
0.0
 40
5.0
 50
270.0
 51
334.358994
  0
LINE
  5
793
  8
DETAIL
  6
CONTINUOUS
 62
     5
 10
211.5
 20
-232.2999999999999
 30
0.0
 11
152.5
 21
-232.29930999999999
 31
0.0
  0
LINE
  5
794
  8
DETAIL
  6
CONTINUOUS
 62
     5
 10
152.5
 20
-232.29930999999999
 30
0.0
 11
152.27234999999979
 21
-232.2999999999999
 31
0.0
  0
LINE
  5
795
  8
DETAIL
  6
CONTINUOUS
 62
     5
 10
137.5
 20
-232.29930999999999
 30
0.0
 11
137.2723499999999
 21
-232.2999999999999
 31
0.0
  0
LINE
  5
796
  8
DETAIL
  6
CONTINUOUS
 62
     5
 10
152.27234999999979
 20
-232.2999999999999
 30
0.0
 11
137.5
 21
-232.29930999999999
 31
0.0
  0
LINE
  5
797
  8
DETAIL
  6
CONTINUOUS
 62
     5
 10
237.5
 20
-230.30000000000001
 30
0.0
 11
212.5
 21
-230.30000000000001
 31
0.0
  0
LINE
  5
798
  8
DETAIL
  6
CONTINUOUS
 62
     5
 10
212.0
 20
-230.80000999999999
 30
0.0
 11
212.0
 21
-231.80000000000001
 31
0.0
  0
ARC
  5
799
  8
DETAIL
  6
CONTINUOUS
 62
     5
 10
211.5
 20
-231.80000000000001
 30
0.0
 40
0.5
 50
270.0
 51
0.0
  0
ARC
  5
79A
  8
DETAIL
  6
CONTINUOUS
 62
     5
 10
212.5
 20
-230.80000000000001
 30
0.0
 40
0.5
 50
90.0
 51
180.00075799999991
  0
ARC
  5
79B
  8
DETAIL
  6
CONTINUOUS
 62
     5
 10
219.88502
 20
-236.80000000000001
 30
0.0
 40
10.0
 50
270.0
 51
359.0
  0
LINE
  5
79C
  8
DETAIL
  6
CONTINUOUS
 62
     5
 10
238.0
 20
-228.80000000000001
 30
0.0
 11
257.0261799999999
 21
-228.80000000000001
 31
0.0
  0
LINE
  5
79D
  8
DETAIL
  6
CONTINUOUS
 62
     5
 10
238.0
 20
-228.80000000000001
 30
0.0
 11
238.0
 21
-229.80000000000001
 31
0.0
  0
LINE
  5
79E
  8
DETAIL
  6
CONTINUOUS
 62
     5
 10
229.99143000000001
 20
-230.79127999999989
 30
0.0
 11
229.88349999999991
 21
-236.9745299999999
 31
0.0
  0
ARC
  5
79F
  8
DETAIL
  6
CONTINUOUS
 62
     5
 10
230.49135000000001
 20
-230.80000000000001
 30
0.0
 40
0.5
 50
90.0
 51
178.99999600000001
  0
ARC
  5
7A0
  8
DETAIL
  6
CONTINUOUS
 62
     5
 10
237.5
 20
-229.80000000000001
 30
0.0
 40
0.5
 50
270.0
 51
0.0
  0
LINE
  5
7A1
  8
DETAIL
  6
CONTINUOUS
 62
     5
 10
257.11315000000002
 20
-223.81746000000001
 30
0.0
 11
257.0261799999999
 21
-228.80000000000001
 31
0.0
  0
ARC
  5
7A2
  8
DETAIL
  6
CONTINUOUS
 62
     5
 10
256.11331000000001
 20
-223.7999999999999
 30
0.0
 40
1.0
 50
359.0
 51
90.0
  0
ARC
  5
7A3
  8
DETAIL
  6
CONTINUOUS
 62
     5
 10
199.39999999999981
 20
-30.0
 30
0.0
 40
4.0
 50
180.0
 51
210.0
  0
LINE
  5
7A4
  8
DETAIL
  6
CONTINUOUS
 62
     5
 10
189.0935299999999
 20
-32.0
 30
0.0
 11
189.0935299999999
 21
-34.0
 31
0.0
  0
ARC
  5
7A5
  8
DETAIL
  6
CONTINUOUS
 62
     5
 10
199.39999999999981
 20
-30.0
 30
0.0
 40
2.0
 50
180.0
 51
270.0
  0
LINE
  5
7A6
  8
DETAIL
  6
CONTINUOUS
 62
     5
 10
287.90670999999992
 20
-178.5
 30
0.0
 11
287.90670999999992
 21
-60.5
 31
0.0
  0
LINE
  5
7A7
  8
DETAIL
  6
CONTINUOUS
 62
     5
 10
358.90670999999992
 20
-187.0
 30
0.0
 11
358.90670999999992
 21
-41.0
 31
0.0
  0
LINE
  5
7A8
  8
DETAIL
  6
CONTINUOUS
 62
     5
 10
328.90670999999998
 20
-198.5
 30
0.0
 11
328.90670999999998
 21
-34.0
 31
0.0
  0
LINE
  5
7A9
  8
DETAIL
  6
CONTINUOUS
 62
     5
 10
388.90670999999992
 20
-176.0
 30
0.0
 11
388.90670999999992
 21
-52.0
 31
0.0
  0
LINE
  5
7AA
  8
DETAIL
  6
CONTINUOUS
 62
     5
 10
328.90670999999998
 20
-187.0
 30
0.0
 11
358.90670999999992
 21
-187.0
 31
0.0
  0
LINE
  5
7AB
  8
DETAIL
  6
CONTINUOUS
 62
     5
 10
273.6737399999999
 20
-195.89318
 30
0.0
 11
262.11991
 21
-219.96366
 31
0.0
  0
ARC
  5
7AC
  8
DETAIL
  6
CONTINUOUS
 62
     5
 10
257.61229999999989
 20
-217.80000000000001
 30
0.0
 40
5.0
 50
331.35753999999991
 51
334.358994
  0
LINE
  5
7AD
  8
DETAIL
  6
CONTINUOUS
 62
     5
 10
287.90670999999992
 20
-198.5
 30
0.0
 11
328.90670999999998
 21
-198.5
 31
0.0
  0
LINE
  5
7AE
  8
DETAIL
  6
CONTINUOUS
 62
     5
 10
287.90670999999992
 20
-198.5
 30
0.0
 11
287.90670999999992
 21
-178.5
 31
0.0
  0
LINE
  5
7AF
  8
DETAIL
  6
CONTINUOUS
 62
     5
 10
274.97143999999992
 20
-193.5
 30
0.0
 11
289.45335499999982
 21
-193.4999999999998
 31
0.0
  0
ARC
  5
7B0
  8
DETAIL
  6
CONTINUOUS
 62
     5
 10
270.96917000000002
 20
-194.59499
 30
0.0
 40
3.0
 50
334.358994
 51
359.0
  0
LINE
  5
7B1
  8
DETAIL
  6
CONTINUOUS
 62
     5
 10
273.96872000000002
 20
-194.6473499999999
 30
0.0
 11
273.97158999999982
 21
-194.48255
 31
0.0
  0
ARC
  5
7B2
  8
DETAIL
  6
CONTINUOUS
 62
     5
 10
274.97143999999992
 20
-194.5
 30
0.0
 40
1.0
 50
90.0
 51
179.00004200000001
  0
LINE
  5
7B3
  8
DETAIL
  6
CONTINUOUS
 62
     5
 10
358.90670999999992
 20
-176.0
 30
0.0
 11
388.90670999999992
 21
-176.0
 31
0.0
  0
LINE
  5
7B4
  8
DETAIL
  6
CONTINUOUS
 62
     5
 10
328.90670999999998
 20
-41.0
 30
0.0
 11
358.90670999999992
 21
-41.0
 31
0.0
  0
ARC
  5
7B5
  8
DETAIL
  6
CONTINUOUS
 62
     5
 10
341.39999999999992
 20
-30.0
 30
0.0
 40
2.0
 50
270.0
 51
0.0
  0
LINE
  5
7B6
  8
DETAIL
  6
CONTINUOUS
 62
     5
 10
287.90670999999992
 20
-60.5
 30
0.0
 11
287.90670999999992
 21
-34.0
 31
0.0
  0
LINE
  5
7B7
  8
DETAIL
  6
CONTINUOUS
 62
     5
 10
358.90670999999992
 20
-52.0
 30
0.0
 11
388.90670999999992
 21
-52.0
 31
0.0
  0
ARC
  5
7B8
  8
DETAIL
  6
CONTINUOUS
 62
     5
 10
341.39999999999992
 20
-30.0
 30
0.0
 40
4.0
 50
330.0
 51
0.0
  0
LINE
  5
7B9
  8
DETAIL
  6
CONTINUOUS
 62
     5
 10
351.76364999999998
 20
-32.0
 30
0.0
 11
351.76364999999998
 21
-34.0
 31
0.0
  0
LINE
  5
7BA
  8
DETAIL
  6
CONTINUOUS
 62
     5
 10
435.9067099999998
 20
-162.0
 30
0.0
 11
435.9067099999998
 21
-66.0
 31
0.0
  0
LINE
  5
7BB
  8
DETAIL
  6
CONTINUOUS
 62
     5
 10
434.90915000000001
 20
-163.06982999999991
 30
0.0
 11
435.9067099999998
 21
-162.0
 31
0.0
  0
LINE
  5
7BC
  8
DETAIL
  6
CONTINUOUS
 62
     5
 10
434.90915000000001
 20
-64.93016999999999
 30
0.0
 11
435.9067099999998
 21
-66.0
 31
0.0
  0
LINE
  5
7BD
  8
DETAIL
  6
CONTINUOUS
 62
     5
 10
210.40000000000001
 20
0.0
 30
0.0
 11
330.39999999999992
 21
0.0
 31
0.0
  0
CIRCLE
  5
7BE
  8
DETAIL
  6
CONTINUOUS
 62
     5
 10
216.28254000000001
 20
-12.89997
 30
0.0
 40
3.0
  0
LINE
  5
7BF
  8
DETAIL
  6
CONTINUOUS
 62
     5
 10
195.40000000000001
 20
-24.0
 30
0.0
 11
197.40000000000001
 21
-24.0
 31
0.0
  0
ARC
  5
7C0
  8
DETAIL
  6
CONTINUOUS
 62
     5
 10
210.40000000000001
 20
-10.0
 30
0.0
 40
10.0
 50
90.0
 51
180.0
  0
CIRCLE
  5
7C1
  8
DETAIL
  6
CONTINUOUS
 62
     5
 10
256.28253999999993
 20
-12.89997
 30
0.0
 40
3.0
  0
LINE
  5
7C2
  8
DETAIL
  6
CONTINUOUS
 62
     5
 10
343.39999999999992
 20
-24.0
 30
0.0
 11
345.39999999999992
 21
-24.0
 31
0.0
  0
CIRCLE
  5
7C3
  8
DETAIL
  6
CONTINUOUS
 62
     5
 10
286.28253999999993
 20
-12.89997
 30
0.0
 40
3.0
  0
CIRCLE
  5
7C4
  8
DETAIL
  6
CONTINUOUS
 62
     5
 10
326.28253999999998
 20
-12.89997
 30
0.0
 40
3.0
  0
ARC
  5
7C5
  8
DETAIL
  6
CONTINUOUS
 62
     5
 10
330.39999999999992
 20
-10.0
 30
0.0
 40
10.0
 50
0.0
 51
90.0
  0
LINE
  5
7C6
  8
OUTLINE
  6
CONTINUOUS
 62
     3
 10
219.88502
 20
-246.7999999999999
 30
0.0
 11
-219.88502
 21
-246.7999999999999
 31
0.0
  0
LINE
  5
7C7
  8
OUTLINE
  6
CONTINUOUS
 62
     3
 10
-257.61229999999989
 20
-222.80000000000001
 30
0.0
 11
-256.11329999999992
 21
-222.80000000000001
 31
0.0
  0
LINE
  5
7C8
  8
OUTLINE
  6
CONTINUOUS
 62
     3
 10
-210.40000000000001
 20
0.0
 30
0.0
 11
210.40000000000001
 21
0.0
 31
0.0
  0
LINE
  5
7C9
  8
OUTLINE
  6
CONTINUOUS
 62
     3
 10
-238.0
 20
-228.80000000000001
 30
0.0
 11
-257.0261799999999
 21
-228.80000000000001
 31
0.0
  0
LINE
  5
7CA
  8
OUTLINE
  6
CONTINUOUS
 62
     3
 10
-261.69429000000002
 20
-220.85035999999991
 30
0.0
 11
-273.6737399999999
 21
-195.89318
 31
0.0
  0
LINE
  5
7CB
  8
OUTLINE
  6
CONTINUOUS
 62
     3
 10
-257.0261799999999
 20
-228.80000000000001
 30
0.0
 11
-257.11315000000002
 21
-223.81746000000001
 31
0.0
  0
ARC
  5
7CC
  8
OUTLINE
  6
CONTINUOUS
 62
     3
 10
-256.11329999999992
 20
-223.7999999999999
 30
0.0
 40
1.0
 50
90.0
 51
180.99999799999981
  0
ARC
  5
7CD
  8
OUTLINE
  6
CONTINUOUS
 62
     3
 10
-257.61229999999989
 20
-217.80000000000001
 30
0.0
 40
5.0
 50
216.9857669999999
 51
270.0
  0
ARC
  5
7CE
  8
OUTLINE
  6
CONTINUOUS
 62
     3
 10
-257.61229999999989
 20
-217.80000000000001
 30
0.0
 40
5.0
 50
205.641006
 51
208.6424839999998
  0
ARC
  5
7CF
  8
OUTLINE
  6
CONTINUOUS
 62
     3
 10
-270.96917000000002
 20
-194.59499
 30
0.0
 40
3.0
 50
181.0
 51
205.641006
  0
LINE
  5
7D0
  8
OUTLINE
  6
CONTINUOUS
 62
     3
 10
-273.96870999999982
 20
-194.6473499999999
 30
0.0
 11
-273.97158999999982
 21
-194.48255
 31
0.0
  0
LINE
  5
7D1
  8
OUTLINE
  6
CONTINUOUS
 62
     3
 10
-286.017
 20
-193.5
 30
0.0
 11
-274.97143999999992
 21
-193.5
 31
0.0
  0
ARC
  5
7D2
  8
OUTLINE
  6
CONTINUOUS
 62
     3
 10
-274.97143999999992
 20
-194.5
 30
0.0
 40
1.0
 50
0.999957
 51
90.0
  0
ARC
  5
7D3
  8
OUTLINE
  6
CONTINUOUS
 62
     3
 10
-219.88502
 20
-236.80000000000001
 30
0.0
 40
10.0
 50
181.0
 51
270.0
  0
LINE
  5
7D4
  8
OUTLINE
  6
CONTINUOUS
 62
     3
 10
-229.99141999999989
 20
-230.79127999999989
 30
0.0
 11
-229.88348999999999
 21
-236.9745299999999
 31
0.0
  0
LINE
  5
7D5
  8
OUTLINE
  6
CONTINUOUS
 62
     3
 10
-238.0
 20
-228.80000000000001
 30
0.0
 11
-238.0
 21
-229.80000000000001
 31
0.0
  0
ARC
  5
7D6
  8
OUTLINE
  6
CONTINUOUS
 62
     3
 10
-230.49135000000001
 20
-230.80000000000001
 30
0.0
 40
0.5
 50
1.0
 51
90.0
  0
ARC
  5
7D7
  8
OUTLINE
  6
CONTINUOUS
 62
     3
 10
-237.5
 20
-229.80000000000001
 30
0.0
 40
0.5
 50
180.0
 51
270.0
  0
LINE
  5
7D8
  8
OUTLINE
  6
CONTINUOUS
 62
     3
 10
-285.0
 20
0.0
 30
0.0
 11
-210.40000000000001
 21
0.0
 31
0.0
  0
ARC
  5
7D9
  8
OUTLINE
  6
CONTINUOUS
 62
     3
 10
257.61229999999989
 20
-217.80000000000001
 30
0.0
 40
5.0
 50
270.0
 51
334.358994
  0
LINE
  5
7DA
  8
OUTLINE
  6
CONTINUOUS
 62
     3
 10
237.5
 20
-230.30000000000001
 30
0.0
 11
230.49135000000001
 21
-230.30000000000001
 31
0.0
  0
ARC
  5
7DB
  8
OUTLINE
  6
CONTINUOUS
 62
     3
 10
219.88502
 20
-236.80000000000001
 30
0.0
 40
10.0
 50
270.0
 51
359.0
  0
LINE
  5
7DC
  8
OUTLINE
  6
CONTINUOUS
 62
     3
 10
238.0
 20
-228.80000000000001
 30
0.0
 11
257.0261799999999
 21
-228.80000000000001
 31
0.0
  0
LINE
  5
7DD
  8
OUTLINE
  6
CONTINUOUS
 62
     3
 10
238.0
 20
-228.80000000000001
 30
0.0
 11
238.0
 21
-229.80000000000001
 31
0.0
  0
LINE
  5
7DE
  8
OUTLINE
  6
CONTINUOUS
 62
     3
 10
229.99143000000001
 20
-230.79127999999989
 30
0.0
 11
229.88349999999991
 21
-236.9745299999999
 31
0.0
  0
ARC
  5
7DF
  8
OUTLINE
  6
CONTINUOUS
 62
     3
 10
230.49135000000001
 20
-230.80000000000001
 30
0.0
 40
0.5
 50
90.0
 51
178.99999600000001
  0
ARC
  5
7E0
  8
OUTLINE
  6
CONTINUOUS
 62
     3
 10
237.5
 20
-229.80000000000001
 30
0.0
 40
0.5
 50
270.0
 51
0.0
  0
LINE
  5
7E1
  8
OUTLINE
  6
CONTINUOUS
 62
     3
 10
257.11315000000002
 20
-223.81746000000001
 30
0.0
 11
257.0261799999999
 21
-228.80000000000001
 31
0.0
  0
ARC
  5
7E2
  8
OUTLINE
  6
CONTINUOUS
 62
     3
 10
256.11331000000001
 20
-223.7999999999999
 30
0.0
 40
1.0
 50
359.0
 51
90.0
  0
LINE
  5
7E3
  8
OUTLINE
  6
CONTINUOUS
 62
     3
 10
273.6737399999999
 20
-195.89318
 30
0.0
 11
262.11991
 21
-219.96366
 31
0.0
  0
ARC
  5
7E4
  8
OUTLINE
  6
CONTINUOUS
 62
     3
 10
257.61229999999989
 20
-217.80000000000001
 30
0.0
 40
5.0
 50
331.35753999999991
 51
334.358994
  0
LINE
  5
7E5
  8
OUTLINE
  6
CONTINUOUS
 62
     3
 10
274.97143999999992
 20
-193.5
 30
0.0
 11
286.017
 21
-193.5
 31
0.0
  0
ARC
  5
7E6
  8
OUTLINE
  6
CONTINUOUS
 62
     3
 10
270.96917000000002
 20
-194.59499
 30
0.0
 40
3.0
 50
334.358994
 51
359.0
  0
LINE
  5
7E7
  8
OUTLINE
  6
CONTINUOUS
 62
     3
 10
273.96872000000002
 20
-194.6473499999999
 30
0.0
 11
273.97158999999982
 21
-194.48255
 31
0.0
  0
ARC
  5
7E8
  8
OUTLINE
  6
CONTINUOUS
 62
     3
 10
274.97143999999992
 20
-194.5
 30
0.0
 40
1.0
 50
90.0
 51
179.00004200000001
  0
LINE
  5
7E9
  8
OUTLINE
  6
CONTINUOUS
 62
     3
 10
210.40000000000001
 20
0.0
 30
0.0
 11
285.0
 21
0.0
 31
0.0
  0
LINE
  5
7EA
  8
OUTLINE
  6
CONTINUOUS
 62
     3
 10
256.11331000000001
 20
-222.80000000000001
 30
0.0
 11
257.61229999999989
 21
-222.80000000000001
 31
0.0
  0
LINE
  5
7EB
  8
OUTLINE
  6
CONTINUOUS
 62
     3
 10
-230.49135000000001
 20
-230.30000000000001
 30
0.0
 11
-237.5
 21
-230.30000000000001
 31
0.0
  0
TEXT
  5
7EC
  8
NOTE
  6
CONTINUOUS
 62
     4
 10
525.88522099999966
 20
-181.88510600000001
 30
0.0
 40
40.0
  1
SA RA1
 50
90.0
 41
0.9
  0
LINE
  5
7ED
  8
SIZE
  6
CONTINUOUS
 62
    30
 10
719.17314599999975
 20
-76.930169999999976
 30
0.0
 11
719.17314599999975
 21
-150.59129100000001
 31
0.0
  0
LINE
  5
7EE
  8
SIZE
  6
CONTINUOUS
 62
    30
 10
719.17314599999975
 20
-162.59129100000001
 30
0.0
 11
719.17314599999975
 21
-446.34474699999998
 31
0.0
  0
CIRCLE
  5
7EF
  8
SIZE
  6
CONTINUOUS
 62
    30
 10
719.17314599999975
 20
-64.93016999999999
 30
0.0
 40
6.0
  0
LINE
  5
7F0
  8
SIZE
  6
CONTINUOUS
 62
    30
 10
719.17314599999975
 20
-64.93016999999999
 30
0.0
 11
719.17314599999975
 21
-76.930169999999976
 31
0.0
  0
CIRCLE
  5
7F1
  8
SIZE
  6
CONTINUOUS
 62
    30
 10
719.17314599999975
 20
-162.59129100000001
 30
0.0
 40
6.0
  0
LINE
  5
7F2
  8
SIZE
  6
CONTINUOUS
 62
    30
 10
719.17314599999975
 20
-162.59129100000001
 30
0.0
 11
719.17314599999975
 21
-150.59129100000001
 31
0.0
  0
TEXT
  5
7F3
  8
SIZE
  6
CONTINUOUS
 62
    30
 10
694.17314599999975
 20
-432.86474742857138
 30
0.0
 40
64.0
  1
φ98
 50
90.0
 41
0.9
 72
     1
 11
694.17314599999975
 21
-345.91617600000001
 31
0.0
  0
LINE
  5
7F4
  8
SIZE
  6
CONTINUOUS
 62
    30
 10
408.90670999999992
 20
-52.0
 30
0.0
 11
859.17314600000009
 21
-52.0
 31
0.0
  0
LINE
  5
7F5
  8
SIZE
  6
CONTINUOUS
 62
    30
 10
408.90670999999992
 20
-176.0
 30
0.0
 11
859.17314600000009
 21
-176.0
 31
0.0
  0
LINE
  5
7F6
  8
SIZE
  6
CONTINUOUS
 62
    30
 10
839.17314599999986
 20
-64.0
 30
0.0
 11
839.17314599999986
 21
-164.0
 31
0.0
  0
LINE
  5
7F7
  8
SIZE
  6
CONTINUOUS
 62
    30
 10
839.17314599999986
 20
-176.0
 30
0.0
 11
839.17314599999986
 21
-483.46236899999991
 31
0.0
  0
CIRCLE
  5
7F8
  8
SIZE
  6
CONTINUOUS
 62
    30
 10
839.17314599999986
 20
-52.0
 30
0.0
 40
6.0
  0
LINE
  5
7F9
  8
SIZE
  6
CONTINUOUS
 62
    30
 10
839.17314599999986
 20
-52.0
 30
0.0
 11
839.17314599999986
 21
-64.0
 31
0.0
  0
CIRCLE
  5
7FA
  8
SIZE
  6
CONTINUOUS
 62
    30
 10
839.17314599999986
 20
-176.0
 30
0.0
 40
6.0
  0
LINE
  5
7FB
  8
SIZE
  6
CONTINUOUS
 62
    30
 10
839.17314599999986
 20
-176.0
 30
0.0
 11
839.17314599999986
 21
-164.0
 31
0.0
  0
TEXT
  5
7FC
  8
SIZE
  6
CONTINUOUS
 62
    30
 10
814.17314599999986
 20
-469.98236914285712
 30
0.0
 40
64.0
  1
φ124
 50
90.0
 41
0.9
 72
     1
 11
814.17314599999986
 21
-359.71951200000001
 31
0.0
  0
LINE
  5
7FD
  8
SIZE
  6
CONTINUOUS
 62
    30
 10
378.90670999999998
 20
-41.0
 30
0.0
 11
979.1731460000002
 21
-41.0
 31
0.0
  0
LINE
  5
7FE
  8
SIZE
  6
CONTINUOUS
 62
    30
 10
378.90670999999998
 20
-187.0
 30
0.0
 11
979.1731460000002
 21
-187.0
 31
0.0
  0
LINE
  5
7FF
  8
SIZE
  6
CONTINUOUS
 62
    30
 10
959.17314600000009
 20
-53.25
 30
0.0
 11
959.17314600000009
 21
-174.75
 31
0.0
  0
LINE
  5
800
  8
SIZE
  6
CONTINUOUS
 62
    30
 10
959.17314600000009
 20
-186.74999999999969
 30
0.0
 11
959.17314600000009
 21
-484.86051599999979
 31
0.0
  0
CIRCLE
  5
801
  8
SIZE
  6
CONTINUOUS
 62
    30
 10
959.17314600000009
 20
-41.25
 30
0.0
 40
6.0
  0
LINE
  5
802
  8
SIZE
  6
CONTINUOUS
 62
    30
 10
959.17314600000009
 20
-41.25
 30
0.0
 11
959.17314600000009
 21
-53.25
 31
0.0
  0
CIRCLE
  5
803
  8
SIZE
  6
CONTINUOUS
 62
    30
 10
959.17314600000009
 20
-186.74999999999969
 30
0.0
 40
6.0
  0
LINE
  5
804
  8
SIZE
  6
CONTINUOUS
 62
    30
 10
959.17314600000009
 20
-186.74999999999969
 30
0.0
 11
959.17314600000009
 21
-174.75
 31
0.0
  0
TEXT
  5
805
  8
SIZE
  6
CONTINUOUS
 62
    30
 10
934.17314600000009
 20
-471.38051599999989
 30
0.0
 40
64.0
  1
φ146
 50
90.0
 41
0.9
 72
     1
 11
934.17314600000009
 21
-363.86051600000002
 31
0.0
  0
LINE
  5
806
  8
SIZE
  6
CONTINUOUS
 62
    30
 10
344.60097999999999
 20
0.0
 30
0.0
 11
1099.1731460000001
 21
0.0
 31
0.0
  0
LINE
  5
807
  8
SIZE
  6
CONTINUOUS
 62
    30
 10
268.315225
 20
-222.80000000000001
 30
0.0
 11
1099.1731460000001
 21
-222.80000000000001
 31
0.0
  0
LINE
  5
808
  8
SIZE
  6
CONTINUOUS
 62
    30
 10
1079.1731460000001
 20
-12.0
 30
0.0
 11
1079.1731460000001
 21
-210.80000000000001
 31
0.0
  0
CIRCLE
  5
809
  8
SIZE
  6
CONTINUOUS
 62
    30
 10
1079.1731460000001
 20
0.0
 30
0.0
 40
6.0
  0
LINE
  5
80A
  8
SIZE
  6
CONTINUOUS
 62
    30
 10
1079.1731460000001
 20
0.0
 30
0.0
 11
1079.1731460000001
 21
-12.0
 31
0.0
  0
CIRCLE
  5
80B
  8
SIZE
  6
CONTINUOUS
 62
    30
 10
1079.1731460000001
 20
-222.80000000000001
 30
0.0
 40
6.0
  0
LINE
  5
80C
  8
SIZE
  6
CONTINUOUS
 62
    30
 10
1079.1731460000001
 20
-222.80000000000001
 30
0.0
 11
1079.1731460000001
 21
-210.80000000000001
 31
0.0
  0
TEXT
  5
80D
  8
SIZE
  6
CONTINUOUS
 62
    30
 10
1054.1731460000001
 20
-188.05714285714279
 30
0.0
 40
64.0
  1
223
 50
90.0
 41
0.9
 72
     1
 11
1054.1731460000001
 21
-114.0
 31
0.0
  0
LINE
  5
80E
  8
SIZE
  6
CONTINUOUS
 62
    30
 10
268.315225
 20
-222.80000000000001
 30
0.0
 11
619.17314599999975
 21
-222.80000000000001
 31
0.0
  0
LINE
  5
80F
  8
SIZE
  6
CONTINUOUS
 62
    30
 10
239.88502
 20
-246.7999999999999
 30
0.0
 11
619.17314599999975
 21
-246.7999999999999
 31
0.0
  0
LINE
  5
810
  8
SIZE
  6
CONTINUOUS
 62
    30
 10
599.17314599999975
 20
-210.80000000000001
 30
0.0
 11
599.17314599999975
 21
-198.80000000000001
 31
0.0
  0
LINE
  5
811
  8
SIZE
  6
CONTINUOUS
 62
    30
 10
599.17314599999975
 20
-258.80000000000001
 30
0.0
 11
599.17314599999975
 21
-416.80000000000001
 31
0.0
  0
LINE
  5
812
  8
SIZE
  6
CONTINUOUS
 62
    30
 10
599.17314599999975
 20
-222.80000000000001
 30
0.0
 11
599.17314599999975
 21
-246.7999999999999
 31
0.0
  0
CIRCLE
  5
813
  8
SIZE
  6
CONTINUOUS
 62
    30
 10
599.17314599999975
 20
-222.80000000000001
 30
0.0
 40
6.0
  0
LINE
  5
814
  8
SIZE
  6
CONTINUOUS
 62
    30
 10
599.17314599999975
 20
-222.80000000000001
 30
0.0
 11
599.17314599999975
 21
-210.80000000000001
 31
0.0
  0
CIRCLE
  5
815
  8
SIZE
  6
CONTINUOUS
 62
    30
 10
599.17314599999975
 20
-246.7999999999999
 30
0.0
 40
6.0
  0
LINE
  5
816
  8
SIZE
  6
CONTINUOUS
 62
    30
 10
599.17314599999975
 20
-246.7999999999999
 30
0.0
 11
599.17314599999975
 21
-258.80000000000001
 31
0.0
  0
TEXT
  5
817
  8
SIZE
  6
CONTINUOUS
 62
    30
 10
574.17314599999975
 20
-391.80000000000001
 30
0.0
 40
64.0
  1
24
 50
90.0
 41
0.9
 72
     1
 11
574.17314599999975
 21
-343.80000000000001
 31
0.0
  0
LINE
  5
818
  8
SIZE
  6
CONTINUOUS
 62
    30
 10
423.9067099999998
 20
-403.04218600000002
 30
0.0
 11
296.90670999999992
 21
-403.04218600000002
 31
0.0
  0
CIRCLE
  5
819
  8
SIZE
  6
CONTINUOUS
 62
    30
 10
435.9067099999998
 20
-403.04218600000002
 30
0.0
 40
6.0
  0
LINE
  5
81A
  8
SIZE
  6
CONTINUOUS
 62
    30
 10
435.9067099999998
 20
-403.04218600000002
 30
0.0
 11
423.9067099999998
 21
-403.04218600000002
 31
0.0
  0
CIRCLE
  5
81B
  8
SIZE
  6
CONTINUOUS
 62
    30
 10
284.90670999999992
 20
-403.04218600000002
 30
0.0
 40
6.0
  0
LINE
  5
81C
  8
SIZE
  6
CONTINUOUS
 62
    30
 10
284.90670999999992
 20
-403.04218600000002
 30
0.0
 11
296.90670999999992
 21
-403.04218600000002
 31
0.0
  0
TEXT
  5
81D
  8
SIZE
  6
CONTINUOUS
 62
    30
 10
304.17813857142852
 20
-378.04218600000002
 30
0.0
 40
64.0
  1
151
 41
0.9
 72
     1
 11
360.40670999999992
 21
-378.04218600000002
 31
0.0
  0
LINE
  5
81E
  8
SIZE
  6
CONTINUOUS
 62
    30
 10
-436.0
 20
-189.38423299999999
 30
0.0
 11
-436.0
 21
-423.04218599999979
 31
0.0
  0
LINE
  5
81F
  8
SIZE
  6
CONTINUOUS
 62
    30
 10
-424.0
 20
-403.04218600000002
 30
0.0
 11
-297.0
 21
-403.04218600000002
 31
0.0
  0
CIRCLE
  5
820
  8
SIZE
  6
CONTINUOUS
 62
    30
 10
-436.0
 20
-403.04218600000002
 30
0.0
 40
6.0
  0
LINE
  5
821
  8
SIZE
  6
CONTINUOUS
 62
    30
 10
-436.0
 20
-403.04218600000002
 30
0.0
 11
-424.0
 21
-403.04218600000002
 31
0.0
  0
CIRCLE
  5
822
  8
SIZE
  6
CONTINUOUS
 62
    30
 10
-285.0
 20
-403.04218600000002
 30
0.0
 40
6.0
  0
LINE
  5
823
  8
SIZE
  6
CONTINUOUS
 62
    30
 10
-285.0
 20
-403.04218600000002
 30
0.0
 11
-297.0
 21
-403.04218600000002
 31
0.0
  0
TEXT
  5
824
  8
SIZE
  6
CONTINUOUS
 62
    30
 10
-423.7999101791774
 20
-378.04218600000002
 30
0.0
 40
64.0
  1
151
 41
0.9
 72
     1
 11
-367.571338750606
 21
-378.04218600000002
 31
0.0
  0
LINE
  5
825
  8
SIZE
  6
CONTINUOUS
 62
    30
 10
-273.0
 20
-403.04218600000002
 30
0.0
 11
290.90670999999992
 21
-403.04218600000002
 31
0.0
  0
CIRCLE
  5
826
  8
SIZE
  6
CONTINUOUS
 62
    30
 10
-285.0
 20
-403.04218600000002
 30
0.0
 40
6.0
  0
LINE
  5
827
  8
SIZE
  6
CONTINUOUS
 62
    30
 10
-285.0
 20
-403.04218600000002
 30
0.0
 11
-273.0
 21
-403.04218600000002
 31
0.0
  0
CIRCLE
  5
828
  8
SIZE
  6
CONTINUOUS
 62
    30
 10
284.90670999999992
 20
-403.04218600000002
 30
0.0
 40
6.0
  0
TEXT
  5
829
  8
SIZE
  6
CONTINUOUS
 62
    30
 10
-74.103787857142848
 20
-378.04218600000002
 30
0.0
 40
64.0
  1
570
 41
0.9
 72
     1
 11
-0.046645
 21
-378.04218600000002
 31
0.0
  0
LINE
  5
82A
  8
NOTE
  6
CONTINUOUS
 62
     4
 39
50.0
 10
309.0
 20
-50.968482999999999
 30
0.0
 11
309.0
 21
-15.85689
 31
0.0
  0
CIRCLE
  5
82B
  8
FIX
  6
CONTINUOUS
 62
    11
 39
50.0
 10
309.0
 20
-32.0
 30
0.0
 40
2.0
  0
LINE
  5
82C
  8
NOTE
  6
CONTINUOUS
 62
     4
 39
50.0
 10
-309.0
 20
-50.968482999999999
 30
0.0
 11
-309.0
 21
-15.85689
 31
0.0
  0
CIRCLE
  5
82D
  8
FIX
  6
CONTINUOUS
 62
    11
 39
50.0
 10
-309.0
 20
-32.0
 30
0.0
 40
2.0
  0
LINE
  5
82E
  8
SIZE
  6
CONTINUOUS
 62
    30
 10
-309.0
 20
4.1431100000000001
 30
0.0
 11
-309.0
 21
222.10389499999999
 31
0.0
  0
LINE
  5
82F
  8
SIZE
  6
CONTINUOUS
 62
    30
 10
309.0
 20
4.1431100000000001
 30
0.0
 11
309.0
 21
222.10389499999999
 31
0.0
  0
LINE
  5
830
  8
SIZE
  6
CONTINUOUS
 62
    30
 10
-297.0
 20
202.10389499999991
 30
0.0
 11
297.0
 21
202.10389499999991
 31
0.0
  0
CIRCLE
  5
831
  8
SIZE
  6
CONTINUOUS
 62
    30
 10
-309.0
 20
202.10389499999991
 30
0.0
 40
6.0
  0
LINE
  5
832
  8
SIZE
  6
CONTINUOUS
 62
    30
 10
-309.0
 20
202.10389499999991
 30
0.0
 11
-297.0
 21
202.10389499999991
 31
0.0
  0
CIRCLE
  5
833
  8
SIZE
  6
CONTINUOUS
 62
    30
 10
309.0
 20
202.10389499999991
 30
0.0
 40
6.0
  0
LINE
  5
834
  8
SIZE
  6
CONTINUOUS
 62
    30
 10
309.0
 20
202.10389499999991
 30
0.0
 11
297.0
 21
202.10389499999991
 31
0.0
  0
TEXT
  5
835
  8
SIZE
  6
CONTINUOUS
 62
    30
 10
-261.11999999999989
 20
227.10389499999991
 30
0.0
 40
64.0
  1
618（天吊位置）
 41
0.9
 72
     1
 11
0.0
 21
227.10389499999991
 31
0.0
  0
LINE
  5
836
  8
SIZE
  6
CONTINUOUS
 62
    30
 10
-481.00003299999997
 20
-114.0
 30
0.0
 11
-637.12316399999975
 21
-114.0
 31
0.0
  0
LINE
  5
837
  8
SIZE
  6
CONTINUOUS
 62
    30
 10
-375.42081899999988
 20
0.0
 30
0.0
 11
-637.12316399999975
 21
0.0
 31
0.0
  0
LINE
  5
838
  8
SIZE
  6
CONTINUOUS
 62
    30
 10
-617.12316399999997
 20
-114.0
 30
0.0
 11
-617.12316399999997
 21
0.0
 31
0.0
  0
CIRCLE
  5
839
  8
SIZE
  6
CONTINUOUS
 62
    30
 10
-617.12316399999997
 20
-114.0
 30
0.0
 40
6.0
  0
CIRCLE
  5
83A
  8
SIZE
  6
CONTINUOUS
 62
    30
 10
-617.12316399999997
 20
0.0
 30
0.0
 40
6.0
  0
TEXT
  5
83B
  8
SIZE
  6
CONTINUOUS
 62
    30
 10
-642.12316399999997
 20
-121.4571428571428
 30
0.0
 40
64.0
  1
114
 50
90.0
 41
0.9
 72
     1
 11
-642.12316399999997
 21
-57.0
 31
0.0
  0
LINE
  5
83C
  8
SIZE
  6
CONTINUOUS
 62
    30
 10
-292.54664500000001
 20
-195.14645060508519
 30
0.0
 11
-292.54664500000001
 21
-543.04218600000002
 31
0.0
  0
LINE
  5
83D
  8
SIZE
  6
CONTINUOUS
 62
    30
 10
292.45335499999982
 20
-195.97844745508701
 30
0.0
 11
292.45335499999982
 21
-543.04218600000002
 31
0.0
  0
LINE
  5
83E
  8
SIZE
  6
CONTINUOUS
 62
    30
 10
-280.54664500000001
 20
-523.04218599999979
 30
0.0
 11
280.45335499999999
 21
-523.04218599999979
 31
0.0
  0
CIRCLE
  5
83F
  8
SIZE
  6
CONTINUOUS
 62
    30
 10
-292.54664500000001
 20
-523.04218599999979
 30
0.0
 40
6.0
  0
LINE
  5
840
  8
SIZE
  6
CONTINUOUS
 62
    30
 10
-292.54664500000001
 20
-523.04218599999979
 30
0.0
 11
-280.54664500000001
 21
-523.04218599999979
 31
0.0
  0
CIRCLE
  5
841
  8
SIZE
  6
CONTINUOUS
 62
    30
 10
292.45335499999982
 20
-523.04218599999979
 30
0.0
 40
6.0
  0
LINE
  5
842
  8
SIZE
  6
CONTINUOUS
 62
    30
 10
292.45335499999982
 20
-523.04218599999979
 30
0.0
 11
280.45335499999999
 21
-523.04218599999979
 31
0.0
  0
TEXT
  5
843
  8
SIZE
  6
CONTINUOUS
 62
    30
 10
-110.5837878571428
 20
-498.04218599999979
 30
0.0
 40
64.0
  1
□585
 41
0.9
 72
     1
 11
-0.046645
 21
-498.04218599999979
 31
0.0
  0
CIRCLE
  5
844
  8
DETAIL
  6
PHANTOM
 62
     5
 10
-200.0
 20
-114.0
 30
0.0
 40
84.500000000000014
  0
LINE
  5
845
  8
DETAIL
  6
PHANTOM
 62
     5
 10
-276.5
 20
-78.111279999999979
 30
0.0
 11
-276.5
 21
-45.0
 31
0.0
  0
LINE
  5
846
  8
DETAIL
  6
PHANTOM
 62
     5
 10
-274.5
 20
-43.0
 30
0.0
 11
-245.8175699999999
 21
-43.0
 31
0.0
  0
CIRCLE
  5
847
  8
DETAIL
  6
PHANTOM
 62
     5
 10
-267.0
 20
-52.0
 30
0.0
 40
2.5
  0
ARC
  5
848
  8
DETAIL
  6
PHANTOM
 62
     5
 10
-274.5
 20
-45.0
 30
0.0
 40
2.0
 50
90.0
 51
180.0
  0
LINE
  5
849
  8
DETAIL
  6
PHANTOM
 62
     5
 10
-276.5
 20
-183.0
 30
0.0
 11
-276.5
 21
-149.88872000000001
 31
0.0
  0
LINE
  5
84A
  8
DETAIL
  6
PHANTOM
 62
     5
 10
-274.5
 20
-185.0
 30
0.0
 11
-245.8175699999999
 21
-185.0
 31
0.0
  0
CIRCLE
  5
84B
  8
DETAIL
  6
PHANTOM
 62
     5
 10
-267.0
 20
-176.0
 30
0.0
 40
2.5
  0
ARC
  5
84C
  8
DETAIL
  6
PHANTOM
 62
     5
 10
-274.5
 20
-183.0
 30
0.0
 40
2.0
 50
180.0
 51
270.0
  0
LINE
  5
84D
  8
DETAIL
  6
PHANTOM
 62
     5
 10
-123.5
 20
-45.0
 30
0.0
 11
-123.5
 21
-78.111279999999979
 31
0.0
  0
LINE
  5
84E
  8
DETAIL
  6
PHANTOM
 62
     5
 10
-154.18243000000001
 20
-43.0
 30
0.0
 11
-125.5
 21
-43.0
 31
0.0
  0
CIRCLE
  5
84F
  8
DETAIL
  6
PHANTOM
 62
     5
 10
-133.0
 20
-52.0
 30
0.0
 40
2.5
  0
ARC
  5
850
  8
DETAIL
  6
PHANTOM
 62
     5
 10
-125.5
 20
-45.0
 30
0.0
 40
2.0
 50
0.0
 51
90.0
  0
LINE
  5
851
  8
DETAIL
  6
PHANTOM
 62
     5
 10
-123.5
 20
-149.88872000000001
 30
0.0
 11
-123.5
 21
-183.0
 31
0.0
  0
LINE
  5
852
  8
DETAIL
  6
PHANTOM
 62
     5
 10
-154.18243000000001
 20
-185.0
 30
0.0
 11
-125.5
 21
-185.0
 31
0.0
  0
CIRCLE
  5
853
  8
DETAIL
  6
PHANTOM
 62
     5
 10
-133.0
 20
-176.0
 30
0.0
 40
2.5
  0
ARC
  5
854
  8
DETAIL
  6
PHANTOM
 62
     5
 10
-125.5
 20
-183.0
 30
0.0
 40
2.0
 50
270.0
 51
0.0
  0
CIRCLE
  5
855
  8
DETAIL
  6
PHANTOM
 62
     5
 10
200.0
 20
-114.0
 30
0.0
 40
84.500000000000014
  0
LINE
  5
856
  8
DETAIL
  6
PHANTOM
 62
     5
 10
276.5
 20
-78.111279999999979
 30
0.0
 11
276.5
 21
-45.0
 31
0.0
  0
LINE
  5
857
  8
DETAIL
  6
PHANTOM
 62
     5
 10
274.5
 20
-43.0
 30
0.0
 11
245.8175699999999
 21
-43.0
 31
0.0
  0
CIRCLE
  5
858
  8
DETAIL
  6
PHANTOM
 62
     5
 10
267.0
 20
-52.0
 30
0.0
 40
2.5
  0
ARC
  5
859
  8
DETAIL
  6
PHANTOM
 62
     5
 10
274.5
 20
-45.0
 30
0.0
 40
2.0
 50
0.0
 51
90.0
  0
LINE
  5
85A
  8
DETAIL
  6
PHANTOM
 62
     5
 10
276.5
 20
-183.0
 30
0.0
 11
276.5
 21
-149.88872000000001
 31
0.0
  0
LINE
  5
85B
  8
DETAIL
  6
PHANTOM
 62
     5
 10
274.5
 20
-185.0
 30
0.0
 11
245.8175699999999
 21
-185.0
 31
0.0
  0
CIRCLE
  5
85C
  8
DETAIL
  6
PHANTOM
 62
     5
 10
267.0
 20
-176.0
 30
0.0
 40
2.5
  0
ARC
  5
85D
  8
DETAIL
  6
PHANTOM
 62
     5
 10
274.5
 20
-183.0
 30
0.0
 40
2.0
 50
270.0
 51
0.0
  0
LINE
  5
85E
  8
DETAIL
  6
PHANTOM
 62
     5
 10
123.5
 20
-45.0
 30
0.0
 11
123.5
 21
-78.111279999999979
 31
0.0
  0
LINE
  5
85F
  8
DETAIL
  6
PHANTOM
 62
     5
 10
154.18243000000001
 20
-43.0
 30
0.0
 11
125.5
 21
-43.0
 31
0.0
  0
CIRCLE
  5
860
  8
DETAIL
  6
PHANTOM
 62
     5
 10
133.0
 20
-52.0
 30
0.0
 40
2.5
  0
ARC
  5
861
  8
DETAIL
  6
PHANTOM
 62
     5
 10
125.5
 20
-45.0
 30
0.0
 40
2.0
 50
90.0
 51
180.0
  0
LINE
  5
862
  8
DETAIL
  6
PHANTOM
 62
     5
 10
123.5
 20
-149.88872000000001
 30
0.0
 11
123.5
 21
-183.0
 31
0.0
  0
LINE
  5
863
  8
DETAIL
  6
PHANTOM
 62
     5
 10
154.18243000000001
 20
-185.0
 30
0.0
 11
125.5
 21
-185.0
 31
0.0
  0
CIRCLE
  5
864
  8
DETAIL
  6
PHANTOM
 62
     5
 10
133.0
 20
-176.0
 30
0.0
 40
2.5
  0
ARC
  5
865
  8
DETAIL
  6
PHANTOM
 62
     5
 10
125.5
 20
-183.0
 30
0.0
 40
2.0
 50
180.0
 51
270.0
  0
LINE
  5
866
  8
DETAIL
  6
CONTINUOUS
 62
     5
 10
245.033321
 20
-185.5
 30
0.0
 11
291.55335500000001
 21
-185.5
 31
0.0
  0
LINE
  5
867
  8
DETAIL
  6
CONTINUOUS
 62
     5
 10
-154.966679
 20
-185.5
 30
0.0
 11
-75.570280000000025
 21
-185.5
 31
0.0
  0
LINE
  5
868
  8
BASIS
  6
CENTER
 62
     6
 39
50.0
 10
200.0
 20
-211.149856
 30
0.0
 11
200.0
 21
-12.441608
 31
0.0
  0
LINE
  5
869
  8
BASIS
  6
CENTER
 62
     6
 39
50.0
 10
-200.0
 20
-211.149856
 30
0.0
 11
-200.0
 21
-12.441608
 31
0.0
  0
LINE
  5
86A
  8
SIZE
  6
CONTINUOUS
 62
    30
 10
-200.0
 20
9.1388079999999992
 30
0.0
 11
-200.0
 21
102.1038949999997
 31
0.0
  0
LINE
  5
86B
  8
SIZE
  6
CONTINUOUS
 62
    30
 10
200.0
 20
2.7711209999999991
 30
0.0
 11
200.0
 21
102.1038949999997
 31
0.0
  0
LINE
  5
86C
  8
SIZE
  6
CONTINUOUS
 62
    30
 10
-188.0
 20
82.10389499999998
 30
0.0
 11
188.0
 21
82.10389499999998
 31
0.0
  0
CIRCLE
  5
86D
  8
SIZE
  6
CONTINUOUS
 62
    30
 10
-200.0
 20
82.10389499999998
 30
0.0
 40
6.0
  0
LINE
  5
86E
  8
SIZE
  6
CONTINUOUS
 62
    30
 10
-200.0
 20
82.10389499999998
 30
0.0
 11
-188.0
 21
82.10389499999998
 31
0.0
  0
CIRCLE
  5
86F
  8
SIZE
  6
CONTINUOUS
 62
    30
 10
200.0
 20
82.10389499999998
 30
0.0
 40
6.0
  0
LINE
  5
870
  8
SIZE
  6
CONTINUOUS
 62
    30
 10
200.0
 20
82.10389499999998
 30
0.0
 11
188.0
 21
82.10389499999998
 31
0.0
  0
TEXT
  5
871
  8
SIZE
  6
CONTINUOUS
 62
    30
 10
-74.05714285714285
 20
107.1038949999997
 30
0.0
 40
64.0
  1
400
 41
0.9
 72
     1
 11
0.0
 21
107.1038949999997
 31
0.0
  0
TEXT
  5
872
  8
NOTE
  6
CONTINUOUS
 62
     4
 10
157.37914900000001
 20
-132.85056299999991
 30
0.0
 40
40.0
  1
RA2
 41
0.9
  0
TEXT
  5
873
  8
NOTE
  6
CONTINUOUS
 62
     4
 10
-249.91703699999991
 20
-132.85056299999991
 30
0.0
 40
40.0
  1
OA2
 41
0.9
  0
TEXT
  5
874
  8
ETC
  6
CONTINUOUS
 62
    61
 10
683.57078641065345
 20
239.50025249742151
 30
0.0
 40
50.0
  1
VL-15ZM3-L
 41
0.9
  0
TEXT
  5
875
  8
ETC
  6
CONTINUOUS
 62
    61
 10
559.77117644152725
 20
405.34032000435758
 30
0.0
 40
64.0
  1
VL-15ZM3-L_5
 41
0.9
  0
TEXT
  5
876
  8
ETC
  6
CONTINUOUS
 62
    61
 10
555.58518244152731
 20
312.69276457656622
 30
0.0
 40
64.0
  1
換気扇
 41
0.9
  0
LINE
  5
877
  8
DETAIL
  6
CONTINUOUS
 62
     5
 39
50.0
 10
292.45335499999982
 20
-190.49999999999989
 30
0.0
 11
292.45335499999982
 21
-186.40000000000001
 31
0.0
  0
LINE
  5
878
  8
DETAIL
  6
CONTINUOUS
 62
     5
 39
50.0
 10
-292.54664500000001
 20
-190.5
 30
0.0
 11
-292.5466449999999
 21
-186.40000000000001
 31
0.0
  0
LINE
  5
879
  8
DETAIL
  6
CONTINUOUS
 62
     5
 39
50.0
 10
-285.0
 20
-185.5
 30
0.0
 11
-285.0
 21
-34.0
 31
0.0
  0
LINE
  5
87A
  8
DETAIL
  6
CONTINUOUS
 62
     5
 39
50.0
 10
285.0
 20
-185.5
 30
0.0
 11
285.0
 21
-34.0
 31
0.0
  0
ARC
  5
87B
  8
DETAIL
  6
CONTINUOUS
 62
     5
 10
-289.54664500000001
 20
-190.5
 30
0.0
 40
3.0
 50
180.0
 51
270.0
  0
ARC
  5
87C
  8
DETAIL
  6
CONTINUOUS
 62
     5
 10
289.45335499999982
 20
-190.49999999999989
 30
0.0
 40
3.0
 50
270.0
 51
0.0
  0
ARC
  5
87D
  8
DETAIL
  6
CONTINUOUS
 62
     5
 39
50.0
 10
291.55335500000001
 20
-186.40000000000001
 30
0.0
 40
0.9
 50
0.0
 51
90.0
  0
ARC
  5
87E
  8
DETAIL
  6
CONTINUOUS
 62
     5
 39
50.0
 10
-291.64664499999992
 20
-186.40000000000001
 30
0.0
 40
0.9
 50
90.0
 51
180.0
  0
LINE
  5
87F
  8
OUTLINE
  6
CONTINUOUS
 62
     3
 39
50.0
 10
274.97143999999992
 20
-193.4999999999998
 30
0.0
 11
289.45335499999982
 21
-193.4999999999998
 31
0.0
  0
LINE
  5
880
  8
OUTLINE
  6
CONTINUOUS
 62
     3
 39
50.0
 10
292.45335499999982
 20
-190.49999999999989
 30
0.0
 11
292.45335499999982
 21
-186.40000000000001
 31
0.0
  0
LINE
  5
881
  8
OUTLINE
  6
CONTINUOUS
 62
     3
 39
50.0
 10
285.0
 20
-185.5
 30
0.0
 11
285.0
 21
0.0
 31
0.0
  0
LINE
  5
882
  8
OUTLINE
  6
CONTINUOUS
 62
     3
 39
50.0
 10
285.0
 20
-185.5
 30
0.0
 11
291.55335500000001
 21
-185.5
 31
0.0
  0
LINE
  5
883
  8
OUTLINE
  6
CONTINUOUS
 62
     3
 39
50.0
 10
-285.0
 20
-185.5
 30
0.0
 11
-285.0
 21
0.0
 31
0.0
  0
LINE
  5
884
  8
OUTLINE
  6
CONTINUOUS
 62
     3
 39
50.0
 10
-285.0
 20
-185.5
 30
0.0
 11
-291.64664500000009
 21
-185.5
 31
0.0
  0
LINE
  5
885
  8
OUTLINE
  6
CONTINUOUS
 62
     3
 39
50.0
 10
-292.54664500000001
 20
-190.5
 30
0.0
 11
-292.54664500000001
 21
-186.40000000000001
 31
0.0
  0
LINE
  5
886
  8
OUTLINE
  6
CONTINUOUS
 62
     3
 39
50.0
 10
-274.97143999999992
 20
-193.4999999999998
 30
0.0
 11
-289.54664500000001
 21
-193.4999999999998
 31
0.0
  0
ARC
  5
887
  8
OUTLINE
  6
CONTINUOUS
 62
     3
 39
50.0
 10
-291.64664500000009
 20
-186.40000000000001
 30
0.0
 40
0.9
 50
90.0
 51
180.0
  0
ARC
  5
888
  8
OUTLINE
  6
CONTINUOUS
 62
     3
 39
50.0
 10
291.55335500000001
 20
-186.40000000000001
 30
0.0
 40
0.9
 50
0.0
 51
90.0
  0
ARC
  5
889
  8
OUTLINE
  6
CONTINUOUS
 62
     3
 39
50.0
 10
289.45335499999982
 20
-190.49999999999989
 30
0.0
 40
3.0
 50
270.0
 51
0.0
  0
ARC
  5
88A
  8
OUTLINE
  6
CONTINUOUS
 62
     3
 39
50.0
 10
-289.54664500000001
 20
-190.49999999999989
 30
0.0
 40
3.0
 50
180.00000000000031
 51
270.0
  0
LINE
  5
88B
  8
SIZE
  6
CONTINUOUS
 62
    30
 39
50.0
 10
285.0
 20
-192.23446570581359
 30
0.0
 11
285.0
 21
-423.04218599999979
 31
0.0
  0
LINE
  5
88C
  8
SIZE
  6
CONTINUOUS
 62
    30
 39
50.0
 10
-285.0
 20
-191.95713206390039
 30
0.0
 11
-285.0
 21
-423.04218599999979
 31
0.0
  0
LINE
  5
88D
  8
SIZE
  6
CONTINUOUS
 62
    30
 39
50.0
 10
456.76435167877003
 20
-65.0
 30
0.0
 11
736.15421054739716
 21
-65.0
 31
0.0
  0
LINE
  5
88E
  8
SIZE
  6
CONTINUOUS
 62
    30
 39
50.0
 10
456.76435167877003
 20
-163.0
 30
0.0
 11
736.70911475681339
 21
-163.0
 31
0.0
  0
CIRCLE
  5
88F
  8
DETAIL
  6
PHANTOM
 62
     5
 39
50.0
 10
200.0
 20
-114.0
 30
0.0
 40
49.0
  0
CIRCLE
  5
890
  8
DETAIL
  6
PHANTOM
 62
     5
 39
50.0
 10
200.0
 20
-114.0
 30
0.0
 40
62.0
  0
ARC
  5
891
  8
DETAIL
  6
PHANTOM
 62
     5
 39
50.0
 10
200.0
 20
-114.0
 30
0.0
 40
73.0
 50
211.86274956867291
 51
328.13725043132712
  0
LINE
  5
892
  8
DETAIL
  6
PHANTOM
 62
     5
 39
50.0
 10
138.0
 20
-152.53569773599531
 30
0.0
 11
138.0
 21
-75.464302264004573
 31
0.0
  0
LINE
  5
893
  8
DETAIL
  6
PHANTOM
 62
     5
 39
50.0
 10
262.0
 20
-152.53569773599531
 30
0.0
 11
262.0
 21
-75.464302264004615
 31
0.0
  0
ARC
  5
894
  8
DETAIL
  6
PHANTOM
 62
     5
 39
50.0
 10
200.0
 20
-114.0
 30
0.0
 40
73.0
 50
31.86274956867295
 51
148.137250431327
  0
CIRCLE
  5
895
  8
DETAIL
  6
PHANTOM
 62
     5
 39
50.0
 10
-200.0
 20
-114.0
 30
0.0
 40
49.0
  0
CIRCLE
  5
896
  8
DETAIL
  6
PHANTOM
 62
     5
 39
50.0
 10
-200.0
 20
-114.0
 30
0.0
 40
62.0
  0
ARC
  5
897
  8
DETAIL
  6
PHANTOM
 62
     5
 39
50.0
 10
-200.0
 20
-114.0
 30
0.0
 40
73.0
 50
31.862749568672928
 51
148.137250431327
  0
LINE
  5
898
  8
DETAIL
  6
PHANTOM
 62
     5
 39
50.0
 10
-138.0
 20
-152.5356977359954
 30
0.0
 11
-138.0
 21
-75.464302264004615
 31
0.0
  0
LINE
  5
899
  8
DETAIL
  6
PHANTOM
 62
     5
 39
50.0
 10
-262.0
 20
-152.53569773599531
 30
0.0
 11
-262.0
 21
-75.464302264004615
 31
0.0
  0
ARC
  5
89A
  8
DETAIL
  6
PHANTOM
 62
     5
 39
50.0
 10
-200.0
 20
-114.0
 30
0.0
 40
73.0
 50
211.86274956867291
 51
328.13725043132712
  0
LINE
  5
89B
  8
SIZE
  6
CONTINUOUS
 62
    30
 39
50.0
 10
436.0
 20
-176.0
 30
0.0
 11
436.0
 21
-423.04218599999979
 31
0.0
  0
ENDSEC
  0
EOF
