  0
SECTION
  2
HEADER
  9
$ACADVER
  1
AC1009
  9
$INSBASE
 10
0.0
 20
0.0
 30
0.0
  9
$EXTMIN
 10
-706.12316399999986
 20
-543.04218600000002
 30
0.0
  9
$EXTMAX
 10
1266.8078627687039
 20
499.95562927844912
 30
50.0
  9
$LIMMIN
 10
-2970.0
 20
-2100.0
  9
$LIMMAX
 10
2970.0
 20
2100.0
  9
$ORTHOMODE
 70
     1
  9
$REGENMODE
 70
     1
  9
$FILLMODE
 70
     1
  9
$QTEXTMODE
 70
     0
  9
$MIRRTEXT
 70
     0
  9
$DRAGMODE
 70
     2
  9
$LTSCALE
 40
20.0
  9
$OSMODE
 70
   167
  9
$ATTMODE
 70
     1
  9
$TEXTSIZE
 40
64.0
  9
$TRACEWID
 40
0.05
  9
$TEXTSTYLE
  7
STANDARD
  9
$CLAYER
  8
NOTE
  9
$CELTYPE
  6
CONTINUOUS
  9
$CECOLOR
 62
     4
  9
$DIMSCALE
 40
1.0
  9
$DIMASZ
 40
40.0
  9
$DIMEXO
 40
20.0
  9
$DIMDLI
 40
200.0
  9
$DIMRND
 40
0.0
  9
$DIMDLE
 40
0.0
  9
$DIMEXE
 40
20.0
  9
$DIMTP
 40
0.0
  9
$DIMTM
 40
0.0
  9
$DIMTXT
 40
64.0
  9
$DIMCEN
 40
0.09
  9
$DIMTSZ
 40
0.0
  9
$DIMTOL
 70
     0
  9
$DIMLIM
 70
     0
  9
$DIMTIH
 70
     0
  9
$DIMTOH
 70
     0
  9
$DIMSE1
 70
     0
  9
$DIMSE2
 70
     0
  9
$DIMTAD
 70
     1
  9
$DIMZIN
 70
     8
  9
$DIMBLK
  1
NONE
  9
$DIMASO
 70
     1
  9
$DIMSHO
 70
     0
  9
$DIMPOST
  1

  9
$DIMAPOST
  1

  9
$DIMALT
 70
     0
  9
$DIMALTD
 70
     2
  9
$DIMALTF
 40
25.399999999999999
  9
$DIMLFAC
 40
1.0
  9
$DIMTOFL
 70
     1
  9
$DIMTVP
 40
0.0
  9
$DIMTIX
 70
     1
  9
$DIMSOXD
 70
     0
  9
$DIMSAH
 70
     0
  9
$DIMBLK1
  1
NONE
  9
$DIMBLK2
  1
ORIGIN
  9
$DIMSTYLE
  2
STANDARD
  9
$DIMCLRD
 70
   256
  9
$DIMCLRE
 70
   256
  9
$DIMCLRT
 70
   256
  9
$DIMTFAC
 40
1.0
  9
$DIMGAP
 40
25.0
  9
$LUNITS
 70
     2
  9
$LUPREC
 70
     4
  9
$SKETCHINC
 40
0.1
  9
$FILLETRAD
 40
3.0
  9
$AUNITS
 70
     1
  9
$AUPREC
 70
     3
  9
$MENU
  1
ACAD
  9
$ELEVATION
 40
0.0
  9
$PELEVATION
 40
0.0
  9
$THICKNESS
 40
50.0
  9
$LIMCHECK
 70
     0
  9
$BLIPMODE
 70
     0
  9
$CHAMFERA
 40
0.0
  9
$CHAMFERB
 40
0.0
  9
$SKPOLY
 70
     0
  9
$TDCREATE
 40
2453019.6230103699
  9
$TDUPDATE
 40
2454985.7748810528
  9
$TDINDWG
 40
1.7117685185
  9
$TDUSRTIMER
 40
1.7117676156999999
  9
$USRTIMER
 70
     1
  9
$ANGBASE
 50
0.0
  9
$ANGDIR
 70
     0
  9
$PDMODE
 70
     3
  9
$PDSIZE
 40
-2.0
  9
$PLINEWID
 40
0.0
  9
$COORDS
 70
     2
  9
$SPLFRAME
 70
     0
  9
$SPLINETYPE
 70
     6
  9
$SPLINESEGS
 70
     8
  9
$ATTDIA
 70
     0
  9
$ATTREQ
 70
     1
  9
$HANDLING
 70
 22529
  9
$HANDSEED
  5
CD4
  9
$SURFTAB1
 70
     6
  9
$SURFTAB2
 70
     6
  9
$SURFTYPE
 70
     6
  9
$SURFU
 70
     6
  9
$SURFV
 70
     6
  9
$UCSNAME
  2

  9
$UCSORG
 10
0.0
 20
0.0
 30
0.0
  9
$UCSXDIR
 10
1.0
 20
0.0
 30
0.0
  9
$UCSYDIR
 10
0.0
 20
1.0
 30
0.0
  9
$PUCSNAME
  2

  9
$PUCSORG
 10
0.0
 20
0.0
 30
0.0
  9
$PUCSXDIR
 10
1.0
 20
0.0
 30
0.0
  9
$PUCSYDIR
 10
0.0
 20
1.0
 30
0.0
  9
$USERI1
 70
     0
  9
$USERI2
 70
     0
  9
$USERI3
 70
     0
  9
$USERI4
 70
     0
  9
$USERI5
 70
     0
  9
$USERR1
 40
20.0
  9
$USERR2
 40
0.0
  9
$USERR3
 40
0.0
  9
$USERR4
 40
0.0
  9
$USERR5
 40
0.0
  9
$WORLDVIEW
 70
     1
  9
$SHADEDGE
 70
     3
  9
$SHADEDIF
 70
    70
  9
$TILEMODE
 70
     1
  9
$MAXACTVP
 70
    48
  9
$PLIMCHECK
 70
     0
  9
$PEXTMIN
 10
-1.0000000000000000E+020
 20
-1.0000000000000000E+020
 30
-1.0000000000000000E+020
  9
$PEXTMAX
 10
1.0000000000000000E+020
 20
1.0000000000000000E+020
 30
1.0000000000000000E+020
  9
$PLIMMIN
 10
0.0
 20
0.0
  9
$PLIMMAX
 10
12.0
 20
9.0
  9
$UNITMODE
 70
     0
  9
$VISRETAIN
 70
     0
  9
$PLINEGEN
 70
     0
  9
$PSLTSCALE
 70
     0
  0
ENDSEC
  0
SECTION
  2
TABLES
  0
TABLE
  2
VPORT
 70
     3
  0
VPORT
  2
*ACTIVE
 70
     0
 10
0.0
 20
0.0
 11
1.0
 21
1.0
 12
280.33729145367869
 22
-32.020443191230463
 13
0.0
 23
0.0
 14
1.0
 24
1.0
 15
0.0
 25
0.0
 16
0.0
 26
0.0
 36
1.0
 17
0.0
 27
0.0
 37
0.0
 40
1558.60788626677
 41
1.493654822335025
 42
50.0
 43
0.0
 44
0.0
 50
0.0
 51
0.0
 71
     0
 72
  1000
 73
     1
 74
     0
 75
     0
 76
     0
 77
     0
 78
     0
  0
ENDTAB
  0
TABLE
  2
LTYPE
 70
     6
  0
LTYPE
  2
CONTINUOUS
 70
     0
  3
実線
 72
    65
 73
     0
 40
0.0
  0
LTYPE
  2
DASHDOT
 70
     0
  3
____ _ ____ _ ____ _ ____ _ ____ _ ____ _ ____
 72
    65
 73
     4
 40
5.5
 49
4.0
 49
-0.6
 49
0.3
 49
-0.6
  0
LTYPE
  2
DASHED
 70
     0
  3
-- -- -- -- -- -- -- -- -- -- -- -- -- -- --
 72
    65
 73
     2
 40
0.75
 49
0.5
 49
-0.25
  0
LTYPE
  2
CENTER
 70
     0
  3
Center ____ _ ____ _ ____ _ ____ _ ____ _ ____
 72
    65
 73
     4
 40
2.0
 49
1.25
 49
-0.25
 49
0.25
 49
-0.25
  0
LTYPE
  2
HIDDEN
 70
     0
  3
Hidden __ __ __ __ __ __ __ __ __ __ __ __ __ _
 72
    65
 73
     2
 40
0.375
 49
0.25
 49
-0.125
  0
LTYPE
  2
PHANTOM
 70
     0
  3
Phantom ______  __  __  ______  __  __  ______
 72
    65
 73
     6
 40
2.5
 49
1.25
 49
-0.25
 49
0.25
 49
-0.25
 49
0.25
 49
-0.25
  0
ENDTAB
  0
TABLE
  2
LAYER
 70
    12
  0
LAYER
  2
0
 70
     0
 62
     7
  6
CONTINUOUS
  0
LAYER
  2
NOTE
 70
     0
 62
     4
  6
CONTINUOUS
  0
LAYER
  2
SIZE
 70
     0
 62
    30
  6
CONTINUOUS
  0
LAYER
  2
BASIS
 70
     0
 62
     6
  6
DASHDOT
  0
LAYER
  2
OUTLINE
 70
     0
 62
     3
  6
CONTINUOUS
  0
LAYER
  2
DETAIL
 70
     0
 62
     5
  6
CONTINUOUS
  0
LAYER
  2
ARRANGE
 70
     0
 62
     1
  6
CONTINUOUS
  0
LAYER
  2
DEFPOINTS
 70
     0
 62
     7
  6
CONTINUOUS
  0
LAYER
  2
ETC
 70
     0
 62
    61
  6
CONTINUOUS
  0
LAYER
  2
FIX
 70
     0
 62
    11
  6
CONTINUOUS
  0
LAYER
  2
SERVICESPACE
 70
     0
 62
     2
  6
DASHDOT
  0
LAYER
  2
SYMBOLLINE
 70
     0
 62
    15
  6
CONTINUOUS
  0
ENDTAB
  0
TABLE
  2
STYLE
 70
     3
  0
STYLE
  2
STANDARD
 70
     0
 40
64.0
 41
0.9
 50
0.0
 71
     0
 42
64.0
  3
SIMPLEX.shx
  4
BIGFONT.shx
  0
STYLE
  2
ANNOTATIVE
 70
     0
 40
0.0
 41
1.0
 50
0.0
 71
     0
 42
0.2
  3
txt
  4

  0
STYLE
  2

 70
     1
 40
0.0
 41
1.0
 50
0.0
 71
     0
 42
64.0
  3
ltypeshp.shx
  4

  0
ENDTAB
  0
TABLE
  2
VIEW
 70
     1
  0
VIEW
  2
ALL
 70
     0
 40
4282.6198079999967
 10
0.0
 20
41.309903999999989
 41
5940.0
 11
0.0
 21
0.0
 31
1.0
 12
0.0
 22
0.0
 32
0.0
 42
50.0
 43
0.0
 44
0.0
 50
0.0
 71
     0
  0
ENDTAB
  0
TABLE
  2
UCS
 70
     0
  0
ENDTAB
  0
TABLE
  2
APPID
 70
    17
  0
APPID
  2
ACAD
 70
     0
  0
APPID
  2
ACADANNOTATIVE
 70
     0
  0
APPID
  2
ACAD_MLEADERVER
 70
     0
  0
APPID
  2
AUTOCAD_POSTSCRIPT_FIGURE
 70
     0
  0
APPID
  2
ACAD_EXEMPT_FROM_CAD_STANDARDS
 70
     0
  0
APPID
  2
ACAD_PSEXT
 70
     0
  0
APPID
  2
ACAUTHENVIRON
 70
     0
  0
APPID
  2
GENIUS_GENOENT_13
 70
     0
  0
APPID
  2
GENIUS_GENCFG_13
 70
     0
  0
APPID
  2
GENIUS_GENCFG0_13
 70
     0
  0
APPID
  2
GENIUS_GENCFG1_13
 70
     0
  0
APPID
  2
GENIUS_GENCFG2_13
 70
     0
  0
APPID
  2
GENIUS_GENCFG3_13
 70
     0
  0
APPID
  2
GENIUS_GENCFG4_13
 70
     0
  0
APPID
  2
GENIUS_GEVCFG0_13
 70
     0
  0
APPID
  2
CONTENTBLOCKICON
 70
     0
  0
APPID
  2
CONTENTBLOCKDESCRIPTION
 70
     0
  0
ENDTAB
  0
TABLE
  2
DIMSTYLE
 70
     2
  0
DIMSTYLE
  2
STANDARD
 70
     0
  3

  4

  5

  6

  7

 40
1.0
 41
0.18
 42
0.0625
 43
0.38
 44
0.18
 45
0.0
 46
0.0
 47
0.0
 48
0.0
140
0.18
141
0.09
142
0.0
143
25.399999999999999
144
1.0
145
0.0
146
1.0
147
0.09
 71
     0
 72
     0
 73
     1
 74
     1
 75
     0
 76
     0
 77
     0
 78
     0
170
     0
171
     2
172
     0
173
     0
174
     0
175
     0
176
     7
177
     7
178
     7
  0
DIMSTYLE
  2
ANNOTATIVE
 70
     0
  3

  4

  5

  6

  7

 40
1.0
 41
0.18
 42
0.0625
 43
0.38
 44
0.18
 45
0.0
 46
0.0
 47
0.0
 48
0.0
140
0.18
141
0.09
142
0.0
143
25.399999999999999
144
1.0
145
0.0
146
1.0
147
0.09
 71
     0
 72
     0
 73
     1
 74
     1
 75
     0
 76
     0
 77
     0
 78
     0
170
     0
171
     2
172
     0
173
     0
174
     0
175
     0
176
     0
177
     0
178
     0
  0
ENDTAB
  0
ENDSEC
  0
SECTION
  2
BLOCKS
  0
BLOCK
  8
0
  2
$MODEL_SPACE
 70
     0
 10
0.0
 20
0.0
 30
0.0
  3
$MODEL_SPACE
  1

  0
ENDBLK
  5
ACB
  8
0
  0
BLOCK
 67
     1
  8
0
  2
$PAPER_SPACE
 70
     0
 10
0.0
 20
0.0
 30
0.0
  3
$PAPER_SPACE
  1

  0
ENDBLK
  5
AC7
 67
     1
  8
0
  0
BLOCK
  8
0
  2
DOT1
 70
     0
 10
0.0
 20
0.0
 30
0.0
  3
DOT1
  1

  0
CIRCLE
  5
AFF
  8
SIZE
  6
CONTINUOUS
 62
     7
 10
0.0
 20
0.0
 30
0.0
 40
3.0
  0
ENDBLK
  5
B00
  8
0
  0
BLOCK
  8
0
  2
_ORIGIN
 70
     0
 10
0.0
 20
0.0
 30
0.0
  3
_ORIGIN
  1

  0
CIRCLE
  5
B03
  8
0
  6
CONTINUOUS
 62
     7
 10
0.0
 20
0.0
 30
0.0
 40
0.5
  0
LINE
  5
B04
  8
0
  6
CONTINUOUS
 62
     7
 10
0.0
 20
0.0
 30
0.0
 11
-1.0
 21
0.0
 31
0.0
  0
ENDBLK
  5
B05
  8
0
  0
BLOCK
  8
0
 62
     4
  2
_NONE
 70
     0
 10
0.0
 20
0.0
 30
0.0
  3
_NONE
  1

  0
ENDBLK
  5
B08
  8
0
 62
     4
  0
BLOCK
  8
0
 62
     4
  2
_OPEN30
 70
     0
 10
0.0
 20
0.0
 30
0.0
  3
_OPEN30
  1

  0
LINE
  5
B0B
  8
0
  6
BYBLOCK
 62
     0
 10
-1.0
 20
0.26794919
 30
0.0
 11
0.0
 21
0.0
 31
0.0
  0
LINE
  5
B0C
  8
0
  6
BYBLOCK
 62
     0
 10
0.0
 20
0.0
 30
0.0
 11
-1.0
 21
-0.26794919
 31
0.0
  0
LINE
  5
B0D
  8
0
  6
BYBLOCK
 62
     0
 10
0.0
 20
0.0
 30
0.0
 11
-1.0
 21
0.0
 31
0.0
  0
ENDBLK
  5
B0E
  8
0
 62
     4
  0
ENDSEC
  0
SECTION
  2
ENTITIES
  0
CIRCLE
  5
B0F
  8
ARRANGE
  6
CONTINUOUS
 62
     1
 10
0.0
 20
0.0
 30
0.0
 40
40.0
  0
POINT
  5
B10
  8
ARRANGE
  6
CONTINUOUS
 62
     1
 10
0.0
 20
0.0
 30
0.0
 39
50.0
  0
LINE
  5
B11
  8
BASIS
  6
DASHDOT
 62
     6
 39
50.0
 10
0.0
 20
-259.09335286571871
 30
0.0
 11
0.0
 21
50.629446000000002
 31
0.0
  0
LINE
  5
B12
  8
BASIS
  6
DASHDOT
 62
     6
 10
-461.00003299999997
 20
-114.0
 30
0.0
 11
-104.1646929999999
 21
-114.0
 31
0.0
  0
LINE
  5
B13
  8
BASIS
  6
DASHDOT
 62
     6
 10
105.490337
 20
-114.0
 30
0.0
 11
483.84510999999992
 21
-114.0
 31
0.0
  0
TEXT
  5
B14
  8
NOTE
  6
CONTINUOUS
 62
     4
 10
-458.41389800000002
 20
-181.88510600000001
 30
0.0
 40
40.0
  1
SA RA1
 50
90.0
 41
0.9
  0
LINE
  5
B15
  8
DETAIL
  6
CONTINUOUS
 62
     5
 10
219.88502
 20
-246.7999999999999
 30
0.0
 11
-219.88502
 21
-246.7999999999999
 31
0.0
  0
LINE
  5
B16
  8
DETAIL
  6
CONTINUOUS
 62
     5
 10
-257.61229999999989
 20
-222.80000000000001
 30
0.0
 11
-89.999999999999986
 21
-222.80000000000001
 31
0.0
  0
LINE
  5
B17
  8
DETAIL
  6
CONTINUOUS
 62
     5
 10
137.2723499999999
 20
-232.2999999999999
 30
0.0
 11
89.999999999999986
 21
-232.2997486527635
 31
0.0
  0
LINE
  5
B18
  8
DETAIL
  6
CONTINUOUS
 62
     5
 10
75.570280000000025
 20
-185.5
 30
0.0
 11
154.966679
 21
-185.5
 31
0.0
  0
LINE
  5
B19
  8
DETAIL
  6
CONTINUOUS
 62
     5
 10
-210.40000000000001
 20
0.0
 30
0.0
 11
210.40000000000001
 21
0.0
 31
0.0
  0
LINE
  5
B1A
  8
DETAIL
  6
CONTINUOUS
 62
     5
 10
-195.40000000000001
 20
-24.0
 30
0.0
 11
-195.40000000000001
 21
-30.0
 31
0.0
  0
LINE
  5
B1B
  8
DETAIL
  6
CONTINUOUS
 62
     5
 10
-197.40000000000001
 20
-30.0
 30
0.0
 11
-197.40000000000001
 21
-24.0
 31
0.0
  0
LINE
  5
B1C
  8
DETAIL
  6
CONTINUOUS
 62
     5
 10
-200.40000000000001
 20
-32.0
 30
0.0
 11
-200.40000000000001
 21
-10.0
 31
0.0
  0
LINE
  5
B1D
  8
DETAIL
  6
CONTINUOUS
 62
     5
 10
-340.39999999999992
 20
-32.0
 30
0.0
 11
-340.39999999999992
 21
-10.0
 31
0.0
  0
LINE
  5
B1E
  8
DETAIL
  6
CONTINUOUS
 62
     5
 10
-343.39999999999992
 20
-30.0
 30
0.0
 11
-343.39999999999992
 21
-24.0
 31
0.0
  0
LINE
  5
B1F
  8
DETAIL
  6
CONTINUOUS
 62
     5
 10
-345.39999999999992
 20
-30.0
 30
0.0
 11
-345.39999999999992
 21
-24.0
 31
0.0
  0
LINE
  5
B20
  8
DETAIL
  6
CONTINUOUS
 62
     5
 10
-352.29624999999982
 20
-32.0
 30
0.0
 11
-187.75459000000001
 21
-32.0
 31
0.0
  0
LINE
  5
B21
  8
DETAIL
  6
CONTINUOUS
 62
     5
 10
-352.29624999999982
 20
-34.0
 30
0.0
 11
-187.75459000000001
 21
-34.0
 31
0.0
  0
LINE
  5
B22
  8
DETAIL
  6
CONTINUOUS
 62
     5
 10
-238.0
 20
-228.80000000000001
 30
0.0
 11
-257.0261799999999
 21
-228.80000000000001
 31
0.0
  0
LINE
  5
B23
  8
DETAIL
  6
CONTINUOUS
 62
     5
 10
-291.64664499999992
 20
-185.49999999999949
 30
0.0
 11
-245.033321
 21
-185.5
 31
0.0
  0
LINE
  5
B24
  8
DETAIL
  6
CONTINUOUS
 62
     5
 10
-435.00243999999992
 20
-163.06982999999991
 30
0.0
 11
-389.0
 21
-166.28999999999999
 31
0.0
  0
LINE
  5
B25
  8
DETAIL
  6
CONTINUOUS
 62
     5
 10
-435.00243999999992
 20
-64.93016999999999
 30
0.0
 11
-389.0
 21
-61.710000000000001
 31
0.0
  0
LINE
  5
B26
  8
DETAIL
  6
CONTINUOUS
 62
     5
 10
-436.0
 20
-162.0
 30
0.0
 11
-436.0
 21
-66.0
 31
0.0
  0
LINE
  5
B27
  8
DETAIL
  6
CONTINUOUS
 62
     5
 10
-435.00243999999992
 20
-163.06982999999991
 30
0.0
 11
-436.0
 21
-162.0
 31
0.0
  0
LINE
  5
B28
  8
DETAIL
  6
CONTINUOUS
 62
     5
 10
-435.00243999999992
 20
-64.93016999999999
 30
0.0
 11
-436.0
 21
-66.0
 31
0.0
  0
LINE
  5
B29
  8
DETAIL
  6
CONTINUOUS
 62
     5
 10
-288.0
 20
-178.5
 30
0.0
 11
-288.0
 21
-60.5
 31
0.0
  0
LINE
  5
B2A
  8
DETAIL
  6
CONTINUOUS
 62
     5
 10
-359.0
 20
-186.99999999999989
 30
0.0
 11
-359.0
 21
-41.0
 31
0.0
  0
LINE
  5
B2B
  8
DETAIL
  6
CONTINUOUS
 62
     5
 10
-329.0
 20
-198.5
 30
0.0
 11
-329.0
 21
-34.0
 31
0.0
  0
LINE
  5
B2C
  8
DETAIL
  6
CONTINUOUS
 62
     5
 10
-389.0
 20
-176.0
 30
0.0
 11
-389.0
 21
-52.0
 31
0.0
  0
LINE
  5
B2D
  8
DETAIL
  6
CONTINUOUS
 62
     5
 10
-329.0
 20
-186.99999999999989
 30
0.0
 11
-359.0
 21
-186.99999999999989
 31
0.0
  0
LINE
  5
B2E
  8
DETAIL
  6
CONTINUOUS
 62
     5
 10
-359.0
 20
-176.0
 30
0.0
 11
-389.0
 21
-176.0
 31
0.0
  0
LINE
  5
B2F
  8
DETAIL
  6
CONTINUOUS
 62
     5
 10
-261.69429000000002
 20
-220.85035999999991
 30
0.0
 11
-273.6737399999999
 21
-195.89318
 31
0.0
  0
LINE
  5
B30
  8
DETAIL
  6
CONTINUOUS
 62
     5
 10
-257.0261799999999
 20
-228.80000000000001
 30
0.0
 11
-257.11315000000002
 21
-223.81746000000001
 31
0.0
  0
ARC
  5
B31
  8
DETAIL
  6
CONTINUOUS
 62
     5
 10
-256.11329999999992
 20
-223.7999999999999
 30
0.0
 40
1.0
 50
90.0
 51
180.99999799999981
  0
ARC
  5
B32
  8
DETAIL
  6
CONTINUOUS
 62
     5
 10
-257.61229999999989
 20
-217.80000000000001
 30
0.0
 40
5.0
 50
216.9857669999999
 51
270.0
  0
ARC
  5
B33
  8
DETAIL
  6
CONTINUOUS
 62
     5
 10
-257.61229999999989
 20
-217.80000000000001
 30
0.0
 40
5.0
 50
205.641006
 51
208.6424839999998
  0
LINE
  5
B34
  8
DETAIL
  6
CONTINUOUS
 62
     5
 10
-288.0
 20
-198.5
 30
0.0
 11
-329.0
 21
-198.5
 31
0.0
  0
LINE
  5
B35
  8
DETAIL
  6
CONTINUOUS
 62
     5
 10
-288.0
 20
-198.5
 30
0.0
 11
-288.0
 21
-178.5
 31
0.0
  0
ARC
  5
B36
  8
DETAIL
  6
CONTINUOUS
 62
     5
 10
-270.96917000000002
 20
-194.59499
 30
0.0
 40
3.0
 50
181.0
 51
205.641006
  0
LINE
  5
B37
  8
DETAIL
  6
CONTINUOUS
 62
     5
 10
-273.96870999999982
 20
-194.6473499999999
 30
0.0
 11
-273.97158999999982
 21
-194.48255
 31
0.0
  0
LINE
  5
B38
  8
DETAIL
  6
CONTINUOUS
 62
     5
 10
-289.54664499999973
 20
-193.5
 30
0.0
 11
-274.97143999999992
 21
-193.5
 31
0.0
  0
ARC
  5
B39
  8
DETAIL
  6
CONTINUOUS
 62
     5
 10
-274.97143999999992
 20
-194.5
 30
0.0
 40
1.0
 50
0.999957
 51
90.0
  0
LINE
  5
B3A
  8
DETAIL
  6
CONTINUOUS
 62
     5
 10
-329.0
 20
-41.0
 30
0.0
 11
-359.0
 21
-41.0
 31
0.0
  0
LINE
  5
B3B
  8
DETAIL
  6
CONTINUOUS
 62
     5
 10
-359.0
 20
-52.0
 30
0.0
 11
-389.0
 21
-52.0
 31
0.0
  0
ARC
  5
B3C
  8
DETAIL
  6
CONTINUOUS
 62
     5
 10
-341.39999999999992
 20
-30.0
 30
0.0
 40
2.0
 50
180.0
 51
270.0
  0
ARC
  5
B3D
  8
DETAIL
  6
CONTINUOUS
 62
     5
 10
-341.39999999999992
 20
-30.0
 30
0.0
 40
4.0
 50
180.0
 51
210.0
  0
LINE
  5
B3E
  8
DETAIL
  6
CONTINUOUS
 62
     5
 10
-352.29624999999982
 20
-34.0
 30
0.0
 11
-352.29624999999982
 21
-32.0
 31
0.0
  0
LINE
  5
B3F
  8
DETAIL
  6
CONTINUOUS
 62
     5
 10
-296.7999999999999
 20
-35.306429999999992
 30
0.0
 11
-296.7999999999999
 21
-35.29999999999999
 31
0.0
  0
LINE
  5
B40
  8
DETAIL
  6
CONTINUOUS
 62
     5
 10
-296.30000000000001
 20
-35.331380000000003
 30
0.0
 11
-296.30000000000001
 21
-35.29999999999999
 31
0.0
  0
LINE
  5
B41
  8
DETAIL
  6
CONTINUOUS
 62
     5
 10
-288.0
 20
-60.5
 30
0.0
 11
-288.0
 21
-34.0
 31
0.0
  0
LINE
  5
B42
  8
DETAIL
  6
CONTINUOUS
 62
     5
 10
-89.999999999999986
 20
-232.2999999999999
 30
0.0
 11
-90.5
 21
-232.2999999999999
 31
0.0
  0
LINE
  5
B43
  8
DETAIL
  6
CONTINUOUS
 62
     5
 10
-152.7276599999999
 20
-232.2999999999999
 30
0.0
 11
-211.5
 21
-232.2999999999999
 31
0.0
  0
ARC
  5
B44
  8
DETAIL
  6
CONTINUOUS
 62
     5
 10
-219.88502
 20
-236.80000000000001
 30
0.0
 40
10.0
 50
181.0
 51
270.0
  0
LINE
  5
B45
  8
DETAIL
  6
CONTINUOUS
 62
     5
 10
-212.5
 20
-230.30000000000001
 30
0.0
 11
-237.5
 21
-230.30000000000001
 31
0.0
  0
LINE
  5
B46
  8
DETAIL
  6
CONTINUOUS
 62
     5
 10
-229.99141999999989
 20
-230.79127999999989
 30
0.0
 11
-229.88348999999999
 21
-236.9745299999999
 31
0.0
  0
LINE
  5
B47
  8
DETAIL
  6
CONTINUOUS
 62
     5
 10
-238.0
 20
-228.80000000000001
 30
0.0
 11
-238.0
 21
-229.80000000000001
 31
0.0
  0
ARC
  5
B48
  8
DETAIL
  6
CONTINUOUS
 62
     5
 10
-230.49135000000001
 20
-230.80000000000001
 30
0.0
 40
0.5
 50
1.0
 51
90.0
  0
ARC
  5
B49
  8
DETAIL
  6
CONTINUOUS
 62
     5
 10
-237.5
 20
-229.80000000000001
 30
0.0
 40
0.5
 50
180.0
 51
270.0
  0
LINE
  5
B4A
  8
DETAIL
  6
CONTINUOUS
 62
     5
 10
-212.0
 20
-231.80000000000001
 30
0.0
 11
-212.0
 21
-230.80000999999999
 31
0.0
  0
ARC
  5
B4B
  8
DETAIL
  6
CONTINUOUS
 62
     5
 10
-211.5
 20
-231.80000000000001
 30
0.0
 40
0.5
 50
180.0
 51
270.0
  0
ARC
  5
B4C
  8
DETAIL
  6
CONTINUOUS
 62
     5
 10
-212.5
 20
-230.80000000000001
 30
0.0
 40
0.5
 50
359.99924299999992
 51
90.0
  0
LINE
  5
B4D
  8
DETAIL
  6
CONTINUOUS
 62
     5
 10
-90.500410000000002
 20
-232.16315
 30
0.0
 11
-137.72765000000001
 21
-232.2999999999999
 31
0.0
  0
LINE
  5
B4E
  8
DETAIL
  6
CONTINUOUS
 62
     5
 10
-137.72765000000001
 20
-232.2999999999999
 30
0.0
 11
-152.5
 21
-232.29930999999999
 31
0.0
  0
LINE
  5
B4F
  8
DETAIL
  6
CONTINUOUS
 62
     5
 10
-152.5
 20
-232.29930999999999
 30
0.0
 11
-152.72765000000001
 21
-232.2999999999999
 31
0.0
  0
ARC
  5
B50
  8
DETAIL
  6
CONTINUOUS
 62
     5
 10
-199.39999999999981
 20
-30.0
 30
0.0
 40
2.0
 50
270.0
 51
0.0
  0
ARC
  5
B51
  8
DETAIL
  6
CONTINUOUS
 62
     5
 10
-199.39999999999981
 20
-30.0
 30
0.0
 40
4.0
 50
330.0
 51
0.0
  0
LINE
  5
B52
  8
DETAIL
  6
CONTINUOUS
 62
     5
 10
-187.75459000000001
 20
-34.0
 30
0.0
 11
-187.75459000000001
 21
-32.0
 31
0.0
  0
LINE
  5
B53
  8
DETAIL
  6
CONTINUOUS
 62
     5
 10
-73.008799999999979
 20
-193.5
 30
0.0
 11
72.915509999999998
 21
-193.5
 31
0.0
  0
LINE
  5
B54
  8
DETAIL
  6
CONTINUOUS
 62
     5
 10
-72.511160000000004
 20
-192.0386399999999
 30
0.0
 11
-72.508169999999964
 21
-192.0713299999999
 31
0.0
  0
LINE
  5
B55
  8
DETAIL
  6
CONTINUOUS
 62
     5
 10
-72.508169999999964
 20
-192.0713299999999
 30
0.0
 11
-72.506869999999978
 21
-192.10614000000001
 31
0.0
  0
LINE
  5
B56
  8
DETAIL
  6
CONTINUOUS
 62
     5
 10
-72.570730000000026
 20
-188.44765000000001
 30
0.0
 11
-72.5
 21
-192.5
 31
0.0
  0
LINE
  5
B57
  8
DETAIL
  6
CONTINUOUS
 62
     5
 10
-72.5
 20
-192.5
 30
0.0
 11
-72.508880000000005
 21
-193.00873000000001
 31
0.0
  0
ARC
  5
B58
  8
DETAIL
  6
CONTINUOUS
 62
     5
 10
-73.008799999999979
 20
-193.0
 30
0.0
 40
0.5
 50
270.0
 51
358.99999200000002
  0
ARC
  5
B59
  8
DETAIL
  6
CONTINUOUS
 62
     5
 10
-75.570280000000025
 20
-188.4999999999998
 30
0.0
 40
3.0
 50
1.0
 51
90.0
  0
LINE
  5
B5A
  8
DETAIL
  6
CONTINUOUS
 62
     5
 10
72.508880000000005
 20
-193.00873000000001
 30
0.0
 11
72.5
 21
-192.5
 31
0.0
  0
LINE
  5
B5B
  8
DETAIL
  6
CONTINUOUS
 62
     5
 10
72.5
 20
-192.5
 30
0.0
 11
72.570740000000001
 21
-188.44765000000001
 31
0.0
  0
LINE
  5
B5C
  8
DETAIL
  6
CONTINUOUS
 62
     5
 10
72.506880000000024
 20
-192.10614000000001
 30
0.0
 11
72.508099999999999
 21
-192.07243
 31
0.0
  0
LINE
  5
B5D
  8
DETAIL
  6
CONTINUOUS
 62
     5
 10
72.508099999999999
 20
-192.07243
 30
0.0
 11
72.510940000000005
 21
-192.04035999999999
 31
0.0
  0
LINE
  5
B5E
  8
DETAIL
  6
CONTINUOUS
 62
     5
 10
72.510940000000005
 20
-192.04035999999999
 30
0.0
 11
72.51600999999998
 21
-192.01009999999999
 31
0.0
  0
ARC
  5
B5F
  8
DETAIL
  6
CONTINUOUS
 62
     5
 10
73.008799999999979
 20
-193.0
 30
0.0
 40
0.5
 50
181.0003659999999
 51
270.0
  0
ARC
  5
B60
  8
DETAIL
  6
CONTINUOUS
 62
     5
 10
75.570280000000025
 20
-188.4999999999998
 30
0.0
 40
3.0
 50
90.0
 51
179.0
  0
LINE
  5
B61
  8
DETAIL
  6
CONTINUOUS
 62
     5
 10
-330.39999999999992
 20
0.0
 30
0.0
 11
-210.40000000000001
 21
0.0
 31
0.0
  0
ARC
  5
B62
  8
DETAIL
  6
CONTINUOUS
 62
     5
 10
-330.39999999999992
 20
-10.0
 30
0.0
 40
10.0
 50
90.0
 51
180.0
  0
LINE
  5
B63
  8
DETAIL
  6
CONTINUOUS
 62
     5
 10
-345.39999999999992
 20
-24.0
 30
0.0
 11
-343.39999999999992
 21
-24.0
 31
0.0
  0
CIRCLE
  5
B64
  8
DETAIL
  6
CONTINUOUS
 62
     5
 10
-324.71746000000002
 20
-12.89997
 30
0.0
 40
3.0
  0
CIRCLE
  5
B65
  8
DETAIL
  6
CONTINUOUS
 62
     5
 10
-284.71746000000002
 20
-12.89997
 30
0.0
 40
3.0
  0
CIRCLE
  5
B66
  8
DETAIL
  6
CONTINUOUS
 62
     5
 10
-254.7174599999999
 20
-12.89997
 30
0.0
 40
3.0
  0
ARC
  5
B67
  8
DETAIL
  6
CONTINUOUS
 62
     5
 10
-210.40000000000001
 20
-10.0
 30
0.0
 40
10.0
 50
0.0
 51
90.0
  0
CIRCLE
  5
B68
  8
DETAIL
  6
CONTINUOUS
 62
     5
 10
-214.71745999999999
 20
-12.89997
 30
0.0
 40
3.0
  0
LINE
  5
B69
  8
DETAIL
  6
CONTINUOUS
 62
     5
 10
-197.40000000000001
 20
-24.0
 30
0.0
 11
-195.40000000000001
 21
-24.0
 31
0.0
  0
LINE
  5
B6A
  8
DETAIL
  6
CONTINUOUS
 62
     5
 10
197.40000000000001
 20
-30.0
 30
0.0
 11
197.40000000000001
 21
-24.0
 31
0.0
  0
LINE
  5
B6B
  8
DETAIL
  6
CONTINUOUS
 62
     5
 10
195.40000000000001
 20
-30.0
 30
0.0
 11
195.40000000000001
 21
-24.0
 31
0.0
  0
LINE
  5
B6C
  8
DETAIL
  6
CONTINUOUS
 62
     5
 10
345.39999999999992
 20
-24.0
 30
0.0
 11
345.39999999999992
 21
-30.0
 31
0.0
  0
LINE
  5
B6D
  8
DETAIL
  6
CONTINUOUS
 62
     5
 10
343.39999999999992
 20
-30.0
 30
0.0
 11
343.39999999999992
 21
-24.0
 31
0.0
  0
LINE
  5
B6E
  8
DETAIL
  6
CONTINUOUS
 62
     5
 10
340.39999999999992
 20
-32.0
 30
0.0
 11
340.39999999999992
 21
-10.0
 31
0.0
  0
LINE
  5
B6F
  8
DETAIL
  6
CONTINUOUS
 62
     5
 10
200.40000000000001
 20
-32.0
 30
0.0
 11
200.40000000000001
 21
-10.0
 31
0.0
  0
LINE
  5
B70
  8
DETAIL
  6
CONTINUOUS
 62
     5
 10
434.90915000000001
 20
-163.06982999999991
 30
0.0
 11
388.90670999999992
 21
-166.28999999999999
 31
0.0
  0
LINE
  5
B71
  8
DETAIL
  6
CONTINUOUS
 62
     5
 10
434.90915000000001
 20
-64.93016999999999
 30
0.0
 11
388.90670999999992
 21
-61.710000000000001
 31
0.0
  0
LINE
  5
B72
  8
DETAIL
  6
CONTINUOUS
 62
     5
 10
199.39999999999981
 20
-34.0
 30
0.0
 11
284.39999999999992
 21
-34.0
 31
0.0
  0
LINE
  5
B73
  8
DETAIL
  6
CONTINUOUS
 62
     5
 10
189.0935299999999
 20
-32.0
 30
0.0
 11
351.76364999999998
 21
-32.0
 31
0.0
  0
LINE
  5
B74
  8
DETAIL
  6
CONTINUOUS
 62
     5
 10
189.0935299999999
 20
-34.0
 30
0.0
 11
351.76364999999998
 21
-34.0
 31
0.0
  0
ARC
  5
B75
  8
DETAIL
  6
CONTINUOUS
 62
     5
 10
257.61229999999989
 20
-217.80000000000001
 30
0.0
 40
5.0
 50
270.0
 51
334.358994
  0
LINE
  5
B76
  8
DETAIL
  6
CONTINUOUS
 62
     5
 10
211.5
 20
-232.2999999999999
 30
0.0
 11
152.5
 21
-232.29930999999999
 31
0.0
  0
LINE
  5
B77
  8
DETAIL
  6
CONTINUOUS
 62
     5
 10
152.5
 20
-232.29930999999999
 30
0.0
 11
152.27234999999979
 21
-232.2999999999999
 31
0.0
  0
LINE
  5
B78
  8
DETAIL
  6
CONTINUOUS
 62
     5
 10
137.5
 20
-232.29930999999999
 30
0.0
 11
137.2723499999999
 21
-232.2999999999999
 31
0.0
  0
LINE
  5
B79
  8
DETAIL
  6
CONTINUOUS
 62
     5
 10
152.27234999999979
 20
-232.2999999999999
 30
0.0
 11
137.5
 21
-232.29930999999999
 31
0.0
  0
LINE
  5
B7A
  8
DETAIL
  6
CONTINUOUS
 62
     5
 10
237.5
 20
-230.30000000000001
 30
0.0
 11
212.5
 21
-230.30000000000001
 31
0.0
  0
LINE
  5
B7B
  8
DETAIL
  6
CONTINUOUS
 62
     5
 10
212.0
 20
-230.80000999999999
 30
0.0
 11
212.0
 21
-231.80000000000001
 31
0.0
  0
ARC
  5
B7C
  8
DETAIL
  6
CONTINUOUS
 62
     5
 10
211.5
 20
-231.80000000000001
 30
0.0
 40
0.5
 50
270.0
 51
0.0
  0
ARC
  5
B7D
  8
DETAIL
  6
CONTINUOUS
 62
     5
 10
212.5
 20
-230.80000000000001
 30
0.0
 40
0.5
 50
90.0
 51
180.00075799999991
  0
ARC
  5
B7E
  8
DETAIL
  6
CONTINUOUS
 62
     5
 10
219.88502
 20
-236.80000000000001
 30
0.0
 40
10.0
 50
270.0
 51
359.0
  0
LINE
  5
B7F
  8
DETAIL
  6
CONTINUOUS
 62
     5
 10
238.0
 20
-228.80000000000001
 30
0.0
 11
257.0261799999999
 21
-228.80000000000001
 31
0.0
  0
LINE
  5
B80
  8
DETAIL
  6
CONTINUOUS
 62
     5
 10
238.0
 20
-228.80000000000001
 30
0.0
 11
238.0
 21
-229.80000000000001
 31
0.0
  0
LINE
  5
B81
  8
DETAIL
  6
CONTINUOUS
 62
     5
 10
229.99143000000001
 20
-230.79127999999989
 30
0.0
 11
229.88349999999991
 21
-236.9745299999999
 31
0.0
  0
ARC
  5
B82
  8
DETAIL
  6
CONTINUOUS
 62
     5
 10
230.49135000000001
 20
-230.80000000000001
 30
0.0
 40
0.5
 50
90.0
 51
178.99999600000001
  0
ARC
  5
B83
  8
DETAIL
  6
CONTINUOUS
 62
     5
 10
237.5
 20
-229.80000000000001
 30
0.0
 40
0.5
 50
270.0
 51
0.0
  0
LINE
  5
B84
  8
DETAIL
  6
CONTINUOUS
 62
     5
 10
257.11315000000002
 20
-223.81746000000001
 30
0.0
 11
257.0261799999999
 21
-228.80000000000001
 31
0.0
  0
ARC
  5
B85
  8
DETAIL
  6
CONTINUOUS
 62
     5
 10
256.11331000000001
 20
-223.7999999999999
 30
0.0
 40
1.0
 50
359.0
 51
90.0
  0
ARC
  5
B86
  8
DETAIL
  6
CONTINUOUS
 62
     5
 10
199.39999999999981
 20
-30.0
 30
0.0
 40
4.0
 50
180.0
 51
210.0
  0
LINE
  5
B87
  8
DETAIL
  6
CONTINUOUS
 62
     5
 10
189.0935299999999
 20
-32.0
 30
0.0
 11
189.0935299999999
 21
-34.0
 31
0.0
  0
ARC
  5
B88
  8
DETAIL
  6
CONTINUOUS
 62
     5
 10
199.39999999999981
 20
-30.0
 30
0.0
 40
2.0
 50
180.0
 51
270.0
  0
LINE
  5
B89
  8
DETAIL
  6
CONTINUOUS
 62
     5
 10
287.90670999999992
 20
-178.5
 30
0.0
 11
287.90670999999992
 21
-60.5
 31
0.0
  0
LINE
  5
B8A
  8
DETAIL
  6
CONTINUOUS
 62
     5
 10
358.90670999999992
 20
-186.74999999999949
 30
0.0
 11
358.90670999999992
 21
-41.25
 31
0.0
  0
LINE
  5
B8B
  8
DETAIL
  6
CONTINUOUS
 62
     5
 10
328.90670999999998
 20
-198.5
 30
0.0
 11
328.90670999999998
 21
-34.0
 31
0.0
  0
LINE
  5
B8C
  8
DETAIL
  6
CONTINUOUS
 62
     5
 10
388.90670999999992
 20
-176.0
 30
0.0
 11
388.90670999999992
 21
-52.0
 31
0.0
  0
LINE
  5
B8D
  8
DETAIL
  6
CONTINUOUS
 62
     5
 10
328.90670999999998
 20
-187.0
 30
0.0
 11
358.90670999999992
 21
-187.0
 31
0.0
  0
LINE
  5
B8E
  8
DETAIL
  6
CONTINUOUS
 62
     5
 10
273.6737399999999
 20
-195.89318
 30
0.0
 11
262.11991
 21
-219.96366
 31
0.0
  0
ARC
  5
B8F
  8
DETAIL
  6
CONTINUOUS
 62
     5
 10
257.61229999999989
 20
-217.80000000000001
 30
0.0
 40
5.0
 50
331.35753999999991
 51
334.358994
  0
LINE
  5
B90
  8
DETAIL
  6
CONTINUOUS
 62
     5
 10
287.90670999999992
 20
-198.5
 30
0.0
 11
328.90670999999998
 21
-198.5
 31
0.0
  0
LINE
  5
B91
  8
DETAIL
  6
CONTINUOUS
 62
     5
 10
287.90670999999992
 20
-198.5
 30
0.0
 11
287.90670999999992
 21
-178.5
 31
0.0
  0
LINE
  5
B92
  8
DETAIL
  6
CONTINUOUS
 62
     5
 10
274.97143999999992
 20
-193.5
 30
0.0
 11
289.45335499999982
 21
-193.5
 31
0.0
  0
ARC
  5
B93
  8
DETAIL
  6
CONTINUOUS
 62
     5
 10
270.96917000000002
 20
-194.59499
 30
0.0
 40
3.0
 50
334.358994
 51
359.0
  0
LINE
  5
B94
  8
DETAIL
  6
CONTINUOUS
 62
     5
 10
273.96872000000002
 20
-194.6473499999999
 30
0.0
 11
273.97158999999982
 21
-194.48255
 31
0.0
  0
ARC
  5
B95
  8
DETAIL
  6
CONTINUOUS
 62
     5
 10
274.97143999999992
 20
-194.5
 30
0.0
 40
1.0
 50
90.0
 51
179.00004200000001
  0
LINE
  5
B96
  8
DETAIL
  6
CONTINUOUS
 62
     5
 10
358.90670999999992
 20
-176.0
 30
0.0
 11
388.90670999999992
 21
-176.0
 31
0.0
  0
LINE
  5
B97
  8
DETAIL
  6
CONTINUOUS
 62
     5
 10
328.90670999999998
 20
-41.0
 30
0.0
 11
358.90670999999992
 21
-41.0
 31
0.0
  0
ARC
  5
B98
  8
DETAIL
  6
CONTINUOUS
 62
     5
 10
341.39999999999992
 20
-30.0
 30
0.0
 40
2.0
 50
270.0
 51
0.0
  0
LINE
  5
B99
  8
DETAIL
  6
CONTINUOUS
 62
     5
 10
287.90670999999992
 20
-60.5
 30
0.0
 11
287.90670999999992
 21
-34.0
 31
0.0
  0
LINE
  5
B9A
  8
DETAIL
  6
CONTINUOUS
 62
     5
 10
358.90670999999992
 20
-52.0
 30
0.0
 11
388.90670999999992
 21
-52.0
 31
0.0
  0
ARC
  5
B9B
  8
DETAIL
  6
CONTINUOUS
 62
     5
 10
341.39999999999992
 20
-30.0
 30
0.0
 40
4.0
 50
330.0
 51
0.0
  0
LINE
  5
B9C
  8
DETAIL
  6
CONTINUOUS
 62
     5
 10
351.76364999999998
 20
-32.0
 30
0.0
 11
351.76364999999998
 21
-34.0
 31
0.0
  0
LINE
  5
B9D
  8
DETAIL
  6
CONTINUOUS
 62
     5
 10
435.9067099999998
 20
-162.0
 30
0.0
 11
435.9067099999998
 21
-66.0
 31
0.0
  0
LINE
  5
B9E
  8
DETAIL
  6
CONTINUOUS
 62
     5
 10
434.90915000000001
 20
-163.06982999999991
 30
0.0
 11
435.9067099999998
 21
-162.0
 31
0.0
  0
LINE
  5
B9F
  8
DETAIL
  6
CONTINUOUS
 62
     5
 10
434.90915000000001
 20
-64.93016999999999
 30
0.0
 11
435.9067099999998
 21
-66.0
 31
0.0
  0
LINE
  5
BA0
  8
DETAIL
  6
CONTINUOUS
 62
     5
 10
210.40000000000001
 20
0.0
 30
0.0
 11
330.39999999999992
 21
0.0
 31
0.0
  0
CIRCLE
  5
BA1
  8
DETAIL
  6
CONTINUOUS
 62
     5
 10
216.28254000000001
 20
-12.89997
 30
0.0
 40
3.0
  0
LINE
  5
BA2
  8
DETAIL
  6
CONTINUOUS
 62
     5
 10
195.40000000000001
 20
-24.0
 30
0.0
 11
197.40000000000001
 21
-24.0
 31
0.0
  0
ARC
  5
BA3
  8
DETAIL
  6
CONTINUOUS
 62
     5
 10
210.40000000000001
 20
-10.0
 30
0.0
 40
10.0
 50
90.0
 51
180.0
  0
CIRCLE
  5
BA4
  8
DETAIL
  6
CONTINUOUS
 62
     5
 10
256.28253999999993
 20
-12.89997
 30
0.0
 40
3.0
  0
LINE
  5
BA5
  8
DETAIL
  6
CONTINUOUS
 62
     5
 10
343.39999999999992
 20
-24.0
 30
0.0
 11
345.39999999999992
 21
-24.0
 31
0.0
  0
CIRCLE
  5
BA6
  8
DETAIL
  6
CONTINUOUS
 62
     5
 10
286.28253999999993
 20
-12.89997
 30
0.0
 40
3.0
  0
CIRCLE
  5
BA7
  8
DETAIL
  6
CONTINUOUS
 62
     5
 10
326.28253999999998
 20
-12.89997
 30
0.0
 40
3.0
  0
ARC
  5
BA8
  8
DETAIL
  6
CONTINUOUS
 62
     5
 10
330.39999999999992
 20
-10.0
 30
0.0
 40
10.0
 50
0.0
 51
90.0
  0
LINE
  5
BA9
  8
OUTLINE
  6
CONTINUOUS
 62
     3
 10
219.88502
 20
-246.7999999999999
 30
0.0
 11
-219.88502
 21
-246.7999999999999
 31
0.0
  0
LINE
  5
BAA
  8
OUTLINE
  6
CONTINUOUS
 62
     3
 10
-257.61229999999989
 20
-222.80000000000001
 30
0.0
 11
-256.11329999999992
 21
-222.80000000000001
 31
0.0
  0
LINE
  5
BAB
  8
OUTLINE
  6
CONTINUOUS
 62
     3
 10
-210.40000000000001
 20
0.0
 30
0.0
 11
210.40000000000001
 21
0.0
 31
0.0
  0
LINE
  5
BAC
  8
OUTLINE
  6
CONTINUOUS
 62
     3
 10
-238.0
 20
-228.80000000000001
 30
0.0
 11
-257.0261799999999
 21
-228.80000000000001
 31
0.0
  0
LINE
  5
BAD
  8
OUTLINE
  6
CONTINUOUS
 62
     3
 10
-261.69429000000002
 20
-220.85035999999991
 30
0.0
 11
-273.6737399999999
 21
-195.89318
 31
0.0
  0
LINE
  5
BAE
  8
OUTLINE
  6
CONTINUOUS
 62
     3
 10
-257.0261799999999
 20
-228.80000000000001
 30
0.0
 11
-257.11315000000002
 21
-223.81746000000001
 31
0.0
  0
ARC
  5
BAF
  8
OUTLINE
  6
CONTINUOUS
 62
     3
 10
-256.11329999999992
 20
-223.7999999999999
 30
0.0
 40
1.0
 50
90.0
 51
180.99999799999981
  0
ARC
  5
BB0
  8
OUTLINE
  6
CONTINUOUS
 62
     3
 10
-257.61229999999989
 20
-217.80000000000001
 30
0.0
 40
5.0
 50
216.9857669999999
 51
270.0
  0
ARC
  5
BB1
  8
OUTLINE
  6
CONTINUOUS
 62
     3
 10
-257.61229999999989
 20
-217.80000000000001
 30
0.0
 40
5.0
 50
205.641006
 51
208.6424839999998
  0
ARC
  5
BB2
  8
OUTLINE
  6
CONTINUOUS
 62
     3
 10
-270.96917000000002
 20
-194.59499
 30
0.0
 40
3.0
 50
181.0
 51
205.641006
  0
LINE
  5
BB3
  8
OUTLINE
  6
CONTINUOUS
 62
     3
 10
-273.96870999999982
 20
-194.6473499999999
 30
0.0
 11
-273.97158999999982
 21
-194.48255
 31
0.0
  0
LINE
  5
BB4
  8
OUTLINE
  6
CONTINUOUS
 62
     3
 10
-286.017
 20
-193.5
 30
0.0
 11
-274.97143999999992
 21
-193.5
 31
0.0
  0
ARC
  5
BB5
  8
OUTLINE
  6
CONTINUOUS
 62
     3
 10
-274.97143999999992
 20
-194.5
 30
0.0
 40
1.0
 50
0.999957
 51
90.0
  0
ARC
  5
BB6
  8
OUTLINE
  6
CONTINUOUS
 62
     3
 10
-219.88502
 20
-236.80000000000001
 30
0.0
 40
10.0
 50
181.0
 51
270.0
  0
LINE
  5
BB7
  8
OUTLINE
  6
CONTINUOUS
 62
     3
 10
-229.99141999999989
 20
-230.79127999999989
 30
0.0
 11
-229.88348999999999
 21
-236.9745299999999
 31
0.0
  0
LINE
  5
BB8
  8
OUTLINE
  6
CONTINUOUS
 62
     3
 10
-238.0
 20
-228.80000000000001
 30
0.0
 11
-238.0
 21
-229.80000000000001
 31
0.0
  0
ARC
  5
BB9
  8
OUTLINE
  6
CONTINUOUS
 62
     3
 10
-230.49135000000001
 20
-230.80000000000001
 30
0.0
 40
0.5
 50
1.0
 51
90.0
  0
ARC
  5
BBA
  8
OUTLINE
  6
CONTINUOUS
 62
     3
 10
-237.5
 20
-229.80000000000001
 30
0.0
 40
0.5
 50
180.0
 51
270.0
  0
LINE
  5
BBB
  8
OUTLINE
  6
CONTINUOUS
 62
     3
 10
-285.0
 20
0.0
 30
0.0
 11
-210.40000000000001
 21
0.0
 31
0.0
  0
ARC
  5
BBC
  8
OUTLINE
  6
CONTINUOUS
 62
     3
 10
257.61229999999989
 20
-217.80000000000001
 30
0.0
 40
5.0
 50
270.0
 51
334.358994
  0
LINE
  5
BBD
  8
OUTLINE
  6
CONTINUOUS
 62
     3
 10
237.5
 20
-230.30000000000001
 30
0.0
 11
230.49135000000001
 21
-230.30000000000001
 31
0.0
  0
ARC
  5
BBE
  8
OUTLINE
  6
CONTINUOUS
 62
     3
 10
219.88502
 20
-236.80000000000001
 30
0.0
 40
10.0
 50
270.0
 51
359.0
  0
LINE
  5
BBF
  8
OUTLINE
  6
CONTINUOUS
 62
     3
 10
238.0
 20
-228.80000000000001
 30
0.0
 11
257.0261799999999
 21
-228.80000000000001
 31
0.0
  0
LINE
  5
BC0
  8
OUTLINE
  6
CONTINUOUS
 62
     3
 10
238.0
 20
-228.80000000000001
 30
0.0
 11
238.0
 21
-229.80000000000001
 31
0.0
  0
LINE
  5
BC1
  8
OUTLINE
  6
CONTINUOUS
 62
     3
 10
229.99143000000001
 20
-230.79127999999989
 30
0.0
 11
229.88349999999991
 21
-236.9745299999999
 31
0.0
  0
ARC
  5
BC2
  8
OUTLINE
  6
CONTINUOUS
 62
     3
 10
230.49135000000001
 20
-230.80000000000001
 30
0.0
 40
0.5
 50
90.0
 51
178.99999600000001
  0
ARC
  5
BC3
  8
OUTLINE
  6
CONTINUOUS
 62
     3
 10
237.5
 20
-229.80000000000001
 30
0.0
 40
0.5
 50
270.0
 51
0.0
  0
LINE
  5
BC4
  8
OUTLINE
  6
CONTINUOUS
 62
     3
 10
257.11315000000002
 20
-223.81746000000001
 30
0.0
 11
257.0261799999999
 21
-228.80000000000001
 31
0.0
  0
ARC
  5
BC5
  8
OUTLINE
  6
CONTINUOUS
 62
     3
 10
256.11331000000001
 20
-223.7999999999999
 30
0.0
 40
1.0
 50
359.0
 51
90.0
  0
LINE
  5
BC6
  8
OUTLINE
  6
CONTINUOUS
 62
     3
 10
273.6737399999999
 20
-195.89318
 30
0.0
 11
262.11991
 21
-219.96366
 31
0.0
  0
ARC
  5
BC7
  8
OUTLINE
  6
CONTINUOUS
 62
     3
 10
257.61229999999989
 20
-217.80000000000001
 30
0.0
 40
5.0
 50
331.35753999999991
 51
334.358994
  0
LINE
  5
BC8
  8
OUTLINE
  6
CONTINUOUS
 62
     3
 10
274.97143999999992
 20
-193.5
 30
0.0
 11
286.017
 21
-193.5
 31
0.0
  0
ARC
  5
BC9
  8
OUTLINE
  6
CONTINUOUS
 62
     3
 10
270.96917000000002
 20
-194.59499
 30
0.0
 40
3.0
 50
334.358994
 51
359.0
  0
LINE
  5
BCA
  8
OUTLINE
  6
CONTINUOUS
 62
     3
 10
273.96872000000002
 20
-194.6473499999999
 30
0.0
 11
273.97158999999982
 21
-194.48255
 31
0.0
  0
ARC
  5
BCB
  8
OUTLINE
  6
CONTINUOUS
 62
     3
 10
274.97143999999992
 20
-194.5
 30
0.0
 40
1.0
 50
90.0
 51
179.00004200000001
  0
LINE
  5
BCC
  8
OUTLINE
  6
CONTINUOUS
 62
     3
 10
210.40000000000001
 20
0.0
 30
0.0
 11
285.0
 21
0.0
 31
0.0
  0
LINE
  5
BCD
  8
OUTLINE
  6
CONTINUOUS
 62
     3
 10
256.11331000000001
 20
-222.80000000000001
 30
0.0
 11
257.61229999999989
 21
-222.80000000000001
 31
0.0
  0
LINE
  5
BCE
  8
OUTLINE
  6
CONTINUOUS
 62
     3
 10
-230.49135000000001
 20
-230.30000000000001
 30
0.0
 11
-237.5
 21
-230.30000000000001
 31
0.0
  0
TEXT
  5
BCF
  8
NOTE
  6
CONTINUOUS
 62
     4
 10
517.80394799999976
 20
-181.88510600000001
 30
0.0
 40
40.0
  1
EA OA1
 50
90.0
 41
0.9
  0
LINE
  5
BD0
  8
SIZE
  6
CONTINUOUS
 62
    30
 10
719.17314599999975
 20
-76.930169999999976
 30
0.0
 11
719.17314599999975
 21
-150.59129100000001
 31
0.0
  0
LINE
  5
BD1
  8
SIZE
  6
CONTINUOUS
 62
    30
 10
719.17314599999975
 20
-162.59129100000001
 30
0.0
 11
719.17314599999975
 21
-446.34474699999998
 31
0.0
  0
CIRCLE
  5
BD2
  8
SIZE
  6
CONTINUOUS
 62
    30
 10
719.17314599999975
 20
-64.93016999999999
 30
0.0
 40
6.0
  0
LINE
  5
BD3
  8
SIZE
  6
CONTINUOUS
 62
    30
 10
719.17314599999975
 20
-64.93016999999999
 30
0.0
 11
719.17314599999975
 21
-76.930169999999976
 31
0.0
  0
CIRCLE
  5
BD4
  8
SIZE
  6
CONTINUOUS
 62
    30
 10
719.17314599999975
 20
-162.59129100000001
 30
0.0
 40
6.0
  0
LINE
  5
BD5
  8
SIZE
  6
CONTINUOUS
 62
    30
 10
719.17314599999975
 20
-162.59129100000001
 30
0.0
 11
719.17314599999975
 21
-150.59129100000001
 31
0.0
  0
TEXT
  5
BD6
  8
SIZE
  6
CONTINUOUS
 62
    30
 10
694.17314599999975
 20
-432.86474742857138
 30
0.0
 40
64.0
  1
φ98
 50
90.0
 41
0.9
 72
     1
 11
694.17314599999975
 21
-345.91617600000001
 31
0.0
  0
LINE
  5
BD7
  8
SIZE
  6
CONTINUOUS
 62
    30
 10
408.90670999999992
 20
-52.0
 30
0.0
 11
859.17314600000009
 21
-52.0
 31
0.0
  0
LINE
  5
BD8
  8
SIZE
  6
CONTINUOUS
 62
    30
 10
408.90670999999992
 20
-176.0
 30
0.0
 11
859.17314600000009
 21
-176.0
 31
0.0
  0
LINE
  5
BD9
  8
SIZE
  6
CONTINUOUS
 62
    30
 10
839.17314599999986
 20
-64.0
 30
0.0
 11
839.17314599999986
 21
-164.0
 31
0.0
  0
LINE
  5
BDA
  8
SIZE
  6
CONTINUOUS
 62
    30
 10
839.17314599999986
 20
-176.0
 30
0.0
 11
839.17314599999986
 21
-483.46236899999991
 31
0.0
  0
CIRCLE
  5
BDB
  8
SIZE
  6
CONTINUOUS
 62
    30
 10
839.17314599999986
 20
-52.0
 30
0.0
 40
6.0
  0
LINE
  5
BDC
  8
SIZE
  6
CONTINUOUS
 62
    30
 10
839.17314599999986
 20
-52.0
 30
0.0
 11
839.17314599999986
 21
-64.0
 31
0.0
  0
CIRCLE
  5
BDD
  8
SIZE
  6
CONTINUOUS
 62
    30
 10
839.17314599999986
 20
-176.0
 30
0.0
 40
6.0
  0
LINE
  5
BDE
  8
SIZE
  6
CONTINUOUS
 62
    30
 10
839.17314599999986
 20
-176.0
 30
0.0
 11
839.17314599999986
 21
-164.0
 31
0.0
  0
TEXT
  5
BDF
  8
SIZE
  6
CONTINUOUS
 62
    30
 10
814.17314599999986
 20
-469.98236914285712
 30
0.0
 40
64.0
  1
φ124
 50
90.0
 41
0.9
 72
     1
 11
814.17314599999986
 21
-359.71951200000001
 31
0.0
  0
LINE
  5
BE0
  8
SIZE
  6
CONTINUOUS
 62
    30
 10
378.90670999999998
 20
-41.0
 30
0.0
 11
979.1731460000002
 21
-41.0
 31
0.0
  0
LINE
  5
BE1
  8
SIZE
  6
CONTINUOUS
 62
    30
 10
378.90670999999998
 20
-187.0
 30
0.0
 11
979.1731460000002
 21
-187.0
 31
0.0
  0
LINE
  5
BE2
  8
SIZE
  6
CONTINUOUS
 62
    30
 10
959.17314600000009
 20
-53.25
 30
0.0
 11
959.17314600000009
 21
-174.75
 31
0.0
  0
LINE
  5
BE3
  8
SIZE
  6
CONTINUOUS
 62
    30
 10
959.17314600000009
 20
-186.74999999999949
 30
0.0
 11
959.17314600000009
 21
-484.86051599999979
 31
0.0
  0
CIRCLE
  5
BE4
  8
SIZE
  6
CONTINUOUS
 62
    30
 10
959.17314600000009
 20
-41.25
 30
0.0
 40
6.0
  0
LINE
  5
BE5
  8
SIZE
  6
CONTINUOUS
 62
    30
 10
959.17314600000009
 20
-41.25
 30
0.0
 11
959.17314600000009
 21
-53.25
 31
0.0
  0
CIRCLE
  5
BE6
  8
SIZE
  6
CONTINUOUS
 62
    30
 10
959.17314600000009
 20
-186.74999999999949
 30
0.0
 40
6.0
  0
LINE
  5
BE7
  8
SIZE
  6
CONTINUOUS
 62
    30
 10
959.17314600000009
 20
-186.74999999999949
 30
0.0
 11
959.17314600000009
 21
-174.75
 31
0.0
  0
TEXT
  5
BE8
  8
SIZE
  6
CONTINUOUS
 62
    30
 10
934.17314600000009
 20
-471.38051599999989
 30
0.0
 40
64.0
  1
φ146
 50
90.0
 41
0.9
 72
     1
 11
934.17314600000009
 21
-363.86051600000002
 31
0.0
  0
LINE
  5
BE9
  8
SIZE
  6
CONTINUOUS
 62
    30
 10
344.60097999999999
 20
0.0
 30
0.0
 11
1099.1731460000001
 21
0.0
 31
0.0
  0
LINE
  5
BEA
  8
SIZE
  6
CONTINUOUS
 62
    30
 10
268.315225
 20
-222.80000000000001
 30
0.0
 11
1099.1731460000001
 21
-222.80000000000001
 31
0.0
  0
LINE
  5
BEB
  8
SIZE
  6
CONTINUOUS
 62
    30
 10
1079.1731460000001
 20
-12.0
 30
0.0
 11
1079.1731460000001
 21
-210.80000000000001
 31
0.0
  0
CIRCLE
  5
BEC
  8
SIZE
  6
CONTINUOUS
 62
    30
 10
1079.1731460000001
 20
0.0
 30
0.0
 40
6.0
  0
LINE
  5
BED
  8
SIZE
  6
CONTINUOUS
 62
    30
 10
1079.1731460000001
 20
0.0
 30
0.0
 11
1079.1731460000001
 21
-12.0
 31
0.0
  0
CIRCLE
  5
BEE
  8
SIZE
  6
CONTINUOUS
 62
    30
 10
1079.1731460000001
 20
-222.80000000000001
 30
0.0
 40
6.0
  0
LINE
  5
BEF
  8
SIZE
  6
CONTINUOUS
 62
    30
 10
1079.1731460000001
 20
-222.80000000000001
 30
0.0
 11
1079.1731460000001
 21
-210.80000000000001
 31
0.0
  0
TEXT
  5
BF0
  8
SIZE
  6
CONTINUOUS
 62
    30
 10
1054.1731460000001
 20
-188.05714285714279
 30
0.0
 40
64.0
  1
223
 50
90.0
 41
0.9
 72
     1
 11
1054.1731460000001
 21
-114.0
 31
0.0
  0
LINE
  5
BF1
  8
SIZE
  6
CONTINUOUS
 62
    30
 10
268.315225
 20
-222.80000000000001
 30
0.0
 11
619.17314599999975
 21
-222.80000000000001
 31
0.0
  0
LINE
  5
BF2
  8
SIZE
  6
CONTINUOUS
 62
    30
 10
239.88502
 20
-246.7999999999999
 30
0.0
 11
619.17314599999975
 21
-246.7999999999999
 31
0.0
  0
LINE
  5
BF3
  8
SIZE
  6
CONTINUOUS
 62
    30
 10
599.17314599999975
 20
-210.80000000000001
 30
0.0
 11
599.17314599999975
 21
-198.80000000000001
 31
0.0
  0
LINE
  5
BF4
  8
SIZE
  6
CONTINUOUS
 62
    30
 10
599.17314599999975
 20
-258.80000000000001
 30
0.0
 11
599.17314599999975
 21
-416.80000000000001
 31
0.0
  0
LINE
  5
BF5
  8
SIZE
  6
CONTINUOUS
 62
    30
 10
599.17314599999975
 20
-222.80000000000001
 30
0.0
 11
599.17314599999975
 21
-246.7999999999999
 31
0.0
  0
CIRCLE
  5
BF6
  8
SIZE
  6
CONTINUOUS
 62
    30
 10
599.17314599999975
 20
-222.80000000000001
 30
0.0
 40
6.0
  0
LINE
  5
BF7
  8
SIZE
  6
CONTINUOUS
 62
    30
 10
599.17314599999975
 20
-222.80000000000001
 30
0.0
 11
599.17314599999975
 21
-210.80000000000001
 31
0.0
  0
CIRCLE
  5
BF8
  8
SIZE
  6
CONTINUOUS
 62
    30
 10
599.17314599999975
 20
-246.7999999999999
 30
0.0
 40
6.0
  0
LINE
  5
BF9
  8
SIZE
  6
CONTINUOUS
 62
    30
 10
599.17314599999975
 20
-246.7999999999999
 30
0.0
 11
599.17314599999975
 21
-258.80000000000001
 31
0.0
  0
TEXT
  5
BFA
  8
SIZE
  6
CONTINUOUS
 62
    30
 10
574.17314599999975
 20
-391.80000000000001
 30
0.0
 40
64.0
  1
24
 50
90.0
 41
0.9
 72
     1
 11
574.17314599999975
 21
-343.80000000000001
 31
0.0
  0
LINE
  5
BFB
  8
SIZE
  6
CONTINUOUS
 62
    30
 10
423.9067099999998
 20
-403.04218600000002
 30
0.0
 11
296.90670999999992
 21
-403.04218600000002
 31
0.0
  0
CIRCLE
  5
BFC
  8
SIZE
  6
CONTINUOUS
 62
    30
 10
435.9067099999998
 20
-403.04218600000002
 30
0.0
 40
6.0
  0
LINE
  5
BFD
  8
SIZE
  6
CONTINUOUS
 62
    30
 10
435.9067099999998
 20
-403.04218600000002
 30
0.0
 11
423.9067099999998
 21
-403.04218600000002
 31
0.0
  0
CIRCLE
  5
BFE
  8
SIZE
  6
CONTINUOUS
 62
    30
 10
284.90670999999992
 20
-403.04218600000002
 30
0.0
 40
6.0
  0
LINE
  5
BFF
  8
SIZE
  6
CONTINUOUS
 62
    30
 10
284.90670999999992
 20
-403.04218600000002
 30
0.0
 11
296.90670999999992
 21
-403.04218600000002
 31
0.0
  0
TEXT
  5
C00
  8
SIZE
  6
CONTINUOUS
 62
    30
 10
304.17813857142852
 20
-378.04218600000002
 30
0.0
 40
64.0
  1
151
 41
0.9
 72
     1
 11
360.40670999999992
 21
-378.04218600000002
 31
0.0
  0
LINE
  5
C01
  8
SIZE
  6
CONTINUOUS
 62
    30
 10
-436.0
 20
-175.9853119667884
 30
0.0
 11
-436.0
 21
-423.04218599999979
 31
0.0
  0
LINE
  5
C02
  8
SIZE
  6
CONTINUOUS
 62
    30
 10
-424.0
 20
-403.04218600000002
 30
0.0
 11
-297.0
 21
-403.04218600000002
 31
0.0
  0
CIRCLE
  5
C03
  8
SIZE
  6
CONTINUOUS
 62
    30
 10
-436.0
 20
-403.04218600000002
 30
0.0
 40
6.0
  0
LINE
  5
C04
  8
SIZE
  6
CONTINUOUS
 62
    30
 10
-436.0
 20
-403.04218600000002
 30
0.0
 11
-424.0
 21
-403.04218600000002
 31
0.0
  0
CIRCLE
  5
C05
  8
SIZE
  6
CONTINUOUS
 62
    30
 10
-285.0
 20
-403.04218600000002
 30
0.0
 40
6.0
  0
LINE
  5
C06
  8
SIZE
  6
CONTINUOUS
 62
    30
 10
-285.0
 20
-403.04218600000002
 30
0.0
 11
-297.0
 21
-403.04218600000002
 31
0.0
  0
TEXT
  5
C07
  8
SIZE
  6
CONTINUOUS
 62
    30
 10
-416.72857142857129
 20
-378.04218600000002
 30
0.0
 40
64.0
  1
151
 41
0.9
 72
     1
 11
-360.49999999999989
 21
-378.04218600000002
 31
0.0
  0
LINE
  5
C08
  8
SIZE
  6
CONTINUOUS
 62
    30
 10
-273.0
 20
-403.04218600000002
 30
0.0
 11
272.90670999999992
 21
-403.04218600000002
 31
0.0
  0
CIRCLE
  5
C09
  8
SIZE
  6
CONTINUOUS
 62
    30
 10
-285.0
 20
-403.04218600000002
 30
0.0
 40
6.0
  0
LINE
  5
C0A
  8
SIZE
  6
CONTINUOUS
 62
    30
 10
-285.0
 20
-403.04218600000002
 30
0.0
 11
-273.0
 21
-403.04218600000002
 31
0.0
  0
CIRCLE
  5
C0B
  8
SIZE
  6
CONTINUOUS
 62
    30
 10
284.90670999999992
 20
-403.04218600000002
 30
0.0
 40
6.0
  0
LINE
  5
C0C
  8
SIZE
  6
CONTINUOUS
 62
    30
 10
284.90670999999992
 20
-403.04218600000002
 30
0.0
 11
272.90670999999992
 21
-403.04218600000002
 31
0.0
  0
TEXT
  5
C0D
  8
SIZE
  6
CONTINUOUS
 62
    30
 10
-74.103787857142848
 20
-378.04218600000002
 30
0.0
 40
64.0
  1
570
 41
0.9
 72
     1
 11
-0.046645
 21
-378.04218600000002
 31
0.0
  0
LINE
  5
C0E
  8
NOTE
  6
CONTINUOUS
 62
     4
 39
50.0
 10
309.0
 20
-50.968482999999999
 30
0.0
 11
309.0
 21
-15.85689
 31
0.0
  0
CIRCLE
  5
C0F
  8
FIX
  6
CONTINUOUS
 62
    11
 39
50.0
 10
309.0
 20
-32.0
 30
0.0
 40
2.0
  0
LINE
  5
C10
  8
NOTE
  6
CONTINUOUS
 62
     4
 39
50.0
 10
-309.0
 20
-50.968482999999999
 30
0.0
 11
-309.0
 21
-15.85689
 31
0.0
  0
CIRCLE
  5
C11
  8
FIX
  6
CONTINUOUS
 62
    11
 39
50.0
 10
-309.0
 20
-32.0
 30
0.0
 40
2.0
  0
LINE
  5
C12
  8
SIZE
  6
CONTINUOUS
 62
    30
 10
-309.0
 20
4.1431100000000001
 30
0.0
 11
-309.0
 21
222.10389499999999
 31
0.0
  0
LINE
  5
C13
  8
SIZE
  6
CONTINUOUS
 62
    30
 10
309.0
 20
4.1431100000000001
 30
0.0
 11
309.0
 21
222.10389499999999
 31
0.0
  0
LINE
  5
C14
  8
SIZE
  6
CONTINUOUS
 62
    30
 10
-297.0
 20
202.10389499999991
 30
0.0
 11
297.0
 21
202.10389499999991
 31
0.0
  0
CIRCLE
  5
C15
  8
SIZE
  6
CONTINUOUS
 62
    30
 10
-309.0
 20
202.10389499999991
 30
0.0
 40
6.0
  0
LINE
  5
C16
  8
SIZE
  6
CONTINUOUS
 62
    30
 10
-309.0
 20
202.10389499999991
 30
0.0
 11
-297.0
 21
202.10389499999991
 31
0.0
  0
CIRCLE
  5
C17
  8
SIZE
  6
CONTINUOUS
 62
    30
 10
309.0
 20
202.10389499999991
 30
0.0
 40
6.0
  0
LINE
  5
C18
  8
SIZE
  6
CONTINUOUS
 62
    30
 10
309.0
 20
202.10389499999991
 30
0.0
 11
297.0
 21
202.10389499999991
 31
0.0
  0
TEXT
  5
C19
  8
SIZE
  6
CONTINUOUS
 62
    30
 10
-261.11999999999989
 20
227.10389499999991
 30
0.0
 40
64.0
  1
618（天吊位置）
 41
0.9
 72
     1
 11
0.0
 21
227.10389499999991
 31
0.0
  0
LINE
  5
C1A
  8
SIZE
  6
CONTINUOUS
 62
    30
 10
-481.00003299999997
 20
-114.0
 30
0.0
 11
-637.12316399999975
 21
-114.0
 31
0.0
  0
LINE
  5
C1B
  8
SIZE
  6
CONTINUOUS
 62
    30
 10
-313.78793606057462
 20
0.0
 30
0.0
 11
-637.12316399999975
 21
0.0
 31
0.0
  0
LINE
  5
C1C
  8
SIZE
  6
CONTINUOUS
 62
    30
 10
-617.12316399999997
 20
-114.0
 30
0.0
 11
-617.12316399999997
 21
0.0
 31
0.0
  0
CIRCLE
  5
C1D
  8
SIZE
  6
CONTINUOUS
 62
    30
 10
-617.12316399999997
 20
-114.0
 30
0.0
 40
6.0
  0
CIRCLE
  5
C1E
  8
SIZE
  6
CONTINUOUS
 62
    30
 10
-617.12316399999997
 20
0.0
 30
0.0
 40
6.0
  0
TEXT
  5
C1F
  8
SIZE
  6
CONTINUOUS
 62
    30
 10
-642.12316399999997
 20
-121.4571428571428
 30
0.0
 40
64.0
  1
114
 50
90.0
 41
0.9
 72
     1
 11
-642.12316399999997
 21
-57.0
 31
0.0
  0
LINE
  5
C20
  8
SIZE
  6
CONTINUOUS
 62
    30
 10
-292.54664500000001
 20
-195.3068473566517
 30
0.0
 11
-292.54664500000001
 21
-543.04218600000002
 31
0.0
  0
LINE
  5
C21
  8
SIZE
  6
CONTINUOUS
 62
    30
 10
292.45335499999982
 20
-196.29455863866951
 30
0.0
 11
292.45335499999982
 21
-543.04218600000002
 31
0.0
  0
LINE
  5
C22
  8
SIZE
  6
CONTINUOUS
 62
    30
 10
-280.54664500000001
 20
-523.04218599999979
 30
0.0
 11
280.45335499999999
 21
-523.04218599999979
 31
0.0
  0
CIRCLE
  5
C23
  8
SIZE
  6
CONTINUOUS
 62
    30
 10
-292.54664500000001
 20
-523.04218599999979
 30
0.0
 40
6.0
  0
LINE
  5
C24
  8
SIZE
  6
CONTINUOUS
 62
    30
 10
-292.54664500000001
 20
-523.04218599999979
 30
0.0
 11
-280.54664500000001
 21
-523.04218599999979
 31
0.0
  0
CIRCLE
  5
C25
  8
SIZE
  6
CONTINUOUS
 62
    30
 10
292.45335499999982
 20
-523.04218599999979
 30
0.0
 40
6.0
  0
LINE
  5
C26
  8
SIZE
  6
CONTINUOUS
 62
    30
 10
292.45335499999982
 20
-523.04218599999979
 30
0.0
 11
280.45335499999999
 21
-523.04218599999979
 31
0.0
  0
TEXT
  5
C27
  8
SIZE
  6
CONTINUOUS
 62
    30
 10
-110.5837878571428
 20
-498.04218599999979
 30
0.0
 40
64.0
  1
□585
 41
0.9
 72
     1
 11
-0.046645
 21
-498.04218599999979
 31
0.0
  0
CIRCLE
  5
C28
  8
DETAIL
  6
PHANTOM
 62
     5
 10
-200.0
 20
-114.0
 30
0.0
 40
84.500000000000014
  0
LINE
  5
C29
  8
DETAIL
  6
PHANTOM
 62
     5
 10
-276.5
 20
-78.111279999999979
 30
0.0
 11
-276.5
 21
-45.0
 31
0.0
  0
LINE
  5
C2A
  8
DETAIL
  6
PHANTOM
 62
     5
 10
-274.5
 20
-43.0
 30
0.0
 11
-245.8175699999999
 21
-43.0
 31
0.0
  0
CIRCLE
  5
C2B
  8
DETAIL
  6
PHANTOM
 62
     5
 10
-267.0
 20
-52.0
 30
0.0
 40
2.5
  0
ARC
  5
C2C
  8
DETAIL
  6
PHANTOM
 62
     5
 10
-274.5
 20
-45.0
 30
0.0
 40
2.0
 50
90.0
 51
180.0
  0
LINE
  5
C2D
  8
DETAIL
  6
PHANTOM
 62
     5
 10
-276.5
 20
-183.0
 30
0.0
 11
-276.5
 21
-149.88872000000001
 31
0.0
  0
LINE
  5
C2E
  8
DETAIL
  6
PHANTOM
 62
     5
 10
-262.00000182916699
 20
-75.464305206947841
 30
0.0
 11
-261.99999838161142
 21
-152.53570033981691
 31
0.0
  0
LINE
  5
C2F
  8
DETAIL
  6
PHANTOM
 62
     5
 10
-274.5
 20
-185.0
 30
0.0
 11
-245.8175699999999
 21
-185.0
 31
0.0
  0
CIRCLE
  5
C30
  8
DETAIL
  6
PHANTOM
 62
     5
 10
-267.0
 20
-176.0
 30
0.0
 40
2.5
  0
ARC
  5
C31
  8
DETAIL
  6
PHANTOM
 62
     5
 10
-274.5
 20
-183.0
 30
0.0
 40
2.0
 50
180.0
 51
270.0
  0
LINE
  5
C32
  8
DETAIL
  6
PHANTOM
 62
     5
 10
-123.5
 20
-45.0
 30
0.0
 11
-123.5
 21
-78.111279999999979
 31
0.0
  0
LINE
  5
C33
  8
DETAIL
  6
PHANTOM
 62
     5
 10
-154.18243000000001
 20
-43.0
 30
0.0
 11
-125.5
 21
-43.0
 31
0.0
  0
CIRCLE
  5
C34
  8
DETAIL
  6
PHANTOM
 62
     5
 10
-133.0
 20
-52.0
 30
0.0
 40
2.5
  0
ARC
  5
C35
  8
DETAIL
  6
PHANTOM
 62
     5
 10
-125.5
 20
-45.0
 30
0.0
 40
2.0
 50
0.0
 51
90.0
  0
LINE
  5
C36
  8
DETAIL
  6
PHANTOM
 62
     5
 10
-123.5
 20
-149.88872000000001
 30
0.0
 11
-123.5
 21
-183.0
 31
0.0
  0
LINE
  5
C37
  8
DETAIL
  6
PHANTOM
 62
     5
 10
-137.99999813785371
 20
-75.464305260007805
 30
0.0
 11
-138.00000175683491
 21
-152.53570056256299
 31
0.0
  0
LINE
  5
C38
  8
DETAIL
  6
PHANTOM
 62
     5
 10
-154.18243000000001
 20
-185.0
 30
0.0
 11
-125.5
 21
-185.0
 31
0.0
  0
CIRCLE
  5
C39
  8
DETAIL
  6
PHANTOM
 62
     5
 10
-133.0
 20
-176.0
 30
0.0
 40
2.5
  0
ARC
  5
C3A
  8
DETAIL
  6
PHANTOM
 62
     5
 10
-125.5
 20
-183.0
 30
0.0
 40
2.0
 50
270.0
 51
0.0
  0
CIRCLE
  5
C3B
  8
DETAIL
  6
PHANTOM
 62
     5
 10
200.0
 20
-114.0
 30
0.0
 40
84.500000000000014
  0
LINE
  5
C3C
  8
DETAIL
  6
PHANTOM
 62
     5
 10
276.5
 20
-78.111279999999979
 30
0.0
 11
276.5
 21
-45.0
 31
0.0
  0
LINE
  5
C3D
  8
DETAIL
  6
PHANTOM
 62
     5
 10
274.5
 20
-43.0
 30
0.0
 11
245.8175699999999
 21
-43.0
 31
0.0
  0
CIRCLE
  5
C3E
  8
DETAIL
  6
PHANTOM
 62
     5
 10
267.0
 20
-52.0
 30
0.0
 40
2.5
  0
ARC
  5
C3F
  8
DETAIL
  6
PHANTOM
 62
     5
 10
274.5
 20
-45.0
 30
0.0
 40
2.0
 50
0.0
 51
90.0
  0
LINE
  5
C40
  8
DETAIL
  6
PHANTOM
 62
     5
 10
276.5
 20
-183.0
 30
0.0
 11
276.5
 21
-149.88872000000001
 31
0.0
  0
LINE
  5
C41
  8
DETAIL
  6
PHANTOM
 62
     5
 10
262.00000174267609
 20
-75.464305067792736
 30
0.0
 11
261.99999831317041
 21
-152.5357004499314
 31
0.0
  0
LINE
  5
C42
  8
DETAIL
  6
PHANTOM
 62
     5
 10
274.5
 20
-185.0
 30
0.0
 11
245.8175699999999
 21
-185.0
 31
0.0
  0
CIRCLE
  5
C43
  8
DETAIL
  6
PHANTOM
 62
     5
 10
267.0
 20
-176.0
 30
0.0
 40
2.5
  0
ARC
  5
C44
  8
DETAIL
  6
PHANTOM
 62
     5
 10
274.5
 20
-183.0
 30
0.0
 40
2.0
 50
270.0
 51
0.0
  0
LINE
  5
C45
  8
DETAIL
  6
PHANTOM
 62
     5
 10
123.5
 20
-45.0
 30
0.0
 11
123.5
 21
-78.111279999999979
 31
0.0
  0
LINE
  5
C46
  8
DETAIL
  6
PHANTOM
 62
     5
 10
154.18243000000001
 20
-43.0
 30
0.0
 11
125.5
 21
-43.0
 31
0.0
  0
CIRCLE
  5
C47
  8
DETAIL
  6
PHANTOM
 62
     5
 10
133.0
 20
-52.0
 30
0.0
 40
2.5
  0
ARC
  5
C48
  8
DETAIL
  6
PHANTOM
 62
     5
 10
125.5
 20
-45.0
 30
0.0
 40
2.0
 50
90.0
 51
180.0
  0
LINE
  5
C49
  8
DETAIL
  6
PHANTOM
 62
     5
 10
123.5
 20
-149.88872000000001
 30
0.0
 11
123.5
 21
-183.0
 31
0.0
  0
LINE
  5
C4A
  8
DETAIL
  6
PHANTOM
 62
     5
 10
137.99999821174771
 20
-75.464305141119965
 30
0.0
 11
138.0000016233912
 21
-152.5357003478658
 31
0.0
  0
LINE
  5
C4B
  8
DETAIL
  6
PHANTOM
 62
     5
 10
154.18243000000001
 20
-185.0
 30
0.0
 11
125.5
 21
-185.0
 31
0.0
  0
CIRCLE
  5
C4C
  8
DETAIL
  6
PHANTOM
 62
     5
 10
133.0
 20
-176.0
 30
0.0
 40
2.5
  0
ARC
  5
C4D
  8
DETAIL
  6
PHANTOM
 62
     5
 10
125.5
 20
-183.0
 30
0.0
 40
2.0
 50
180.0
 51
270.0
  0
LINE
  5
C4E
  8
DETAIL
  6
CONTINUOUS
 62
     5
 10
245.033321
 20
-185.5
 30
0.0
 11
291.55335500000001
 21
-185.5
 31
0.0
  0
LINE
  5
C4F
  8
DETAIL
  6
CONTINUOUS
 62
     5
 10
-154.966679
 20
-185.5
 30
0.0
 11
-75.570280000000025
 21
-185.5
 31
0.0
  0
LINE
  5
C50
  8
BASIS
  6
DASHDOT
 62
     6
 39
50.0
 10
200.0
 20
-211.149856
 30
0.0
 11
200.0
 21
-12.441608
 31
0.0
  0
LINE
  5
C51
  8
BASIS
  6
DASHDOT
 62
     6
 39
50.0
 10
-200.0
 20
-211.149856
 30
0.0
 11
-200.0
 21
-12.441608
 31
0.0
  0
LINE
  5
C52
  8
SIZE
  6
CONTINUOUS
 62
    30
 10
-200.0
 20
9.1388079999999992
 30
0.0
 11
-200.0
 21
102.1038949999997
 31
0.0
  0
LINE
  5
C53
  8
SIZE
  6
CONTINUOUS
 62
    30
 10
200.0
 20
2.7711209999999991
 30
0.0
 11
200.0
 21
102.1038949999997
 31
0.0
  0
LINE
  5
C54
  8
SIZE
  6
CONTINUOUS
 62
    30
 10
-188.0
 20
82.10389499999998
 30
0.0
 11
188.0
 21
82.10389499999998
 31
0.0
  0
CIRCLE
  5
C55
  8
SIZE
  6
CONTINUOUS
 62
    30
 10
-200.0
 20
82.10389499999998
 30
0.0
 40
6.0
  0
LINE
  5
C56
  8
SIZE
  6
CONTINUOUS
 62
    30
 10
-200.0
 20
82.10389499999998
 30
0.0
 11
-188.0
 21
82.10389499999998
 31
0.0
  0
CIRCLE
  5
C57
  8
SIZE
  6
CONTINUOUS
 62
    30
 10
200.0
 20
82.10389499999998
 30
0.0
 40
6.0
  0
LINE
  5
C58
  8
SIZE
  6
CONTINUOUS
 62
    30
 10
200.0
 20
82.10389499999998
 30
0.0
 11
188.0
 21
82.10389499999998
 31
0.0
  0
TEXT
  5
C59
  8
SIZE
  6
CONTINUOUS
 62
    30
 10
-74.05714285714285
 20
107.1038949999997
 30
0.0
 40
64.0
  1
400
 41
0.9
 72
     1
 11
0.0
 21
107.1038949999997
 31
0.0
  0
TEXT
  5
C5A
  8
NOTE
  6
CONTINUOUS
 62
     4
 10
157.379141
 20
-132.85056299999991
 30
0.0
 40
40.0
  1
OA2
 41
0.9
  0
TEXT
  5
C5B
  8
NOTE
  6
CONTINUOUS
 62
     4
 10
-245.06827499999989
 20
-132.85056299999991
 30
0.0
 40
40.0
  1
RA2
 41
0.9
  0
TEXT
  5
C5C
  8
ETC
  6
CONTINUOUS
 62
    61
 10
583.83643419727559
 20
435.95562927844918
 30
0.0
 40
64.0
  1
VL-15ZM3-R_4
 41
0.9
  0
TEXT
  5
C5D
  8
ETC
  6
CONTINUOUS
 62
    61
 10
716.13173481633498
 20
269.97892580013013
 30
0.0
 40
50.0
  1
VL-15ZM3-R
 41
0.9
  0
TEXT
  5
C5E
  8
ETC
  6
CONTINUOUS
 62
    61
 10
579.65044019727566
 20
336.00679839664622
 30
0.0
 40
64.0
  1
換気扇
 41
0.9
  0
LINE
  5
C5F
  8
SIZE
  6
CONTINUOUS
 62
    30
 39
50.0
 10
456.20835432727188
 20
-65.0
 30
0.0
 11
740.2942436010934
 21
-65.0
 31
0.0
  0
LINE
  5
C60
  8
SIZE
  6
CONTINUOUS
 62
    30
 39
50.0
 10
456.20835432727188
 20
-163.0
 30
0.0
 11
741.77642716364153
 21
-163.0
 31
0.0
  0
CIRCLE
  5
C61
  8
DETAIL
  6
PHANTOM
 62
     5
 39
50.0
 10
200.0
 20
-114.0
 30
0.0
 40
49.0
  0
CIRCLE
  5
C62
  8
DETAIL
  6
PHANTOM
 62
     5
 39
50.0
 10
200.0
 20
-114.0
 30
0.0
 40
62.0
  0
ARC
  5
C63
  8
DETAIL
  6
PHANTOM
 62
     5
 39
50.0
 10
200.0
 20
-114.0
 30
0.0
 40
73.0
 50
211.86275198236891
 51
328.13724792330959
  0
CIRCLE
  5
C64
  8
DETAIL
  6
PHANTOM
 62
     5
 39
50.0
 10
-200.0
 20
-113.9999999999999
 30
0.0
 40
49.0
  0
CIRCLE
  5
C65
  8
DETAIL
  6
PHANTOM
 62
     5
 39
50.0
 10
-200.0
 20
-113.9999999999999
 30
0.0
 40
62.0
  0
ARC
  5
C66
  8
DETAIL
  6
PHANTOM
 62
     5
 39
50.0
 10
-200.0
 20
-114.0
 30
0.0
 40
73.0
 50
31.86274679999006
 51
148.13725315097579
  0
ARC
  5
C67
  8
DETAIL
  6
PHANTOM
 62
     5
 39
50.0
 10
200.0
 20
-114.0
 30
0.0
 40
73.0
 50
31.862746977620951
 51
148.13725309014259
  0
ARC
  5
C68
  8
DETAIL
  6
PHANTOM
 62
     5
 39
50.0
 10
-200.0
 20
-114.0
 30
0.0
 40
73.0
 50
211.8627519749308
 51
328.1372478192236
  0
LINE
  5
C69
  8
DETAIL
  6
CONTINUOUS
 62
     5
 39
50.0
 10
285.0
 20
-185.5
 30
0.0
 11
285.0
 21
-34.0
 31
0.0
  0
LINE
  5
C6A
  8
DETAIL
  6
CONTINUOUS
 62
     5
 39
50.0
 10
-285.0
 20
-185.5
 30
0.0
 11
-285.0
 21
-34.0
 31
0.0
  0
LINE
  5
C6B
  8
DETAIL
  6
CONTINUOUS
 62
     5
 39
50.0
 10
-292.5466449999999
 20
-190.5
 30
0.0
 11
-292.5466449999999
 21
-186.39999999999981
 31
0.0
  0
LINE
  5
C6C
  8
DETAIL
  6
CONTINUOUS
 62
     5
 39
50.0
 10
292.45335499999982
 20
-190.5
 30
0.0
 11
292.45335499999982
 21
-186.40000000000001
 31
0.0
  0
ARC
  5
C6D
  8
DETAIL
  6
CONTINUOUS
 62
     5
 39
50.0
 10
289.45335499999982
 20
-190.5
 30
0.0
 40
3.0
 50
270.0
 51
0.0
  0
ARC
  5
C6E
  8
DETAIL
  6
CONTINUOUS
 62
     5
 10
-289.54664499999973
 20
-190.5
 30
0.0
 40
3.0
 50
180.0
 51
270.0
  0
ARC
  5
C6F
  8
DETAIL
  6
CONTINUOUS
 62
     5
 10
-291.64664499999992
 20
-186.39999999999981
 30
0.0
 40
0.9
 50
90.0
 51
180.0000000000002
  0
ARC
  5
C70
  8
DETAIL
  6
CONTINUOUS
 62
     5
 39
50.0
 10
291.55335500000001
 20
-186.40000000000001
 30
0.0
 40
0.9
 50
0.0
 51
90.0
  0
LINE
  5
C71
  8
OUTLINE
  6
CONTINUOUS
 62
     3
 39
50.0
 10
274.97143999999992
 20
-193.4999999999998
 30
0.0
 11
289.45335499999982
 21
-193.4999999999998
 31
0.0
  0
LINE
  5
C72
  8
OUTLINE
  6
CONTINUOUS
 62
     3
 39
50.0
 10
292.45335499999982
 20
-190.49999999999989
 30
0.0
 11
292.45335499999982
 21
-186.40000000000001
 31
0.0
  0
LINE
  5
C73
  8
OUTLINE
  6
CONTINUOUS
 62
     3
 39
50.0
 10
285.0
 20
-185.5
 30
0.0
 11
285.0
 21
0.0
 31
0.0
  0
LINE
  5
C74
  8
OUTLINE
  6
CONTINUOUS
 62
     3
 39
50.0
 10
285.0
 20
-185.5
 30
0.0
 11
291.55335500000001
 21
-185.5
 31
0.0
  0
LINE
  5
C75
  8
OUTLINE
  6
CONTINUOUS
 62
     3
 39
50.0
 10
291.55335500000001
 20
-185.5
 30
0.0
 11
292.45335499999982
 21
-185.5
 31
0.0
  0
LINE
  5
C76
  8
OUTLINE
  6
CONTINUOUS
 62
     3
 39
50.0
 10
-285.0
 20
-185.49999999999949
 30
0.0
 11
-285.0
 21
0.0
 31
0.0
  0
LINE
  5
C77
  8
OUTLINE
  6
CONTINUOUS
 62
     3
 39
50.0
 10
-285.0
 20
-185.5
 30
0.0
 11
-291.64664500000009
 21
-185.5
 31
0.0
  0
LINE
  5
C78
  8
OUTLINE
  6
CONTINUOUS
 62
     3
 39
50.0
 10
-292.5466449999999
 20
-190.5
 30
0.0
 11
-292.54664500000001
 21
-186.40000000000001
 31
0.0
  0
LINE
  5
C79
  8
OUTLINE
  6
CONTINUOUS
 62
     3
 39
50.0
 10
-274.97143999999992
 20
-193.4999999999998
 30
0.0
 11
-289.54664499999973
 21
-193.4999999999998
 31
0.0
  0
ARC
  5
C7A
  8
OUTLINE
  6
CONTINUOUS
 62
     3
 39
50.0
 10
-291.64664500000009
 20
-186.40000000000001
 30
0.0
 40
0.9
 50
90.0
 51
180.0
  0
ARC
  5
C7B
  8
OUTLINE
  6
CONTINUOUS
 62
     3
 39
50.0
 10
291.55335500000001
 20
-186.40000000000001
 30
0.0
 40
0.9
 50
0.0
 51
90.0
  0
ARC
  5
C7C
  8
OUTLINE
  6
CONTINUOUS
 62
     3
 39
50.0
 10
289.45335499999982
 20
-190.49999999999989
 30
0.0
 40
3.0
 50
270.0
 51
0.0
  0
ARC
  5
C7D
  8
OUTLINE
  6
CONTINUOUS
 62
     3
 39
50.0
 10
-289.54664499999973
 20
-190.49999999999989
 30
0.0
 40
3.0
 50
180.00000000000031
 51
270.0
  0
LINE
  5
C7E
  8
SIZE
  6
CONTINUOUS
 62
    30
 39
50.0
 10
-285.0
 20
-191.29483320915159
 30
0.0
 11
-285.0
 21
-421.12225120680063
 31
0.0
  0
LINE
  5
C7F
  8
SIZE
  6
CONTINUOUS
 62
    30
 39
50.0
 10
285.0
 20
-191.78868885016101
 30
0.0
 11
285.0
 21
-421.36917721284681
 31
0.0
  0
LINE
  5
C80
  8
SIZE
  6
CONTINUOUS
 62
    30
 39
50.0
 10
436.0
 20
-176.0
 30
0.0
 11
436.0
 21
-421.36917721284681
 31
0.0
  0
LINE
  5
C81
  8
DETAIL
  6
CONTINUOUS
 62
     5
 39
50.0
 10
-90.0
 20
-185.5
 30
0.0
 11
-89.999999999999986
 21
-239.0
 31
0.0
  0
LINE
  5
C82
  8
DETAIL
  6
CONTINUOUS
 62
     5
 39
50.0
 10
-89.999999999999986
 20
-239.0
 30
0.0
 11
89.999999999999986
 21
-239.0
 31
0.0
  0
LINE
  5
C83
  8
DETAIL
  6
CONTINUOUS
 62
     5
 39
50.0
 10
89.999999999999986
 20
-239.0
 30
0.0
 11
89.999999999999986
 21
-185.5
 31
0.0
  0
LINE
  5
C84
  8
DETAIL
  6
CONTINUOUS
 62
     5
 10
89.999999999999986
 20
-222.80000000000001
 30
0.0
 11
257.61229999999989
 21
-222.80000000000001
 31
0.0
  0
LINE
  5
C85
  8
DETAIL
  6
CONTINUOUS
 62
     5
 39
50.0
 10
-72.5
 20
-221.0
 30
0.0
 11
72.500000000000014
 21
-221.0
 31
0.0
  0
LINE
  5
C86
  8
DETAIL
  6
CONTINUOUS
 62
     5
 39
50.0
 10
-72.5
 20
-239.0
 30
0.0
 11
-72.5
 21
-221.0
 31
0.0
  0
LINE
  5
C87
  8
DETAIL
  6
CONTINUOUS
 62
     5
 39
50.0
 10
72.500000000000014
 20
-221.0
 30
0.0
 11
72.500000000000014
 21
-239.0
 31
0.0
  0
LINE
  5
C88
  8
NOTE
  6
CONTINUOUS
 62
     4
 39
50.0
 10
-14.99999999999998
 20
-230.0
 30
0.0
 11
15.0
 21
-230.0
 31
0.0
  0
LINE
  5
C89
  8
NOTE
  6
CONTINUOUS
 62
     4
 39
50.0
 10
0.0000000000000071
 20
-245.0
 30
0.0
 11
0.0000000000000071
 21
-215.0
 31
0.0
  0
TEXT
  5
C8A
  8
NOTE
  6
CONTINUOUS
 10
-487.92979022390671
 20
-516.8859119114087
 30
0.0
 40
64.0
  1
EL
 41
0.9
  0
LINE
  5
C8B
  8
NOTE
  6
CONTINUOUS
 62
     4
 10
-31.76920077343107
 20
-254.30468848221309
 30
0.0
 11
-393.06980182606623
 21
-530.71386287871155
 31
0.0
1001
ACAD
1000
DSTYLE
1002
{
1070
    41
1040
40.0
1070
    42
1040
20.0
1070
    43
1040
200.0
1070
    44
1040
20.0
1070
    73
1070
     0
1070
    74
1070
     0
1070
    77
1070
     0
1070
    78
1070
     8
1070
   140
1040
64.0
1070
   147
1040
25.0
1070
   172
1070
     1
1070
   174
1070
     1
1070
   176
1070
   256
1070
   177
1070
   256
1070
   178
1070
   256
1070
   275
1070
     0
1070
   279
1070
     0
1070
   284
1070
     0
1070
   285
1070
     0
1070
   286
1070
     0
1070
   341
1005
86C
1070
   342
1005
869
1070
   343
1005
869
1070
   344
1005
6E1
1002
}
  0
LINE
  5
C8C
  8
NOTE
  6
CONTINUOUS
 62
     4
 10
-393.06980182606623
 20
-530.71386287871155
 30
0.0
 11
-499.78728606346237
 21
-530.71386287871155
 31
0.0
1001
ACAD
1000
DSTYLE
1002
{
1070
    41
1040
40.0
1070
    42
1040
20.0
1070
    43
1040
200.0
1070
    44
1040
20.0
1070
    73
1070
     0
1070
    74
1070
     0
1070
    77
1070
     0
1070
    78
1070
     8
1070
   140
1040
64.0
1070
   147
1040
25.0
1070
   172
1070
     1
1070
   174
1070
     1
1070
   176
1070
   256
1070
   177
1070
   256
1070
   178
1070
   256
1070
   275
1070
     0
1070
   279
1070
     0
1070
   284
1070
     0
1070
   285
1070
     0
1070
   286
1070
     0
1070
   341
1005
86C
1070
   342
1005
869
1070
   343
1005
869
1070
   344
1005
6E1
1002
}
  0
LINE
  5
C8D
  8
NOTE
  6
CONTINUOUS
 62
     4
 10
-38.281622365442402
 20
-245.79215686802479
 30
0.0
 11
0.0000000000000071
 21
-230.0
 31
0.0
  0
LINE
  5
C8E
  8
NOTE
  6
CONTINUOUS
 62
     4
 10
0.0000000000000071
 20
-230.0
 30
0.0
 11
-25.256779181419731
 21
-262.8172200964014
 31
0.0
  0
LINE
  5
C8F
  8
NOTE
  6
CONTINUOUS
 62
     4
 10
0.0000000000000071
 20
-230.0
 30
0.0
 11
-31.76920077343107
 21
-254.30468848221309
 31
0.0
  0
ENDSEC
  0
EOF
