  0
SECTION
  2
HEADER
  9
$ACADVER
  1
AC1009
  9
$DWGCODEPAGE
  3
dos932
  9
$INSBASE
 10
0.0
 20
0.0
 30
0.0
  9
$EXTMIN
 10
-812.11572784235875
 20
-552.06250166482369
 30
0.0
  9
$EXTMAX
 10
1320.1881848713469
 20
572.23460391359708
 30
0.0
  9
$LIMMIN
 10
-2970.0
 20
-2100.0
  9
$LIMMAX
 10
2970.0
 20
2100.0
  9
$ORTHOMODE
 70
     1
  9
$REGENMODE
 70
     1
  9
$FILLMODE
 70
     1
  9
$QTEXTMODE
 70
     0
  9
$MIRRTEXT
 70
     0
  9
$LTSCALE
 40
20.0
  9
$ATTMODE
 70
     1
  9
$TEXTSIZE
 40
64.0
  9
$TRACEWID
 40
0.05
  9
$TEXTSTYLE
  7
STANDARD
  9
$CLAYER
  8
SIZE
  9
$CELTYPE
  6
CONTINUOUS
  9
$CECOLOR
 62
     7
  9
$DIMSCALE
 40
1.0
  9
$DIMASZ
 40
12.0
  9
$DIMEXO
 40
20.0
  9
$DIMDLI
 40
200.0
  9
$DIMRND
 40
0.0
  9
$DIMDLE
 40
0.0
  9
$DIMEXE
 40
20.0
  9
$DIMTP
 40
0.0
  9
$DIMTM
 40
0.0
  9
$DIMTXT
 40
64.0
  9
$DIMCEN
 40
0.09
  9
$DIMTSZ
 40
0.0
  9
$DIMTOL
 70
     0
  9
$DIMLIM
 70
     0
  9
$DIMTIH
 70
     0
  9
$DIMTOH
 70
     0
  9
$DIMSE1
 70
     0
  9
$DIMSE2
 70
     0
  9
$DIMTAD
 70
     1
  9
$DIMZIN
 70
     8
  9
$DIMBLK
  1

  9
$DIMASO
 70
     1
  9
$DIMSHO
 70
     0
  9
$DIMPOST
  1

  9
$DIMAPOST
  1

  9
$DIMALT
 70
     0
  9
$DIMALTD
 70
     2
  9
$DIMALTF
 40
25.399999999999999
  9
$DIMLFAC
 40
1.0
  9
$DIMTOFL
 70
     1
  9
$DIMTVP
 40
0.0
  9
$DIMTIX
 70
     1
  9
$DIMSOXD
 70
     0
  9
$DIMSAH
 70
     0
  9
$DIMBLK1
  1

  9
$DIMBLK2
  1

  9
$DIMSTYLE
  2
STANDARD
  9
$DIMCLRD
 70
     7
  9
$DIMCLRE
 70
     7
  9
$DIMCLRT
 70
     7
  9
$DIMTFAC
 40
1.0
  9
$DIMGAP
 40
25.0
  9
$LUNITS
 70
     2
  9
$LUPREC
 70
     4
  9
$SKETCHINC
 40
0.1
  9
$FILLETRAD
 40
3.0
  9
$AUNITS
 70
     1
  9
$AUPREC
 70
     3
  9
$MENU
  1
ACAD
  9
$ELEVATION
 40
0.0
  9
$PELEVATION
 40
0.0
  9
$THICKNESS
 40
0.0
  9
$LIMCHECK
 70
     0
  9
$CHAMFERA
 40
0.0
  9
$CHAMFERB
 40
0.0
  9
$SKPOLY
 70
     0
  9
$TDCREATE
 40
2453019.62301037
  9
$TDUPDATE
 40
2459019.506607812
  9
$TDINDWG
 40
1.7133608912
  9
$TDUSRTIMER
 40
1.7133608912
  9
$USRTIMER
 70
     1
  9
$ANGBASE
 50
0.0
  9
$ANGDIR
 70
     0
  9
$PDMODE
 70
     3
  9
$PDSIZE
 40
-2.0
  9
$PLINEWID
 40
0.0
  9
$SPLFRAME
 70
     0
  9
$SPLINETYPE
 70
     6
  9
$SPLINESEGS
 70
     8
  9
$SURFTAB1
 70
     6
  9
$SURFTAB2
 70
     6
  9
$SURFTYPE
 70
     6
  9
$SURFU
 70
     6
  9
$SURFV
 70
     6
  9
$UCSNAME
  2

  9
$UCSORG
 10
0.0
 20
0.0
 30
0.0
  9
$UCSXDIR
 10
1.0
 20
0.0
 30
0.0
  9
$UCSYDIR
 10
0.0
 20
1.0
 30
0.0
  9
$PUCSNAME
  2

  9
$PUCSORG
 10
0.0
 20
0.0
 30
0.0
  9
$PUCSXDIR
 10
1.0
 20
0.0
 30
0.0
  9
$PUCSYDIR
 10
0.0
 20
1.0
 30
0.0
  9
$USERI1
 70
     0
  9
$USERI2
 70
     0
  9
$USERI3
 70
     0
  9
$USERI4
 70
     0
  9
$USERI5
 70
     0
  9
$USERR1
 40
20.0
  9
$USERR2
 40
0.0
  9
$USERR3
 40
0.0
  9
$USERR4
 40
0.0
  9
$USERR5
 40
0.0
  9
$WORLDVIEW
 70
     1
  9
$SHADEDGE
 70
     3
  9
$SHADEDIF
 70
    70
  9
$TILEMODE
 70
     1
  9
$MAXACTVP
 70
    48
  9
$PINSBASE
 10
0.0
 20
0.0
 30
0.0
  9
$PLIMCHECK
 70
     0
  9
$PEXTMIN
 10
-100000000000000000000.0
 20
-100000000000000000000.0
 30
-100000000000000000000.0
  9
$PEXTMAX
 10
100000000000000000000.0
 20
100000000000000000000.0
 30
100000000000000000000.0
  9
$PLIMMIN
 10
0.0
 20
0.0
  9
$PLIMMAX
 10
12.0
 20
9.0
  9
$UNITMODE
 70
     0
  9
$VISRETAIN
 70
     0
  9
$PLINEGEN
 70
     0
  9
$PSLTSCALE
 70
     0
  9
$TREEDEPTH
 70
  3020
  9
$ATTDIA
 70
     0
  9
$ATTREQ
 70
     1
  9
$BLIPMODE
 70
     1
  9
$COORDS
 70
     1
  9
$DRAGMODE
 70
     2
  9
$OSMODE
 70
     0
  9
$HANDLING
 70
     0
  9
$HANDSEED
  5
F9F5
  0
ENDSEC
  0
SECTION
  2
TABLES
  0
TABLE
  2
LTYPE
 70
     4
  0
LTYPE
  2
CONTINUOUS
 70
     0
  3
実線
 72
    65
 73
     0
 40
0.0
  0
LTYPE
  2
DASHDOT
 70
     0
  3
____ _ ____ _ ____ _ ____ _ ____ _ ____ _ ____
 72
    65
 73
     4
 40
5.5
 49
4.0
 49
-0.6
 49
0.3
 49
-0.6
  0
LTYPE
  2
CENTER
 70
     0
  3
Center ____ _ ____ _ ____ _ ____ _ ____ _ ____
 72
    65
 73
     4
 40
1.0
 49
0.5
 49
-0.25
 49
0.0
 49
-0.25
  0
LTYPE
  2
PHANTOM
 70
     0
  3
Phantom ______  __  __  ______  __  __  ______
 72
    65
 73
     6
 40
2.5
 49
1.25
 49
-0.25
 49
0.25
 49
-0.25
 49
0.25
 49
-0.25
  0
ENDTAB
  0
TABLE
  2
LAYER
 70
    12
  0
LAYER
  2
0
 70
     0
 62
     7
  6
CONTINUOUS
  0
LAYER
  2
BASIS
 70
     0
 62
     6
  6
DASHDOT
  0
LAYER
  2
OUTLINE
 70
     0
 62
     3
  6
CONTINUOUS
  0
LAYER
  2
DETAIL
 70
     0
 62
     5
  6
CONTINUOUS
  0
LAYER
  2
SIZE
 70
     0
 62
    30
  6
CONTINUOUS
  0
LAYER
  2
ARRANGE
 70
     0
 62
     1
  6
CONTINUOUS
  0
LAYER
  2
ETC
 70
     0
 62
    61
  6
CONTINUOUS
  0
LAYER
  2
FIX
 70
     0
 62
    11
  6
CONTINUOUS
  0
LAYER
  2
NOTE
 70
     0
 62
     4
  6
CONTINUOUS
  0
LAYER
  2
DEFPOINTS
 70
    64
 62
     7
  6
CONTINUOUS
  0
LAYER
  2
SERVICESPACE
 70
    64
 62
     2
  6
DASHDOT
  0
LAYER
  2
SYMBOLLINE
 70
    64
 62
    15
  6
CONTINUOUS
  0
ENDTAB
  0
TABLE
  2
STYLE
 70
     1
  0
STYLE
  2
STANDARD
 70
     0
 40
64.0
 41
0.9
 50
0.0
 71
     0
 42
64.0
  3
SIMPLEX.shx
  4
BIGFONT.shx
  0
ENDTAB
  0
TABLE
  2
APPID
 70
    19
  0
APPID
  2
ACAD
 70
     0
  0
APPID
  2
AUTOCAD_POSTSCRIPT_FIGURE
 70
     0
  0
APPID
  2
ACAD_EXEMPT_FROM_CAD_STANDARDS
 70
     0
  0
APPID
  2
ACAD_PSEXT
 70
     0
  0
APPID
  2
ACAUTHENVIRON
 70
     0
  0
APPID
  2
GENIUS_GENOENT_13
 70
     0
  0
APPID
  2
GENIUS_GENCFG_13
 70
     0
  0
APPID
  2
GENIUS_GENCFG0_13
 70
     0
  0
APPID
  2
GENIUS_GENCFG1_13
 70
     0
  0
APPID
  2
GENIUS_GENCFG2_13
 70
     0
  0
APPID
  2
GENIUS_GENCFG3_13
 70
     0
  0
APPID
  2
GENIUS_GENCFG4_13
 70
     0
  0
APPID
  2
GENIUS_GEVCFG0_13
 70
     0
  0
APPID
  2
CONTENTBLOCKICON
 70
     0
  0
APPID
  2
CONTENTBLOCKDESCRIPTION
 70
     0
  0
APPID
  2
ACAD_NAV_VCDISPLAY
 70
     0
  0
APPID
  2
ACAD_MLEADERVER
 70
     0
  0
APPID
  2
ACDBDYNAMICBLOCKTRUENAME
 70
     0
  0
APPID
  2
ACDBDYNAMICBLOCKGUID
 70
     0
  0
ENDTAB
  0
TABLE
  2
DIMSTYLE
 70
     1
  0
DIMSTYLE
  2
STANDARD
 70
     0
  3

  4

  5
_ORIGIN
  6

  7

 40
1.0
 41
12.0
 42
20.0
 43
200.0
 44
20.0
 45
0.0
 46
0.0
 47
0.0
 48
0.0
140
64.0
141
0.09
142
0.0
143
25.399999999999999
144
1.0
145
0.0
146
1.0
147
25.0
 71
     0
 72
     0
 73
     0
 74
     0
 75
     0
 76
     0
 77
     1
 78
     8
170
     0
171
     2
172
     1
173
     0
174
     1
175
     0
176
     7
177
     7
178
     7
  0
ENDTAB
  0
TABLE
  2
VIEW
 70
     1
  0
VIEW
  2
ALL
 70
     0
 40
4282.6198079999986
 10
0.0
 20
41.309904000000003
 41
5940.0
 11
0.0
 21
0.0
 31
1.0
 12
0.0
 22
0.0
 32
0.0
 42
50.0
 43
0.0
 44
0.0
 50
0.0
 71
     0
  0
ENDTAB
  0
TABLE
  2
UCS
 70
     0
  0
ENDTAB
  0
TABLE
  2
VPORT
 70
     1
  0
VPORT
  2
*ACTIVE
 70
     0
 10
0.0
 20
0.0
 11
1.0
 21
1.0
 12
228.17918279694629
 22
-8.1710717735941216
 13
0.0
 23
0.0
 14
1.0
 24
1.0
 15
0.0
 25
0.0
 16
0.0
 26
0.0
 36
1.0
 17
0.0
 27
0.0
 37
0.0
 40
1195.442212617002
 41
1.747787610619469
 42
50.0
 43
0.0
 44
0.0
 50
0.0
 51
0.0
 71
     0
 72
  1000
 73
     1
 74
     3
 75
     0
 76
     0
 77
     0
 78
     0
  0
ENDTAB
  0
ENDSEC
  0
SECTION
  2
BLOCKS
  0
BLOCK
  8
0
  2
_ORIGIN
 70
     0
 10
0.0
 20
0.0
 30
0.0
  3
_ORIGIN
  1
_ORIGIN
  0
CIRCLE
  8
0
  6
CONTINUOUS
 62
     7
 10
0.0
 20
0.0
 30
0.0
 40
0.5
  0
LINE
  8
0
  6
CONTINUOUS
 62
     7
 10
0.0
 20
0.0
 30
0.0
 11
-1.0
 21
0.0
 31
0.0
  0
ENDBLK
  8
0
  0
ENDSEC
  0
SECTION
  2
ENTITIES
  0
LINE
  8
BASIS
  6
CENTER
 62
     6
 10
0.0
 20
-240.753567
 30
0.0
 11
0.0
 21
50.62944600000003
 31
0.0
  0
TEXT
  8
NOTE
  6
CONTINUOUS
 62
     4
 10
176.6875170000001
 20
-139.72279199999991
 30
0.0
 40
40.0
  1
OA1
 41
0.9
  0
CIRCLE
  8
DETAIL
  6
CONTINUOUS
 62
     5
 10
-202.49999999999989
 20
-114.0
 30
0.0
 40
84.500000000000014
  0
LINE
  8
DETAIL
  6
CONTINUOUS
 62
     5
 10
-265.93310999999989
 20
-222.80000000000001
 30
0.0
 11
269.83418999999998
 21
-222.80000000000001
 31
0.0
  0
LINE
  8
DETAIL
  6
CONTINUOUS
 62
     5
 10
-271.19999999999982
 20
-13.0
 30
0.0
 11
271.19999999999982
 21
-13.0
 31
0.0
  0
LINE
  8
DETAIL
  6
CONTINUOUS
 62
     5
 10
-283.39999999999992
 20
0.0
 30
0.0
 11
283.39999999999992
 21
0.0
 31
0.0
  0
ARC
  8
DETAIL
  6
CONTINUOUS
 62
     5
 10
-291.71253000000002
 20
-186.20000999999991
 30
0.0
 40
0.9
 50
90.00000299999769
 51
180.99984599999891
  0
ARC
  8
DETAIL
  6
CONTINUOUS
 62
     5
 10
-291.71253000000002
 20
-186.20000999999991
 30
0.0
 40
0.9
 50
90.00000299999769
 51
180.99984599999891
  0
LINE
  8
DETAIL
  6
CONTINUOUS
 62
     5
 10
-231.68493000000001
 20
-193.30000000000001
 30
0.0
 11
-289.54064107971038
 21
-193.30000000000001
 31
0.0
  0
LINE
  8
DETAIL
  6
CONTINUOUS
 62
     5
 10
-285.0
 20
-199.2868999999998
 30
0.0
 11
-285.0
 21
-238.9999999999998
 31
0.0
  0
LINE
  8
DETAIL
  6
CONTINUOUS
 62
     5
 10
-292.61239999999998
 20
-186.21571
 30
0.0
 11
-292.57449000000008
 21
-188.38726
 31
0.0
  0
LINE
  8
DETAIL
  6
CONTINUOUS
 62
     5
 10
-292.61239999999998
 20
-186.21571
 30
0.0
 11
-292.5401840337172
 21
-190.35236475024101
 31
0.0
  0
LINE
  8
DETAIL
  6
CONTINUOUS
 62
     5
 10
-286.55943999999982
 20
-197.0597799999999
 30
0.0
 11
-270.0288700000001
 21
-220.66787999999991
 31
0.0
  0
ARC
  8
DETAIL
  6
CONTINUOUS
 62
     5
 10
-265.93310999999989
 20
-217.80000000000001
 30
0.0
 40
5.0
 50
214.9999999999971
 51
270.0
  0
LINE
  8
DETAIL
  6
CONTINUOUS
 62
     5
 10
-287.47165000000001
 20
-194.27931000000001
 30
0.0
 11
-287.48874000000001
 21
-193.30000000000001
 31
0.0
  0
ARC
  8
DETAIL
  6
CONTINUOUS
 62
     5
 10
-282.46368000000012
 20
-194.1919
 30
0.0
 40
5.0
 50
180.99999999999531
 51
214.9999999999971
  0
LINE
  8
DETAIL
  6
CONTINUOUS
 62
     5
 10
-239.1999999999999
 20
-222.80000000000001
 30
0.0
 11
-239.1999999999999
 21
-238.9999999999998
 31
0.0
  0
LINE
  8
DETAIL
  6
CONTINUOUS
 62
     5
 10
-272.0
 20
-43.0
 30
0.0
 11
-272.0
 21
-13.80000000000001
 31
0.0
  0
LINE
  8
DETAIL
  6
CONTINUOUS
 62
     5
 10
-287.0
 20
0.0
 30
0.0
 11
-287.0
 21
-30.0
 31
0.0
  0
LINE
  8
DETAIL
  6
CONTINUOUS
 62
     5
 10
-285.0
 20
0.0
 30
0.0
 11
-285.0
 21
-95.724339999999984
 31
0.0
  0
LINE
  8
DETAIL
  6
CONTINUOUS
 62
     5
 10
-289.0
 20
-34.0
 30
0.0
 11
-331.0
 21
-34.0
 31
0.0
  0
LINE
  8
DETAIL
  6
CONTINUOUS
 62
     5
 10
-302.49999999999989
 20
-32.0
 30
0.0
 11
-331.0
 21
-32.0
 31
0.0
  0
LINE
  8
DETAIL
  6
CONTINUOUS
 62
     5
 10
-331.0
 20
-32.0
 30
0.0
 11
-331.0
 21
-34.0
 31
0.0
  0
LINE
  8
DETAIL
  6
CONTINUOUS
 62
     5
 10
-247.84931000000009
 20
-185.30000000000001
 30
0.0
 11
-291.71253000000002
 21
-185.30000000000001
 31
0.0
  0
LINE
  8
DETAIL
  6
CONTINUOUS
 62
     5
 10
-277.0
 20
-185.0
 30
0.0
 11
-248.3175699999999
 21
-185.0
 31
0.0
  0
LINE
  8
DETAIL
  6
CONTINUOUS
 62
     5
 10
-285.0
 20
-132.27566999999999
 30
0.0
 11
-285.0
 21
-185.30000000000001
 31
0.0
  0
LINE
  8
DETAIL
  6
CONTINUOUS
 62
     5
 10
-279.0
 20
-149.88872000000001
 30
0.0
 11
-279.0
 21
-183.0
 31
0.0
  0
ARC
  8
DETAIL
  6
CONTINUOUS
 62
     5
 10
-277.0
 20
-183.0
 30
0.0
 40
2.0
 50
180.0
 51
270.0
  0
CIRCLE
  8
DETAIL
  6
CONTINUOUS
 62
     5
 10
-269.49999999999977
 20
-176.0
 30
0.0
 40
2.5
  0
LINE
  8
DETAIL
  6
CONTINUOUS
 62
     5
 10
-272.0
 20
-185.30000000000001
 30
0.0
 11
-272.0
 21
-185.0
 31
0.0
  0
LINE
  8
DETAIL
  6
CONTINUOUS
 62
     5
 10
-277.0
 20
-43.0
 30
0.0
 11
-248.3175699999999
 21
-43.0
 31
0.0
  0
LINE
  8
DETAIL
  6
CONTINUOUS
 62
     5
 10
-279.0
 20
-45.0
 30
0.0
 11
-279.0
 21
-78.111289999999997
 31
0.0
  0
ARC
  8
DETAIL
  6
CONTINUOUS
 62
     5
 10
-289.0
 20
-30.0
 30
0.0
 40
2.0
 50
270.0
 51
0.0
  0
ARC
  8
DETAIL
  6
CONTINUOUS
 62
     5
 10
-289.0
 20
-30.0
 30
0.0
 40
4.0
 50
270.0
 51
0.0
  0
LINE
  8
DETAIL
  6
CONTINUOUS
 62
     5
 10
-302.49999999999989
 20
-32.0
 30
0.0
 11
-292.0
 21
-32.0
 31
0.0
  0
ARC
  8
DETAIL
  6
CONTINUOUS
 62
     5
 10
-299.5
 20
-27.0
 30
0.0
 40
3.0
 50
90.0
 51
180.0
  0
ARC
  8
DETAIL
  6
CONTINUOUS
 62
     5
 10
-295.0
 20
-27.0
 30
0.0
 40
3.0
 50
0.0
 51
90.0
  0
LINE
  8
DETAIL
  6
CONTINUOUS
 62
     5
 10
-302.49999999999989
 20
-27.0
 30
0.0
 11
-302.49999999999989
 21
-34.0
 31
0.0
  0
LINE
  8
DETAIL
  6
CONTINUOUS
 62
     5
 10
-292.0
 20
-27.0
 30
0.0
 11
-292.0
 21
-34.0
 31
0.0
  0
LINE
  8
DETAIL
  6
CONTINUOUS
 62
     5
 10
-289.0
 20
-32.0
 30
0.0
 11
-292.0
 21
-32.0
 31
0.0
  0
LINE
  8
DETAIL
  6
CONTINUOUS
 62
     5
 10
-299.5
 20
-24.0
 30
0.0
 11
-295.0
 21
-24.0
 31
0.0
  0
LINE
  8
DETAIL
  6
CONTINUOUS
 62
     5
 10
-315.5
 20
-32.0
 30
0.0
 11
-315.5
 21
-34.0
 31
0.0
  0
ARC
  8
DETAIL
  6
CONTINUOUS
 62
     5
 10
-277.0
 20
-45.0
 30
0.0
 40
2.0
 50
90.0
 51
180.0
  0
CIRCLE
  8
DETAIL
  6
CONTINUOUS
 62
     5
 10
-269.49999999999977
 20
-52.0
 30
0.0
 40
2.5
  0
LINE
  8
DETAIL
  6
CONTINUOUS
 62
     5
 10
-285.0
 20
0.0
 30
0.0
 11
-287.0
 21
0.0
 31
0.0
  0
LINE
  8
DETAIL
  6
CONTINUOUS
 62
     5
 10
-283.39999999999992
 20
-0.8000000000000114
 30
0.0
 11
-283.39999999999992
 21
0.0
 31
0.0
  0
LINE
  8
DETAIL
  6
CONTINUOUS
 62
     5
 10
-283.39999999999992
 20
-2.3999999999999768
 30
0.0
 11
-272.0
 21
-13.80000000000001
 31
0.0
  0
LINE
  8
DETAIL
  6
CONTINUOUS
 62
     5
 10
-282.60000000000002
 20
-1.600000000000023
 30
0.0
 11
-271.19999999999982
 21
-13.0
 31
0.0
  0
LINE
  8
DETAIL
  6
CONTINUOUS
 62
     5
 10
-283.39999999999992
 20
-2.3999999999999768
 30
0.0
 11
-283.47840999999983
 21
-2.3500000000000232
 31
0.0
  0
LINE
  8
DETAIL
  6
CONTINUOUS
 62
     5
 10
-283.47840999999983
 20
-2.3500000000000232
 30
0.0
 11
-283.55606999999992
 21
-2.3000000000000109
 31
0.0
  0
LINE
  8
DETAIL
  6
CONTINUOUS
 62
     5
 10
-283.55606999999992
 20
-2.3000000000000109
 30
0.0
 11
-283.63222999999982
 21
-2.25
 31
0.0
  0
LINE
  8
DETAIL
  6
CONTINUOUS
 62
     5
 10
-283.63222999999982
 20
-2.25
 30
0.0
 11
-283.70614999999998
 21
-2.1999999999999891
 31
0.0
  0
LINE
  8
DETAIL
  6
CONTINUOUS
 62
     5
 10
-283.70614999999998
 20
-2.1999999999999891
 30
0.0
 11
-283.77712000000002
 21
-2.1499999999999768
 31
0.0
  0
LINE
  8
DETAIL
  6
CONTINUOUS
 62
     5
 10
-283.77712000000002
 20
-2.1499999999999768
 30
0.0
 11
-283.84446000000003
 21
-2.1000000000000232
 31
0.0
  0
LINE
  8
DETAIL
  6
CONTINUOUS
 62
     5
 10
-283.84446000000003
 20
-2.1000000000000232
 30
0.0
 11
-283.90751
 21
-2.0500000000000109
 31
0.0
  0
LINE
  8
DETAIL
  6
CONTINUOUS
 62
     5
 10
-283.90751
 20
-2.0500000000000109
 30
0.0
 11
-283.96568000000002
 21
-2.0
 31
0.0
  0
LINE
  8
DETAIL
  6
CONTINUOUS
 62
     5
 10
-283.96568000000002
 20
-2.0
 30
0.0
 11
-284.01841000000002
 21
-1.9499999999999891
 31
0.0
  0
LINE
  8
DETAIL
  6
CONTINUOUS
 62
     5
 10
-284.01841000000002
 20
-1.9499999999999891
 30
0.0
 11
-284.06517999999983
 21
-1.899999999999977
 31
0.0
  0
LINE
  8
DETAIL
  6
CONTINUOUS
 62
     5
 10
-284.06517999999983
 20
-1.899999999999977
 30
0.0
 11
-284.10554000000002
 21
-1.850000000000023
 31
0.0
  0
LINE
  8
DETAIL
  6
CONTINUOUS
 62
     5
 10
-284.10554000000002
 20
-1.850000000000023
 30
0.0
 11
-284.13909999999993
 21
-1.8000000000000109
 31
0.0
  0
LINE
  8
DETAIL
  6
CONTINUOUS
 62
     5
 10
-284.13909999999993
 20
-1.8000000000000109
 30
0.0
 11
-284.16554999999988
 21
-1.75
 31
0.0
  0
LINE
  8
DETAIL
  6
CONTINUOUS
 62
     5
 10
-284.16554999999988
 20
-1.75
 30
0.0
 11
-284.18463000000008
 21
-1.6999999999999891
 31
0.0
  0
LINE
  8
DETAIL
  6
CONTINUOUS
 62
     5
 10
-284.18463000000008
 20
-1.6999999999999891
 30
0.0
 11
-284.19614999999999
 21
-1.649999999999977
 31
0.0
  0
LINE
  8
DETAIL
  6
CONTINUOUS
 62
     5
 10
-284.19614999999999
 20
-1.649999999999977
 30
0.0
 11
-284.19999999999999
 21
-1.600000000000023
 31
0.0
  0
LINE
  8
DETAIL
  6
CONTINUOUS
 62
     5
 10
-283.77350999999982
 20
-2.2799999999999732
 30
0.0
 11
-283.89442999999972
 21
-2.2400000000000091
 31
0.0
  0
LINE
  8
DETAIL
  6
CONTINUOUS
 62
     5
 10
-283.89442999999972
 20
-2.2400000000000091
 30
0.0
 11
-284.01229000000001
 21
-2.1999999999999891
 31
0.0
  0
LINE
  8
DETAIL
  6
CONTINUOUS
 62
     5
 10
-284.01229000000001
 20
-2.1999999999999891
 30
0.0
 11
-284.12637999999993
 21
-2.160000000000025
 31
0.0
  0
LINE
  8
DETAIL
  6
CONTINUOUS
 62
     5
 10
-284.12637999999993
 20
-2.160000000000025
 30
0.0
 11
-284.23599999999988
 21
-2.120000000000005
 31
0.0
  0
LINE
  8
DETAIL
  6
CONTINUOUS
 62
     5
 10
-284.23599999999988
 20
-2.120000000000005
 30
0.0
 11
-284.34045999999989
 21
-2.0799999999999841
 31
0.0
  0
LINE
  8
DETAIL
  6
CONTINUOUS
 62
     5
 10
-284.34045999999989
 20
-2.0799999999999841
 30
0.0
 11
-284.43912
 21
-2.04000000000002
 31
0.0
  0
LINE
  8
DETAIL
  6
CONTINUOUS
 62
     5
 10
-284.43912
 20
-2.04000000000002
 30
0.0
 11
-284.53137000000021
 21
-2.0
 31
0.0
  0
LINE
  8
DETAIL
  6
CONTINUOUS
 62
     5
 10
-284.53137000000021
 20
-2.0
 30
0.0
 11
-284.61664999999982
 21
-1.95999999999998
 31
0.0
  0
LINE
  8
DETAIL
  6
CONTINUOUS
 62
     5
 10
-284.61664999999982
 20
-1.95999999999998
 30
0.0
 11
-284.69443000000001
 21
-1.9200000000000159
 31
0.0
  0
LINE
  8
DETAIL
  6
CONTINUOUS
 62
     5
 10
-284.69443000000001
 20
-1.9200000000000159
 30
0.0
 11
-284.76422000000002
 21
-1.879999999999995
 31
0.0
  0
LINE
  8
DETAIL
  6
CONTINUOUS
 62
     5
 10
-284.76422000000002
 20
-1.879999999999995
 30
0.0
 11
-284.82560999999998
 21
-1.839999999999975
 31
0.0
  0
LINE
  8
DETAIL
  6
CONTINUOUS
 62
     5
 10
-284.82560999999998
 20
-1.839999999999975
 30
0.0
 11
-284.87821000000008
 21
-1.8000000000000109
 31
0.0
  0
LINE
  8
DETAIL
  6
CONTINUOUS
 62
     5
 10
-284.87821000000008
 20
-1.8000000000000109
 30
0.0
 11
-284.92169000000001
 21
-1.7599999999999909
 31
0.0
  0
LINE
  8
DETAIL
  6
CONTINUOUS
 62
     5
 10
-284.92169000000001
 20
-1.7599999999999909
 30
0.0
 11
-284.95578999999998
 21
-1.7200000000000271
 31
0.0
  0
LINE
  8
DETAIL
  6
CONTINUOUS
 62
     5
 10
-284.95578999999998
 20
-1.7200000000000271
 30
0.0
 11
-284.98029999999972
 21
-1.680000000000007
 31
0.0
  0
LINE
  8
DETAIL
  6
CONTINUOUS
 62
     5
 10
-284.98029999999972
 20
-1.680000000000007
 30
0.0
 11
-284.99506999999988
 21
-1.6399999999999859
 31
0.0
  0
LINE
  8
DETAIL
  6
CONTINUOUS
 62
     5
 10
-284.99506999999988
 20
-1.6399999999999859
 30
0.0
 11
-285.0
 21
-1.600000000000023
 31
0.0
  0
LINE
  8
DETAIL
  6
CONTINUOUS
 62
     5
 10
-283.39999999999992
 20
-2.3999999999999768
 30
0.0
 11
-283.52553
 21
-2.3600000000000141
 31
0.0
  0
LINE
  8
DETAIL
  6
CONTINUOUS
 62
     5
 10
-283.52553
 20
-2.3600000000000141
 30
0.0
 11
-283.77350999999982
 21
-2.2799999999999732
 31
0.0
  0
LINE
  8
DETAIL
  6
CONTINUOUS
 62
     5
 10
-283.39999999999992
 20
0.0
 30
0.0
 11
-283.36000000000001
 21
-0.0049300000000017
 31
0.0
  0
LINE
  8
DETAIL
  6
CONTINUOUS
 62
     5
 10
-283.36000000000001
 20
-0.0049300000000017
 30
0.0
 11
-283.31999999999988
 21
-0.0197000000000003
 31
0.0
  0
LINE
  8
DETAIL
  6
CONTINUOUS
 62
     5
 10
-283.31999999999988
 20
-0.0197000000000003
 30
0.0
 11
-283.27999999999997
 21
-0.044210000000021
 31
0.0
  0
LINE
  8
DETAIL
  6
CONTINUOUS
 62
     5
 10
-283.27999999999997
 20
-0.044210000000021
 30
0.0
 11
-283.24000000000001
 21
-0.0783099999999877
 31
0.0
  0
LINE
  8
DETAIL
  6
CONTINUOUS
 62
     5
 10
-283.24000000000001
 20
-0.0783099999999877
 30
0.0
 11
-283.19999999999982
 21
-0.1218000000000075
 31
0.0
  0
LINE
  8
DETAIL
  6
CONTINUOUS
 62
     5
 10
-283.19999999999982
 20
-0.1218000000000075
 30
0.0
 11
-283.16000000000008
 21
-0.1743900000000167
 31
0.0
  0
LINE
  8
DETAIL
  6
CONTINUOUS
 62
     5
 10
-283.16000000000008
 20
-0.1743900000000167
 30
0.0
 11
-283.11999999999989
 21
-0.235779999999977
 31
0.0
  0
LINE
  8
DETAIL
  6
CONTINUOUS
 62
     5
 10
-283.11999999999989
 20
-0.235779999999977
 30
0.0
 11
-283.07999999999993
 21
-0.3055800000000204
 31
0.0
  0
LINE
  8
DETAIL
  6
CONTINUOUS
 62
     5
 10
-283.07999999999993
 20
-0.3055800000000204
 30
0.0
 11
-283.04000000000002
 21
-0.3833500000000072
 31
0.0
  0
LINE
  8
DETAIL
  6
CONTINUOUS
 62
     5
 10
-283.04000000000002
 20
-0.3833500000000072
 30
0.0
 11
-283.0
 21
-0.4686300000000188
 31
0.0
  0
LINE
  8
DETAIL
  6
CONTINUOUS
 62
     5
 10
-283.0
 20
-0.4686300000000188
 30
0.0
 11
-282.95999999999992
 21
-0.5608899999999721
 31
0.0
  0
LINE
  8
DETAIL
  6
CONTINUOUS
 62
     5
 10
-282.95999999999992
 20
-0.5608899999999721
 30
0.0
 11
-282.92000000000007
 21
-0.6595500000000243
 31
0.0
  0
LINE
  8
DETAIL
  6
CONTINUOUS
 62
     5
 10
-282.92000000000007
 20
-0.6595500000000243
 30
0.0
 11
-282.88
 21
-0.76400000000001
 31
0.0
  0
LINE
  8
DETAIL
  6
CONTINUOUS
 62
     5
 10
-282.88
 20
-0.76400000000001
 30
0.0
 11
-282.83999999999992
 21
-0.8736200000000167
 31
0.0
  0
LINE
  8
DETAIL
  6
CONTINUOUS
 62
     5
 10
-282.83999999999992
 20
-0.8736200000000167
 30
0.0
 11
-282.80000000000001
 21
-0.9877099999999928
 31
0.0
  0
LINE
  8
DETAIL
  6
CONTINUOUS
 62
     5
 10
-282.80000000000001
 20
-0.9877099999999928
 30
0.0
 11
-282.75999999999982
 21
-1.1055799999999749
 31
0.0
  0
LINE
  8
DETAIL
  6
CONTINUOUS
 62
     5
 10
-282.75999999999982
 20
-1.1055799999999749
 30
0.0
 11
-282.72000000000003
 21
-1.226490000000013
 31
0.0
  0
LINE
  8
DETAIL
  6
CONTINUOUS
 62
     5
 10
-282.72000000000003
 20
-1.226490000000013
 30
0.0
 11
-282.68000000000012
 21
-1.349710000000016
 31
0.0
  0
LINE
  8
DETAIL
  6
CONTINUOUS
 62
     5
 10
-282.68000000000012
 20
-1.349710000000016
 30
0.0
 11
-282.60000000000002
 21
-1.600000000000023
 31
0.0
  0
LINE
  8
DETAIL
  6
CONTINUOUS
 62
     5
 10
-283.39999999999992
 20
-0.8000000000000114
 30
0.0
 11
-283.35000000000002
 21
-0.8038500000000113
 31
0.0
  0
LINE
  8
DETAIL
  6
CONTINUOUS
 62
     5
 10
-283.35000000000002
 20
-0.8038500000000113
 30
0.0
 11
-283.30000000000001
 21
-0.8153699999999731
 31
0.0
  0
LINE
  8
DETAIL
  6
CONTINUOUS
 62
     5
 10
-283.30000000000001
 20
-0.8153699999999731
 30
0.0
 11
-283.24999999999989
 21
-0.8344500000000039
 31
0.0
  0
LINE
  8
DETAIL
  6
CONTINUOUS
 62
     5
 10
-283.24999999999989
 20
-0.8344500000000039
 30
0.0
 11
-283.19999999999982
 21
-0.8609000000000151
 31
0.0
  0
LINE
  8
DETAIL
  6
CONTINUOUS
 62
     5
 10
-283.19999999999982
 20
-0.8609000000000151
 30
0.0
 11
-283.14999999999992
 21
-0.8944700000000125
 31
0.0
  0
LINE
  8
DETAIL
  6
CONTINUOUS
 62
     5
 10
-283.14999999999992
 20
-0.8944700000000125
 30
0.0
 11
-283.10000000000002
 21
-0.9348299999999767
 31
0.0
  0
LINE
  8
DETAIL
  6
CONTINUOUS
 62
     5
 10
-283.10000000000002
 20
-0.9348299999999767
 30
0.0
 11
-283.05000000000001
 21
-0.9815899999999829
 31
0.0
  0
LINE
  8
DETAIL
  6
CONTINUOUS
 62
     5
 10
-283.05000000000001
 20
-0.9815899999999829
 30
0.0
 11
-283.0
 21
-1.0343199999999799
 31
0.0
  0
LINE
  8
DETAIL
  6
CONTINUOUS
 62
     5
 10
-283.0
 20
-1.0343199999999799
 30
0.0
 11
-282.94999999999982
 21
-1.092489999999998
 31
0.0
  0
LINE
  8
DETAIL
  6
CONTINUOUS
 62
     5
 10
-282.94999999999982
 20
-1.092489999999998
 30
0.0
 11
-282.89999999999992
 21
-1.155550000000005
 31
0.0
  0
LINE
  8
DETAIL
  6
CONTINUOUS
 62
     5
 10
-282.89999999999992
 20
-1.155550000000005
 30
0.0
 11
-282.85000000000002
 21
-1.2228900000000069
 31
0.0
  0
LINE
  8
DETAIL
  6
CONTINUOUS
 62
     5
 10
-282.85000000000002
 20
-1.2228900000000069
 30
0.0
 11
-282.80000000000001
 21
-1.2938599999999949
 31
0.0
  0
LINE
  8
DETAIL
  6
CONTINUOUS
 62
     5
 10
-282.80000000000001
 20
-1.2938599999999949
 30
0.0
 11
-282.75
 21
-1.367779999999982
 31
0.0
  0
LINE
  8
DETAIL
  6
CONTINUOUS
 62
     5
 10
-282.75
 20
-1.367779999999982
 30
0.0
 11
-282.69999999999982
 21
-1.443930000000023
 31
0.0
  0
LINE
  8
DETAIL
  6
CONTINUOUS
 62
     5
 10
-282.69999999999982
 20
-1.443930000000023
 30
0.0
 11
-282.64999999999992
 21
-1.5215900000000031
 31
0.0
  0
LINE
  8
DETAIL
  6
CONTINUOUS
 62
     5
 10
-282.64999999999992
 20
-1.5215900000000031
 30
0.0
 11
-282.60000000000002
 21
-1.600000000000023
 31
0.0
  0
LINE
  8
DETAIL
  6
CONTINUOUS
 62
     5
 10
-284.19999999999999
 20
-1.600000000000023
 30
0.0
 11
-285.0
 21
-1.600000000000023
 31
0.0
  0
ARC
  8
DETAIL
  6
CONTINUOUS
 62
     5
 10
-283.39999999999992
 20
-1.600000000000023
 30
0.0
 40
1.6000000000000001
 50
90.0
 51
180.0
  0
ARC
  8
DETAIL
  6
CONTINUOUS
 62
     5
 10
-283.39999999999992
 20
-1.600000000000023
 30
0.0
 40
0.8
 50
90.0
 51
180.0
  0
LINE
  8
DETAIL
  6
PHANTOM
 62
     5
 10
286.75056000000001
 20
-198.5
 30
0.0
 11
328.0
 21
-198.5
 31
0.0
  0
LINE
  8
DETAIL
  6
PHANTOM
 62
     5
 10
285.0
 20
-29.5
 30
0.0
 11
328.0
 21
-29.5
 31
0.0
  0
LINE
  8
DETAIL
  6
CONTINUOUS
 62
     5
 10
302.5
 20
-32.0
 30
0.0
 11
331.0
 21
-32.0
 31
0.0
  0
LINE
  8
DETAIL
  6
CONTINUOUS
 62
     5
 10
289.0
 20
-34.0
 30
0.0
 11
331.0
 21
-34.0
 31
0.0
  0
CIRCLE
  8
DETAIL
  6
CONTINUOUS
 62
     5
 10
202.49999999999989
 20
-114.0
 30
0.0
 40
84.500000000000014
  0
LINE
  8
DETAIL
  6
CONTINUOUS
 62
     5
 10
287.0
 20
-198.5
 30
0.0
 11
287.0
 21
-185.30000000000001
 31
0.0
  0
LINE
  8
DETAIL
  6
CONTINUOUS
 62
     5
 10
173.31506999999991
 20
-193.30000000000001
 30
0.0
 11
-173.31506999999991
 21
-193.30000000000001
 31
0.0
  0
LINE
  8
DETAIL
  6
CONTINUOUS
 62
     5
 10
117.18828000000001
 20
-226.80000000000001
 30
0.0
 11
265.77839999999992
 21
-226.80000000000001
 31
0.0
  0
LINE
  8
DETAIL
  6
CONTINUOUS
 62
     5
 10
93.814979999999991
 20
-246.80000000000001
 30
0.0
 11
218.52393000000009
 21
-246.80000000000001
 31
0.0
  0
LINE
  8
DETAIL
  6
CONTINUOUS
 62
     5
 10
76.191349999999943
 20
-230.30000000000001
 30
0.0
 11
266.20864999999998
 21
-230.30000000000001
 31
0.0
  0
LINE
  8
DETAIL
  6
CONTINUOUS
 62
     5
 10
75.778699999999958
 20
-234.80872999999991
 30
0.0
 11
75.586850000000027
 21
-223.81746000000001
 31
0.0
  0
ARC
  8
DETAIL
  6
CONTINUOUS
 62
     5
 10
93.814979999999991
 20
-236.80000000000001
 30
0.0
 40
10.0
 50
180.99999999999531
 51
270.0
  0
LINE
  8
DETAIL
  6
CONTINUOUS
 62
     5
 10
83.295929999999998
 20
-235.30000000000001
 30
0.0
 11
76.278620000000046
 21
-235.30000000000001
 31
0.0
  0
LINE
  8
DETAIL
  6
CONTINUOUS
 62
     5
 10
83.708579999999984
 20
-230.79127999999989
 30
0.0
 11
83.816500000000019
 21
-236.97452999999999
 31
0.0
  0
ARC
  8
DETAIL
  6
CONTINUOUS
 62
     5
 10
76.278620000000046
 20
-234.80000000000001
 30
0.0
 40
0.5
 50
180.99999999999531
 51
270.0
  0
ARC
  8
DETAIL
  6
CONTINUOUS
 62
     5
 10
83.295929999999998
 20
-235.80000000000001
 30
0.0
 40
0.5
 50
1.0000189999976019
 51
90.0
  0
ARC
  8
DETAIL
  6
CONTINUOUS
 62
     5
 10
83.208650000000034
 20
-230.80000000000001
 30
0.0
 40
0.5
 50
0.9999999999952596
 51
90.000206999997388
  0
ARC
  8
DETAIL
  6
CONTINUOUS
 62
     5
 10
76.191349999999943
 20
-229.80000000000001
 30
0.0
 40
0.5
 50
180.9999969999966
 51
269.99984999999788
  0
LINE
  8
DETAIL
  6
CONTINUOUS
 62
     5
 10
76.621610000000032
 20
-226.80000000000001
 30
0.0
 11
117.18828000000001
 21
-226.80000000000001
 31
0.0
  0
ARC
  8
DETAIL
  6
CONTINUOUS
 62
     5
 10
76.621610000000032
 20
-225.80000000000001
 30
0.0
 40
1.0
 50
180.99999900000441
 51
269.99992700000178
  0
ARC
  8
DETAIL
  6
CONTINUOUS
 62
     5
 10
76.586699999999951
 20
-223.80000000000001
 30
0.0
 40
1.0
 50
90.000115999999949
 51
180.99999800000049
  0
LINE
  8
DETAIL
  6
CONTINUOUS
 62
     5
 10
289.5
 20
-193.30000000000001
 30
0.0
 11
231.68492999999989
 21
-193.30000000000001
 31
0.0
  0
ARC
  8
DETAIL
  6
CONTINUOUS
 62
     5
 10
218.52393000000009
 20
-236.80000000000001
 30
0.0
 40
10.0
 50
270.0
 51
358.99999999999818
  0
LINE
  8
DETAIL
  6
CONTINUOUS
 62
     5
 10
228.52239999999981
 20
-236.97452999999999
 30
0.0
 11
228.63867999999999
 21
-230.31304999999989
 31
0.0
  0
LINE
  8
DETAIL
  6
CONTINUOUS
 62
     5
 10
266.70857999999998
 20
-229.80872999999991
 30
0.0
 11
266.81315000000001
 21
-223.81746000000001
 31
0.0
  0
ARC
  8
DETAIL
  6
CONTINUOUS
 62
     5
 10
266.20864999999998
 20
-229.80000000000001
 30
0.0
 40
0.5
 50
270.0
 51
358.99999999999818
  0
LINE
  8
DETAIL
  6
CONTINUOUS
 62
     5
 10
288.44034000000011
 20
-195.57321999999991
 30
0.0
 11
274.16431999999992
 21
-220.30000000000001
 31
0.0
  0
ARC
  8
DETAIL
  6
CONTINUOUS
 62
     5
 10
265.81330000000003
 20
-223.80000000000001
 30
0.0
 40
1.0
 50
359.00000199999948
 51
89.999884000000051
  0
ARC
  8
DETAIL
  6
CONTINUOUS
 62
     5
 10
265.77839999999992
 20
-225.80000000000001
 30
0.0
 40
1.0
 50
270.0
 51
358.99999999999818
  0
ARC
  8
DETAIL
  6
CONTINUOUS
 62
     5
 10
269.83418999999998
 20
-217.80000000000001
 30
0.0
 40
5.0
 50
270.0
 51
329.99975799999572
  0
LINE
  8
DETAIL
  6
CONTINUOUS
 62
     5
 10
285.0
 20
-198.5
 30
0.0
 11
286.75056000000001
 21
-198.5
 31
0.0
  0
LINE
  8
DETAIL
  6
CONTINUOUS
 62
     5
 10
288.44905999999992
 20
-195.57337000000001
 30
0.0
 11
288.48874000000001
 21
-193.30000000000001
 31
0.0
  0
LINE
  8
DETAIL
  6
CONTINUOUS
 62
     5
 10
157.15068999999991
 20
-185.30000000000001
 30
0.0
 11
-157.15068999999991
 21
-185.30000000000001
 31
0.0
  0
LINE
  8
DETAIL
  6
CONTINUOUS
 62
     5
 10
-156.6824300000001
 20
-185.0
 30
0.0
 11
-128.0
 21
-185.0
 31
0.0
  0
CIRCLE
  8
DETAIL
  6
CONTINUOUS
 62
     5
 10
-135.49999999999969
 20
-176.0
 30
0.0
 40
2.5
  0
LINE
  8
DETAIL
  6
CONTINUOUS
 62
     5
 10
-126.0
 20
-183.0
 30
0.0
 11
-126.0
 21
-149.88872000000001
 31
0.0
  0
ARC
  8
DETAIL
  6
CONTINUOUS
 62
     5
 10
-128.0
 20
-183.0
 30
0.0
 40
2.0
 50
270.0
 51
0.0
  0
LINE
  8
DETAIL
  6
CONTINUOUS
 62
     5
 10
-156.6824300000001
 20
-43.0
 30
0.0
 11
-128.0
 21
-43.0
 31
0.0
  0
CIRCLE
  8
DETAIL
  6
CONTINUOUS
 62
     5
 10
-135.49999999999969
 20
-52.0
 30
0.0
 40
2.5
  0
LINE
  8
DETAIL
  6
CONTINUOUS
 62
     5
 10
-126.0
 20
-78.111289999999997
 30
0.0
 11
-126.0
 21
-45.0
 31
0.0
  0
ARC
  8
DETAIL
  6
CONTINUOUS
 62
     5
 10
-128.0
 20
-45.0
 30
0.0
 40
2.0
 50
0.0
 51
90.0
  0
LINE
  8
DETAIL
  6
CONTINUOUS
 62
     5
 10
272.0
 20
-43.0
 30
0.0
 11
272.0
 21
-13.80000000000001
 31
0.0
  0
LINE
  8
DETAIL
  6
CONTINUOUS
 62
     5
 10
285.0
 20
0.0
 30
0.0
 11
285.0
 21
-95.724339999999984
 31
0.0
  0
LINE
  8
DETAIL
  6
CONTINUOUS
 62
     5
 10
287.0
 20
0.0
 30
0.0
 11
287.0
 21
-30.0
 31
0.0
  0
LINE
  8
DETAIL
  6
CONTINUOUS
 62
     5
 10
128.0
 20
-185.0
 30
0.0
 11
156.6824300000001
 21
-185.0
 31
0.0
  0
LINE
  8
DETAIL
  6
CONTINUOUS
 62
     5
 10
126.0
 20
-149.88872000000001
 30
0.0
 11
126.0
 21
-183.0
 31
0.0
  0
ARC
  8
DETAIL
  6
CONTINUOUS
 62
     5
 10
128.0
 20
-183.0
 30
0.0
 40
2.0
 50
180.0
 51
270.0
  0
CIRCLE
  8
DETAIL
  6
CONTINUOUS
 62
     5
 10
135.49999999999969
 20
-176.0
 30
0.0
 40
2.5
  0
LINE
  8
DETAIL
  6
CONTINUOUS
 62
     5
 10
126.0
 20
-45.0
 30
0.0
 11
126.0
 21
-78.111289999999997
 31
0.0
  0
LINE
  8
DETAIL
  6
CONTINUOUS
 62
     5
 10
128.0
 20
-43.0
 30
0.0
 11
156.6824300000001
 21
-43.0
 31
0.0
  0
CIRCLE
  8
DETAIL
  6
CONTINUOUS
 62
     5
 10
135.49999999999969
 20
-52.0
 30
0.0
 40
2.5
  0
ARC
  8
DETAIL
  6
CONTINUOUS
 62
     5
 10
128.0
 20
-45.0
 30
0.0
 40
2.0
 50
90.0
 51
180.0
  0
LINE
  8
DETAIL
  6
CONTINUOUS
 62
     5
 10
287.0
 20
-185.30000000000001
 30
0.0
 11
287.0
 21
-29.5
 31
0.0
  0
LINE
  8
DETAIL
  6
CONTINUOUS
 62
     5
 10
285.0
 20
-132.27566999999999
 30
0.0
 11
285.0
 21
-185.30000000000001
 31
0.0
  0
ARC
  8
DETAIL
  6
CONTINUOUS
 62
     5
 10
277.0
 20
-183.0
 30
0.0
 40
2.0
 50
270.0
 51
0.0
  0
LINE
  8
DETAIL
  6
CONTINUOUS
 62
     5
 10
291.59999999999991
 20
-185.30000000000001
 30
0.0
 11
247.84931000000009
 21
-185.30000000000001
 31
0.0
  0
LINE
  8
DETAIL
  6
CONTINUOUS
 62
     5
 10
248.3175699999999
 20
-185.0
 30
0.0
 11
277.0
 21
-185.0
 31
0.0
  0
CIRCLE
  8
DETAIL
  6
CONTINUOUS
 62
     5
 10
269.49999999999977
 20
-176.0
 30
0.0
 40
2.5
  0
LINE
  8
DETAIL
  6
CONTINUOUS
 62
     5
 10
272.0
 20
-185.30000000000001
 30
0.0
 11
272.0
 21
-185.0
 31
0.0
  0
LINE
  8
DETAIL
  6
CONTINUOUS
 62
     5
 10
279.0
 20
-183.0
 30
0.0
 11
279.0
 21
-149.88872000000001
 31
0.0
  0
LINE
  8
DETAIL
  6
CONTINUOUS
 62
     5
 10
285.0
 20
-166.04043999999999
 30
0.0
 11
285.00465000000008
 21
-166.04347000000001
 31
0.0
  0
LINE
  8
DETAIL
  6
CONTINUOUS
 62
     5
 10
285.00465000000008
 20
-166.04347000000001
 30
0.0
 11
285.0
 21
-166.04051000000001
 31
0.0
  0
LINE
  8
DETAIL
  6
CONTINUOUS
 62
     5
 10
279.0
 20
-78.111289999999997
 30
0.0
 11
279.0
 21
-45.0
 31
0.0
  0
ARC
  8
DETAIL
  6
CONTINUOUS
 62
     5
 10
277.0
 20
-45.0
 30
0.0
 40
2.0
 50
0.0
 51
90.0
  0
CIRCLE
  8
DETAIL
  6
CONTINUOUS
 62
     5
 10
269.49999999999977
 20
-52.0
 30
0.0
 40
2.5
  0
LINE
  8
DETAIL
  6
CONTINUOUS
 62
     5
 10
248.3175699999999
 20
-43.0
 30
0.0
 11
277.0
 21
-43.0
 31
0.0
  0
LINE
  8
DETAIL
  6
CONTINUOUS
 62
     5
 10
285.00465000000008
 20
-52.556530000000009
 30
0.0
 11
285.0
 21
-52.559500000000007
 31
0.0
  0
LINE
  8
DETAIL
  6
CONTINUOUS
 62
     5
 10
285.0
 20
-52.559559999999983
 30
0.0
 11
285.00465000000008
 21
-52.556530000000009
 31
0.0
  0
LINE
  8
DETAIL
  6
CONTINUOUS
 62
     5
 10
292.0
 20
-32.0
 30
0.0
 11
302.5
 21
-32.0
 31
0.0
  0
LINE
  8
DETAIL
  6
CONTINUOUS
 62
     5
 10
299.5
 20
-24.0
 30
0.0
 11
295.0
 21
-24.0
 31
0.0
  0
LINE
  8
DETAIL
  6
CONTINUOUS
 62
     5
 10
289.0
 20
-32.0
 30
0.0
 11
292.0
 21
-32.0
 31
0.0
  0
LINE
  8
DETAIL
  6
CONTINUOUS
 62
     5
 10
292.0
 20
-27.0
 30
0.0
 11
292.0
 21
-34.0
 31
0.0
  0
LINE
  8
DETAIL
  6
CONTINUOUS
 62
     5
 10
294.49999999999977
 20
-35.331380000000017
 30
0.0
 11
294.49999999999977
 21
-35.300000000000011
 31
0.0
  0
LINE
  8
DETAIL
  6
CONTINUOUS
 62
     5
 10
295.0
 20
-35.306429999999978
 30
0.0
 11
295.0
 21
-35.300000000000011
 31
0.0
  0
LINE
  8
DETAIL
  6
CONTINUOUS
 62
     5
 10
302.5
 20
-27.0
 30
0.0
 11
302.5
 21
-34.0
 31
0.0
  0
ARC
  8
DETAIL
  6
CONTINUOUS
 62
     5
 10
295.0
 20
-27.0
 30
0.0
 40
3.0
 50
90.0
 51
180.0
  0
ARC
  8
DETAIL
  6
CONTINUOUS
 62
     5
 10
299.5
 20
-27.0
 30
0.0
 40
3.0
 50
0.0
 51
90.0
  0
ARC
  8
DETAIL
  6
CONTINUOUS
 62
     5
 10
289.0
 20
-30.0
 30
0.0
 40
4.0
 50
180.0
 51
270.0
  0
ARC
  8
DETAIL
  6
CONTINUOUS
 62
     5
 10
289.0
 20
-30.0
 30
0.0
 40
2.0
 50
180.0
 51
270.0
  0
LINE
  8
DETAIL
  6
CONTINUOUS
 62
     5
 10
283.39999999999992
 20
-2.3999999999999768
 30
0.0
 11
272.0
 21
-13.80000000000001
 31
0.0
  0
LINE
  8
DETAIL
  6
CONTINUOUS
 62
     5
 10
282.59999999999991
 20
-1.600000000000023
 30
0.0
 11
271.19999999999982
 21
-13.0
 31
0.0
  0
LINE
  8
DETAIL
  6
CONTINUOUS
 62
     5
 10
282.72000000000003
 20
-1.226490000000013
 30
0.0
 11
282.63999999999987
 21
-1.4744699999999971
 31
0.0
  0
LINE
  8
DETAIL
  6
CONTINUOUS
 62
     5
 10
282.63999999999987
 20
-1.4744699999999971
 30
0.0
 11
282.59999999999991
 21
-1.600000000000023
 31
0.0
  0
LINE
  8
DETAIL
  6
CONTINUOUS
 62
     5
 10
285.0
 20
0.0
 30
0.0
 11
287.0
 21
0.0
 31
0.0
  0
LINE
  8
DETAIL
  6
CONTINUOUS
 62
     5
 10
283.39999999999992
 20
-0.8000000000000114
 30
0.0
 11
283.34999999999991
 21
-0.8038500000000113
 31
0.0
  0
LINE
  8
DETAIL
  6
CONTINUOUS
 62
     5
 10
283.34999999999991
 20
-0.8038500000000113
 30
0.0
 11
283.30000000000001
 21
-0.8153699999999731
 31
0.0
  0
LINE
  8
DETAIL
  6
CONTINUOUS
 62
     5
 10
283.30000000000001
 20
-0.8153699999999731
 30
0.0
 11
283.25
 21
-0.8344500000000039
 31
0.0
  0
LINE
  8
DETAIL
  6
CONTINUOUS
 62
     5
 10
283.25
 20
-0.8344500000000039
 30
0.0
 11
283.19999999999982
 21
-0.8609000000000151
 31
0.0
  0
LINE
  8
DETAIL
  6
CONTINUOUS
 62
     5
 10
283.19999999999982
 20
-0.8609000000000151
 30
0.0
 11
283.14999999999992
 21
-0.8944700000000125
 31
0.0
  0
LINE
  8
DETAIL
  6
CONTINUOUS
 62
     5
 10
283.14999999999992
 20
-0.8944700000000125
 30
0.0
 11
283.09999999999991
 21
-0.9348299999999767
 31
0.0
  0
LINE
  8
DETAIL
  6
CONTINUOUS
 62
     5
 10
283.09999999999991
 20
-0.9348299999999767
 30
0.0
 11
283.05000000000001
 21
-0.9815899999999829
 31
0.0
  0
LINE
  8
DETAIL
  6
CONTINUOUS
 62
     5
 10
283.05000000000001
 20
-0.9815899999999829
 30
0.0
 11
283.0
 21
-1.0343199999999799
 31
0.0
  0
LINE
  8
DETAIL
  6
CONTINUOUS
 62
     5
 10
283.0
 20
-1.0343199999999799
 30
0.0
 11
282.94999999999982
 21
-1.092489999999998
 31
0.0
  0
LINE
  8
DETAIL
  6
CONTINUOUS
 62
     5
 10
282.94999999999982
 20
-1.092489999999998
 30
0.0
 11
282.89999999999992
 21
-1.155550000000005
 31
0.0
  0
LINE
  8
DETAIL
  6
CONTINUOUS
 62
     5
 10
282.89999999999992
 20
-1.155550000000005
 30
0.0
 11
282.84999999999991
 21
-1.2228900000000069
 31
0.0
  0
LINE
  8
DETAIL
  6
CONTINUOUS
 62
     5
 10
282.84999999999991
 20
-1.2228900000000069
 30
0.0
 11
282.80000000000001
 21
-1.2938599999999949
 31
0.0
  0
LINE
  8
DETAIL
  6
CONTINUOUS
 62
     5
 10
282.80000000000001
 20
-1.2938599999999949
 30
0.0
 11
282.75
 21
-1.367779999999982
 31
0.0
  0
LINE
  8
DETAIL
  6
CONTINUOUS
 62
     5
 10
282.75
 20
-1.367779999999982
 30
0.0
 11
282.69999999999982
 21
-1.443930000000023
 31
0.0
  0
LINE
  8
DETAIL
  6
CONTINUOUS
 62
     5
 10
282.69999999999982
 20
-1.443930000000023
 30
0.0
 11
282.64999999999992
 21
-1.5215900000000031
 31
0.0
  0
LINE
  8
DETAIL
  6
CONTINUOUS
 62
     5
 10
282.64999999999992
 20
-1.5215900000000031
 30
0.0
 11
282.59999999999991
 21
-1.600000000000023
 31
0.0
  0
LINE
  8
DETAIL
  6
CONTINUOUS
 62
     5
 10
283.39999999999992
 20
0.0
 30
0.0
 11
283.36000000000013
 21
-0.0049300000000017
 31
0.0
  0
LINE
  8
DETAIL
  6
CONTINUOUS
 62
     5
 10
283.36000000000013
 20
-0.0049300000000017
 30
0.0
 11
283.31999999999988
 21
-0.0197000000000003
 31
0.0
  0
LINE
  8
DETAIL
  6
CONTINUOUS
 62
     5
 10
283.31999999999988
 20
-0.0197000000000003
 30
0.0
 11
283.27999999999997
 21
-0.044210000000021
 31
0.0
  0
LINE
  8
DETAIL
  6
CONTINUOUS
 62
     5
 10
283.27999999999997
 20
-0.044210000000021
 30
0.0
 11
283.24000000000001
 21
-0.0783099999999877
 31
0.0
  0
LINE
  8
DETAIL
  6
CONTINUOUS
 62
     5
 10
283.24000000000001
 20
-0.0783099999999877
 30
0.0
 11
283.19999999999982
 21
-0.1218000000000075
 31
0.0
  0
LINE
  8
DETAIL
  6
CONTINUOUS
 62
     5
 10
283.19999999999982
 20
-0.1218000000000075
 30
0.0
 11
283.16000000000008
 21
-0.1743900000000167
 31
0.0
  0
LINE
  8
DETAIL
  6
CONTINUOUS
 62
     5
 10
283.16000000000008
 20
-0.1743900000000167
 30
0.0
 11
283.11999999999989
 21
-0.235779999999977
 31
0.0
  0
LINE
  8
DETAIL
  6
CONTINUOUS
 62
     5
 10
283.11999999999989
 20
-0.235779999999977
 30
0.0
 11
283.07999999999993
 21
-0.3055800000000204
 31
0.0
  0
LINE
  8
DETAIL
  6
CONTINUOUS
 62
     5
 10
283.07999999999993
 20
-0.3055800000000204
 30
0.0
 11
283.04000000000002
 21
-0.3833500000000072
 31
0.0
  0
LINE
  8
DETAIL
  6
CONTINUOUS
 62
     5
 10
283.04000000000002
 20
-0.3833500000000072
 30
0.0
 11
283.0
 21
-0.4686300000000188
 31
0.0
  0
LINE
  8
DETAIL
  6
CONTINUOUS
 62
     5
 10
283.0
 20
-0.4686300000000188
 30
0.0
 11
282.95999999999998
 21
-0.5608899999999721
 31
0.0
  0
LINE
  8
DETAIL
  6
CONTINUOUS
 62
     5
 10
282.95999999999998
 20
-0.5608899999999721
 30
0.0
 11
282.92000000000007
 21
-0.6595500000000243
 31
0.0
  0
LINE
  8
DETAIL
  6
CONTINUOUS
 62
     5
 10
282.92000000000007
 20
-0.6595500000000243
 30
0.0
 11
282.88000000000011
 21
-0.76400000000001
 31
0.0
  0
LINE
  8
DETAIL
  6
CONTINUOUS
 62
     5
 10
282.88000000000011
 20
-0.76400000000001
 30
0.0
 11
282.83999999999992
 21
-0.8736200000000167
 31
0.0
  0
LINE
  8
DETAIL
  6
CONTINUOUS
 62
     5
 10
282.83999999999992
 20
-0.8736200000000167
 30
0.0
 11
282.80000000000001
 21
-0.9877099999999928
 31
0.0
  0
LINE
  8
DETAIL
  6
CONTINUOUS
 62
     5
 10
282.80000000000001
 20
-0.9877099999999928
 30
0.0
 11
282.75999999999982
 21
-1.1055799999999749
 31
0.0
  0
LINE
  8
DETAIL
  6
CONTINUOUS
 62
     5
 10
282.75999999999982
 20
-1.1055799999999749
 30
0.0
 11
282.72000000000003
 21
-1.226490000000013
 31
0.0
  0
LINE
  8
DETAIL
  6
CONTINUOUS
 62
     5
 10
284.19999999999999
 20
-1.600000000000023
 30
0.0
 11
285.0
 21
-1.600000000000023
 31
0.0
  0
LINE
  8
DETAIL
  6
CONTINUOUS
 62
     5
 10
285.0
 20
-1.600000000000023
 30
0.0
 11
284.99506999999988
 21
-1.6399999999999859
 31
0.0
  0
LINE
  8
DETAIL
  6
CONTINUOUS
 62
     5
 10
284.99506999999988
 20
-1.6399999999999859
 30
0.0
 11
284.98029999999972
 21
-1.680000000000007
 31
0.0
  0
LINE
  8
DETAIL
  6
CONTINUOUS
 62
     5
 10
284.98029999999972
 20
-1.680000000000007
 30
0.0
 11
284.95578999999998
 21
-1.7200000000000271
 31
0.0
  0
LINE
  8
DETAIL
  6
CONTINUOUS
 62
     5
 10
284.95578999999998
 20
-1.7200000000000271
 30
0.0
 11
284.92169000000013
 21
-1.7599999999999909
 31
0.0
  0
LINE
  8
DETAIL
  6
CONTINUOUS
 62
     5
 10
284.92169000000013
 20
-1.7599999999999909
 30
0.0
 11
284.87821000000008
 21
-1.8000000000000109
 31
0.0
  0
LINE
  8
DETAIL
  6
CONTINUOUS
 62
     5
 10
284.87821000000008
 20
-1.8000000000000109
 30
0.0
 11
284.82560999999993
 21
-1.839999999999975
 31
0.0
  0
LINE
  8
DETAIL
  6
CONTINUOUS
 62
     5
 10
284.82560999999993
 20
-1.839999999999975
 30
0.0
 11
284.76422000000002
 21
-1.879999999999995
 31
0.0
  0
LINE
  8
DETAIL
  6
CONTINUOUS
 62
     5
 10
284.76422000000002
 20
-1.879999999999995
 30
0.0
 11
284.69443000000001
 21
-1.9200000000000159
 31
0.0
  0
LINE
  8
DETAIL
  6
CONTINUOUS
 62
     5
 10
284.69443000000001
 20
-1.9200000000000159
 30
0.0
 11
284.61664999999988
 21
-1.95999999999998
 31
0.0
  0
LINE
  8
DETAIL
  6
CONTINUOUS
 62
     5
 10
284.61664999999988
 20
-1.95999999999998
 30
0.0
 11
284.53137000000021
 21
-2.0
 31
0.0
  0
LINE
  8
DETAIL
  6
CONTINUOUS
 62
     5
 10
284.53137000000021
 20
-2.0
 30
0.0
 11
284.43912
 21
-2.04000000000002
 31
0.0
  0
LINE
  8
DETAIL
  6
CONTINUOUS
 62
     5
 10
284.43912
 20
-2.04000000000002
 30
0.0
 11
284.34045999999989
 21
-2.0799999999999841
 31
0.0
  0
LINE
  8
DETAIL
  6
CONTINUOUS
 62
     5
 10
284.34045999999989
 20
-2.0799999999999841
 30
0.0
 11
284.23599999999988
 21
-2.120000000000005
 31
0.0
  0
LINE
  8
DETAIL
  6
CONTINUOUS
 62
     5
 10
284.23599999999988
 20
-2.120000000000005
 30
0.0
 11
284.1263899999999
 21
-2.160000000000025
 31
0.0
  0
LINE
  8
DETAIL
  6
CONTINUOUS
 62
     5
 10
284.1263899999999
 20
-2.160000000000025
 30
0.0
 11
284.01229000000012
 21
-2.1999999999999891
 31
0.0
  0
LINE
  8
DETAIL
  6
CONTINUOUS
 62
     5
 10
284.01229000000012
 20
-2.1999999999999891
 30
0.0
 11
283.89442999999977
 21
-2.2400000000000091
 31
0.0
  0
LINE
  8
DETAIL
  6
CONTINUOUS
 62
     5
 10
283.89442999999977
 20
-2.2400000000000091
 30
0.0
 11
283.77350999999982
 21
-2.2799999999999732
 31
0.0
  0
LINE
  8
DETAIL
  6
CONTINUOUS
 62
     5
 10
283.77350999999982
 20
-2.2799999999999732
 30
0.0
 11
283.65030000000002
 21
-2.3199999999999932
 31
0.0
  0
LINE
  8
DETAIL
  6
CONTINUOUS
 62
     5
 10
283.65030000000002
 20
-2.3199999999999932
 30
0.0
 11
283.39999999999992
 21
-2.3999999999999768
 31
0.0
  0
LINE
  8
DETAIL
  6
CONTINUOUS
 62
     5
 10
284.19999999999999
 20
-1.600000000000023
 30
0.0
 11
284.19614999999999
 21
-1.649999999999977
 31
0.0
  0
LINE
  8
DETAIL
  6
CONTINUOUS
 62
     5
 10
284.19614999999999
 20
-1.649999999999977
 30
0.0
 11
284.1846300000002
 21
-1.6999999999999891
 31
0.0
  0
LINE
  8
DETAIL
  6
CONTINUOUS
 62
     5
 10
284.1846300000002
 20
-1.6999999999999891
 30
0.0
 11
284.16554999999988
 21
-1.75
 31
0.0
  0
LINE
  8
DETAIL
  6
CONTINUOUS
 62
     5
 10
284.16554999999988
 20
-1.75
 30
0.0
 11
284.13909999999993
 21
-1.8000000000000109
 31
0.0
  0
LINE
  8
DETAIL
  6
CONTINUOUS
 62
     5
 10
284.13909999999993
 20
-1.8000000000000109
 30
0.0
 11
284.10554000000002
 21
-1.850000000000023
 31
0.0
  0
LINE
  8
DETAIL
  6
CONTINUOUS
 62
     5
 10
284.10554000000002
 20
-1.850000000000023
 30
0.0
 11
284.06517999999983
 21
-1.899999999999977
 31
0.0
  0
LINE
  8
DETAIL
  6
CONTINUOUS
 62
     5
 10
284.06517999999983
 20
-1.899999999999977
 30
0.0
 11
284.01841000000007
 21
-1.9499999999999891
 31
0.0
  0
LINE
  8
DETAIL
  6
CONTINUOUS
 62
     5
 10
284.01841000000007
 20
-1.9499999999999891
 30
0.0
 11
283.96568999999982
 21
-2.0
 31
0.0
  0
LINE
  8
DETAIL
  6
CONTINUOUS
 62
     5
 10
283.96568999999982
 20
-2.0
 30
0.0
 11
283.90751999999998
 21
-2.0500000000000109
 31
0.0
  0
LINE
  8
DETAIL
  6
CONTINUOUS
 62
     5
 10
283.90751999999998
 20
-2.0500000000000109
 30
0.0
 11
283.84446000000003
 21
-2.1000000000000232
 31
0.0
  0
LINE
  8
DETAIL
  6
CONTINUOUS
 62
     5
 10
283.84446000000003
 20
-2.1000000000000232
 30
0.0
 11
283.77712000000002
 21
-2.1499999999999768
 31
0.0
  0
LINE
  8
DETAIL
  6
CONTINUOUS
 62
     5
 10
283.77712000000002
 20
-2.1499999999999768
 30
0.0
 11
283.70614999999998
 21
-2.1999999999999891
 31
0.0
  0
LINE
  8
DETAIL
  6
CONTINUOUS
 62
     5
 10
283.70614999999998
 20
-2.1999999999999891
 30
0.0
 11
283.63222999999971
 21
-2.25
 31
0.0
  0
LINE
  8
DETAIL
  6
CONTINUOUS
 62
     5
 10
283.63222999999971
 20
-2.25
 30
0.0
 11
283.55606999999992
 21
-2.3000000000000109
 31
0.0
  0
LINE
  8
DETAIL
  6
CONTINUOUS
 62
     5
 10
283.55606999999992
 20
-2.3000000000000109
 30
0.0
 11
283.47840999999971
 21
-2.3500000000000232
 31
0.0
  0
LINE
  8
DETAIL
  6
CONTINUOUS
 62
     5
 10
283.47840999999971
 20
-2.3500000000000232
 30
0.0
 11
283.39999999999992
 21
-2.3999999999999768
 31
0.0
  0
LINE
  8
DETAIL
  6
CONTINUOUS
 62
     5
 10
283.39999999999992
 20
-0.8000000000000114
 30
0.0
 11
283.39999999999992
 21
0.0
 31
0.0
  0
ARC
  8
DETAIL
  6
CONTINUOUS
 62
     5
 10
283.39999999999992
 20
-1.600000000000023
 30
0.0
 40
1.6000000000000001
 50
0.0
 51
90.0
  0
ARC
  8
DETAIL
  6
CONTINUOUS
 62
     5
 10
283.39999999999992
 20
-1.600000000000023
 30
0.0
 40
0.8
 50
0.0
 51
90.0
  0
LINE
  8
DETAIL
  6
PHANTOM
 62
     5
 10
328.0
 20
-198.5
 30
0.0
 11
328.0
 21
-29.5
 31
0.0
  0
LINE
  8
DETAIL
  6
PHANTOM
 62
     5
 10
358.0
 20
-187.0
 30
0.0
 11
358.0
 21
-41.0
 31
0.0
  0
LINE
  8
DETAIL
  6
PHANTOM
 62
     5
 10
328.0
 20
-187.0
 30
0.0
 11
358.0
 21
-187.0
 31
0.0
  0
LINE
  8
DETAIL
  6
PHANTOM
 62
     5
 10
434.00243999999998
 20
-163.06982999999991
 30
0.0
 11
435.0
 21
-162.0
 31
0.0
  0
LINE
  8
DETAIL
  6
PHANTOM
 62
     5
 10
434.00243999999998
 20
-64.930169999999976
 30
0.0
 11
435.0
 21
-66.0
 31
0.0
  0
LINE
  8
DETAIL
  6
PHANTOM
 62
     5
 10
388.0
 20
-176.0
 30
0.0
 11
388.0
 21
-52.0
 31
0.0
  0
LINE
  8
DETAIL
  6
PHANTOM
 62
     5
 10
358.0
 20
-176.0
 30
0.0
 11
388.0
 21
-176.0
 31
0.0
  0
LINE
  8
DETAIL
  6
PHANTOM
 62
     5
 10
434.00244199999997
 20
-163.06983199999999
 30
0.0
 11
428.69326699999988
 21
-163.62285899999981
 31
0.0
  0
LINE
  8
DETAIL
  6
PHANTOM
 62
     5
 10
428.69326699999988
 20
-163.62285899999981
 30
0.0
 11
423.22626700000001
 21
-164.16426100000001
 31
0.0
  0
LINE
  8
DETAIL
  6
PHANTOM
 62
     5
 10
423.22626700000001
 20
-164.16426100000001
 30
0.0
 11
417.4436169999999
 21
-164.68241199999991
 31
0.0
  0
LINE
  8
DETAIL
  6
PHANTOM
 62
     5
 10
417.4436169999999
 20
-164.68241199999991
 30
0.0
 11
411.18749000000003
 21
-165.1656879999999
 31
0.0
  0
LINE
  8
DETAIL
  6
PHANTOM
 62
     5
 10
411.18749000000003
 20
-165.1656879999999
 30
0.0
 11
404.3000619999998
 21
-165.60246100000001
 31
0.0
  0
LINE
  8
DETAIL
  6
PHANTOM
 62
     5
 10
404.3000619999998
 20
-165.60246100000001
 30
0.0
 11
396.62350700000002
 21
-165.98110800000001
 31
0.0
  0
LINE
  8
DETAIL
  6
PHANTOM
 62
     5
 10
396.62350700000002
 20
-165.98110800000001
 30
0.0
 11
388.00000099999988
 21
-166.29000300000001
 31
0.0
  0
LINE
  8
DETAIL
  6
PHANTOM
 62
     5
 10
358.0
 20
-52.0
 30
0.0
 11
388.0
 21
-52.0
 31
0.0
  0
LINE
  8
DETAIL
  6
PHANTOM
 62
     5
 10
328.0
 20
-41.0
 30
0.0
 11
358.0
 21
-41.0
 31
0.0
  0
LINE
  8
DETAIL
  6
CONTINUOUS
 62
     5
 10
315.5
 20
-32.0
 30
0.0
 11
315.5
 21
-34.0
 31
0.0
  0
LINE
  8
DETAIL
  6
CONTINUOUS
 62
     5
 10
331.0
 20
-32.0
 30
0.0
 11
331.0
 21
-34.0
 31
0.0
  0
LINE
  8
DETAIL
  6
PHANTOM
 62
     5
 10
434.00244199999997
 20
-64.930172999999968
 30
0.0
 11
428.69326699999988
 21
-64.377145999999982
 31
0.0
  0
LINE
  8
DETAIL
  6
PHANTOM
 62
     5
 10
428.69326699999988
 20
-64.377145999999982
 30
0.0
 11
423.22626700000001
 21
-63.835743999999977
 31
0.0
  0
LINE
  8
DETAIL
  6
PHANTOM
 62
     5
 10
423.22626700000001
 20
-63.835743999999977
 30
0.0
 11
417.4436169999999
 21
-63.317592999999988
 31
0.0
  0
LINE
  8
DETAIL
  6
PHANTOM
 62
     5
 10
417.4436169999999
 20
-63.317592999999988
 30
0.0
 11
411.18749000000003
 21
-62.834318000000003
 31
0.0
  0
LINE
  8
DETAIL
  6
PHANTOM
 62
     5
 10
411.18749000000003
 20
-62.834318000000003
 30
0.0
 11
404.3000619999998
 21
-62.397543999999982
 31
0.0
  0
LINE
  8
DETAIL
  6
PHANTOM
 62
     5
 10
404.3000619999998
 20
-62.397543999999982
 30
0.0
 11
396.62350700000002
 21
-62.018896999999981
 31
0.0
  0
LINE
  8
DETAIL
  6
PHANTOM
 62
     5
 10
396.62350700000002
 20
-62.018896999999981
 30
0.0
 11
388.00000099999988
 21
-61.710003000000029
 31
0.0
  0
LINE
  8
DETAIL
  6
PHANTOM
 62
     5
 10
435.0
 20
-161.99993000000001
 30
0.0
 11
435.0
 21
-66.000080000000025
 31
0.0
  0
LINE
  8
BASIS
  6
CENTER
 62
     6
 10
98.953261999999995
 20
-114.0
 30
0.0
 11
481.84510999999969
 21
-114.0
 31
0.0
  0
LINE
  8
NOTE
  6
CONTINUOUS
 62
     4
 10
-309.0
 20
-53.42966100000001
 30
0.0
 11
-309.0
 21
-13.554579999999991
 31
0.0
  0
LINE
  8
NOTE
  6
CONTINUOUS
 62
     4
 10
309.0
 20
-53.42966100000001
 30
0.0
 11
309.0
 21
-13.554579999999991
 31
0.0
  0
LINE
  8
SIZE
  6
CONTINUOUS
 62
    30
 10
285.0
 20
-191.0466313627557
 30
0.0
 11
285.0
 21
-373.00228299999992
 31
0.0
  0
LINE
  8
SIZE
  6
CONTINUOUS
 62
    30
 10
-285.0
 20
-244.73015014445801
 30
0.0
 11
-285.0
 21
-373.00228299999992
 31
0.0
  0
LINE
  8
SIZE
  6
CONTINUOUS
 62
    30
 10
273.0
 20
-353.00228299999998
 30
0.0
 11
-273.0
 21
-353.00228299999998
 31
0.0
  0
CIRCLE
  8
SIZE
  6
CONTINUOUS
 62
    30
 10
285.0
 20
-353.00228299999998
 30
0.0
 40
6.0
  0
LINE
  8
SIZE
  6
CONTINUOUS
 62
    30
 10
285.0
 20
-353.00228299999998
 30
0.0
 11
273.0
 21
-353.00228299999998
 31
0.0
  0
CIRCLE
  8
SIZE
  6
CONTINUOUS
 62
    30
 10
-285.0
 20
-353.00228299999998
 30
0.0
 40
6.0
  0
LINE
  8
SIZE
  6
CONTINUOUS
 62
    30
 10
-285.0
 20
-353.00228299999998
 30
0.0
 11
-273.0
 21
-353.00228299999998
 31
0.0
  0
TEXT
  8
SIZE
  6
CONTINUOUS
 62
    30
 10
-74.05714285714285
 20
-328.00228299999998
 30
0.0
 40
64.0
  1
570
 41
0.9
 72
     1
 11
0.0
 21
-328.00228299999998
 31
0.0
  0
LINE
  8
SIZE
  6
CONTINUOUS
 62
    30
 10
202.49999999999989
 20
-5.9475100000000234
 30
0.0
 11
202.49999999999989
 21
98.608546000000047
 31
0.0
  0
LINE
  8
SIZE
  6
CONTINUOUS
 62
    30
 10
-202.49999999999989
 20
-5.9475100000000234
 30
0.0
 11
-202.49999999999989
 21
98.608546000000047
 31
0.0
  0
LINE
  8
SIZE
  6
CONTINUOUS
 62
    30
 10
190.5
 20
78.608545999999933
 30
0.0
 11
-190.5
 21
78.608545999999933
 31
0.0
  0
CIRCLE
  8
SIZE
  6
CONTINUOUS
 62
    30
 10
202.49999999999989
 20
78.608545999999933
 30
0.0
 40
6.0
  0
LINE
  8
SIZE
  6
CONTINUOUS
 62
    30
 10
202.49999999999989
 20
78.608545999999933
 30
0.0
 11
190.5
 21
78.608545999999933
 31
0.0
  0
CIRCLE
  8
SIZE
  6
CONTINUOUS
 62
    30
 10
-202.49999999999989
 20
78.608545999999933
 30
0.0
 40
6.0
  0
LINE
  8
SIZE
  6
CONTINUOUS
 62
    30
 10
-202.49999999999989
 20
78.608545999999933
 30
0.0
 11
-190.5
 21
78.608545999999933
 31
0.0
  0
TEXT
  8
SIZE
  6
CONTINUOUS
 62
    30
 10
-74.05714285714285
 20
103.6085459999999
 30
0.0
 40
64.0
  1
405
 41
0.9
 72
     1
 11
0.0
 21
103.6085459999999
 31
0.0
  0
LINE
  8
SIZE
  6
CONTINUOUS
 62
    30
 10
-309.0
 20
6.4454200000000128
 30
0.0
 11
-309.0
 21
218.6085459999999
 31
0.0
  0
LINE
  8
SIZE
  6
CONTINUOUS
 62
    30
 10
309.0
 20
6.4454200000000128
 30
0.0
 11
309.0
 21
218.6085459999999
 31
0.0
  0
LINE
  8
SIZE
  6
CONTINUOUS
 62
    30
 10
-297.0
 20
198.6085459999999
 30
0.0
 11
297.0
 21
198.6085459999999
 31
0.0
  0
CIRCLE
  8
SIZE
  6
CONTINUOUS
 62
    30
 10
-309.0
 20
198.6085459999999
 30
0.0
 40
6.0
  0
LINE
  8
SIZE
  6
CONTINUOUS
 62
    30
 10
-309.0
 20
198.6085459999999
 30
0.0
 11
-297.0
 21
198.6085459999999
 31
0.0
  0
CIRCLE
  8
SIZE
  6
CONTINUOUS
 62
    30
 10
309.0
 20
198.6085459999999
 30
0.0
 40
6.0
  0
LINE
  8
SIZE
  6
CONTINUOUS
 62
    30
 10
309.0
 20
198.6085459999999
 30
0.0
 11
297.0
 21
198.6085459999999
 31
0.0
  0
TEXT
  8
SIZE
  6
CONTINUOUS
 62
    30
 10
-261.11999999999989
 20
223.6085459999999
 30
0.0
 40
64.0
  1
618（天吊位置）
 41
0.9
 72
     1
 11
0.0
 21
223.6085459999999
 31
0.0
  0
LINE
  8
SIZE
  6
CONTINUOUS
 62
    30
 10
-292.5
 20
-194.5553593367485
 30
0.0
 11
-292.5
 21
-493.00228299999992
 31
0.0
  0
LINE
  8
SIZE
  6
CONTINUOUS
 62
    30
 10
292.5
 20
-194.78927293076319
 30
0.0
 11
292.5
 21
-493.00228299999992
 31
0.0
  0
LINE
  8
SIZE
  6
CONTINUOUS
 62
    30
 10
-280.5
 20
-473.00228299999998
 30
0.0
 11
280.5
 21
-473.00228299999998
 31
0.0
  0
CIRCLE
  8
SIZE
  6
CONTINUOUS
 62
    30
 10
-292.5
 20
-473.00228299999998
 30
0.0
 40
6.0
  0
LINE
  8
SIZE
  6
CONTINUOUS
 62
    30
 10
-292.5
 20
-473.00228299999998
 30
0.0
 11
-280.5
 21
-473.00228299999998
 31
0.0
  0
CIRCLE
  8
SIZE
  6
CONTINUOUS
 62
    30
 10
292.5
 20
-473.00228299999998
 30
0.0
 40
6.0
  0
LINE
  8
SIZE
  6
CONTINUOUS
 62
    30
 10
292.5
 20
-473.00228299999998
 30
0.0
 11
280.5
 21
-473.00228299999998
 31
0.0
  0
TEXT
  8
SIZE
  6
CONTINUOUS
 62
    30
 10
-110.5371428571429
 20
-448.00228299999998
 30
0.0
 40
64.0
  1
□585
 41
0.9
 72
     1
 11
0.0
 21
-448.00228299999998
 31
0.0
  0
CIRCLE
  8
FIX
  6
CONTINUOUS
 62
    11
 10
309.0
 20
-32.0
 30
0.0
 40
2.0
  0
CIRCLE
  8
FIX
  6
CONTINUOUS
 62
    11
 10
-309.0
 20
-32.0
 30
0.0
 40
2.0
  0
LINE
  8
SIZE
  6
CONTINUOUS
 62
    30
 10
-322.95857699999988
 20
-114.0
 30
0.0
 11
-500.19679699999989
 21
-114.0
 31
0.0
  0
LINE
  8
SIZE
  6
CONTINUOUS
 62
    30
 10
-311.49069800000001
 20
0.0
 30
0.0
 11
-500.19679699999989
 21
0.0
 31
0.0
  0
LINE
  8
SIZE
  6
CONTINUOUS
 62
    30
 10
-480.19679699999989
 20
-102.0
 30
0.0
 11
-480.19679699999989
 21
-12.0
 31
0.0
  0
LINE
  8
SIZE
  6
CONTINUOUS
 62
    30
 10
-480.19679699999989
 20
0.0
 30
0.0
 11
-480.19679699999989
 21
190.91428599999989
 31
0.0
  0
CIRCLE
  8
SIZE
  6
CONTINUOUS
 62
    30
 10
-480.19679699999989
 20
-114.0
 30
0.0
 40
6.0
  0
LINE
  8
SIZE
  6
CONTINUOUS
 62
    30
 10
-480.19679699999989
 20
-114.0
 30
0.0
 11
-480.19679699999989
 21
-102.0
 31
0.0
  0
CIRCLE
  8
SIZE
  6
CONTINUOUS
 62
    30
 10
-480.19679699999989
 20
0.0
 30
0.0
 40
6.0
  0
LINE
  8
SIZE
  6
CONTINUOUS
 62
    30
 10
-480.19679699999989
 20
0.0
 30
0.0
 11
-480.19679699999989
 21
-12.0
 31
0.0
  0
TEXT
  8
SIZE
  6
CONTINUOUS
 62
    30
 10
-505.19679699999989
 20
37.000000142856997
 30
0.0
 40
64.0
  1
114
 50
90.0
 41
0.9
 72
     1
 11
-505.19679699999989
 21
101.4571429999999
 31
0.0
  0
LINE
  8
SIZE
  6
CONTINUOUS
 62
    30
 10
-311.49069800000001
 20
0.0
 30
0.0
 11
-620.19679699999995
 21
0.0
 31
0.0
  0
LINE
  8
SIZE
  6
CONTINUOUS
 62
    30
 10
-600.19679699999995
 20
-12.0
 30
0.0
 11
-600.19679699999995
 21
-210.80000000000001
 31
0.0
  0
CIRCLE
  8
SIZE
  6
CONTINUOUS
 62
    30
 10
-600.19679699999995
 20
0.0
 30
0.0
 40
6.0
  0
LINE
  8
SIZE
  6
CONTINUOUS
 62
    30
 10
-600.19679699999995
 20
0.0
 30
0.0
 11
-600.19679699999995
 21
-12.0
 31
0.0
  0
CIRCLE
  8
SIZE
  6
CONTINUOUS
 62
    30
 10
-600.19679699999995
 20
-222.80000000000001
 30
0.0
 40
6.0
  0
LINE
  8
SIZE
  6
CONTINUOUS
 62
    30
 10
-600.19679699999995
 20
-222.80000000000001
 30
0.0
 11
-600.19679699999995
 21
-210.80000000000001
 31
0.0
  0
TEXT
  8
SIZE
  6
CONTINUOUS
 62
    30
 10
-625.19679699999995
 20
-185.11428585714279
 30
0.0
 40
64.0
  1
223
 50
90.0
 41
0.9
 72
     1
 11
-625.19679699999995
 21
-111.057143
 31
0.0
  0
LINE
  8
SIZE
  6
CONTINUOUS
 62
    30
 10
311.01604461569968
 20
0.0
 30
0.0
 11
1021.388041
 21
0.0
 31
0.0
  0
LINE
  8
SIZE
  6
CONTINUOUS
 62
    30
 10
231.90006191844711
 20
-246.80000000000001
 30
0.0
 11
1021.388041
 21
-246.80000000000001
 31
0.0
  0
LINE
  8
SIZE
  6
CONTINUOUS
 62
    30
 10
1001.388041
 20
-12.0
 30
0.0
 11
1001.388041
 21
-234.80000000000001
 31
0.0
  0
CIRCLE
  8
SIZE
  6
CONTINUOUS
 62
    30
 10
1001.388041
 20
0.0
 30
0.0
 40
6.0
  0
LINE
  8
SIZE
  6
CONTINUOUS
 62
    30
 10
1001.388041
 20
0.0
 30
0.0
 11
1001.388041
 21
-12.0
 31
0.0
  0
CIRCLE
  8
SIZE
  6
CONTINUOUS
 62
    30
 10
1001.388041
 20
-246.80000000000001
 30
0.0
 40
6.0
  0
LINE
  8
SIZE
  6
CONTINUOUS
 62
    30
 10
1001.388041
 20
-246.80000000000001
 30
0.0
 11
1001.388041
 21
-234.80000000000001
 31
0.0
  0
TEXT
  8
SIZE
  6
CONTINUOUS
 62
    30
 10
976.38804100000016
 20
-188.05714285714279
 30
0.0
 40
64.0
  1
247
 50
90.0
 41
0.9
 72
     1
 11
976.38804100000016
 21
-114.0
 31
0.0
  0
TEXT
  8
NOTE
  6
CONTINUOUS
 62
     4
 10
-233.91086899999991
 20
-139.72279199999991
 30
0.0
 40
40.0
  1
EA
 41
0.9
  0
TEXT
  8
NOTE
  6
CONTINUOUS
 62
     4
 10
497.17119000000002
 20
-228.59232399999999
 30
0.0
 40
40.0
  1
OA2 RA2
 50
90.0
 41
0.9
  0
LINE
  8
SIZE
  6
CONTINUOUS
 62
    30
 10
449.43488135502889
 20
-65.0
 30
0.0
 11
661.38804100000016
 21
-65.0
 31
0.0
  0
LINE
  8
SIZE
  6
CONTINUOUS
 62
    30
 10
451.77501490334248
 20
-163.0
 30
0.0
 11
661.38804100000016
 21
-163.0
 31
0.0
  0
LINE
  8
SIZE
  6
CONTINUOUS
 62
    30
 10
641.38804100000016
 20
-77.0
 30
0.0
 11
641.38804100000016
 21
-151.0
 31
0.0
  0
LINE
  8
SIZE
  6
CONTINUOUS
 62
    30
 10
641.38804100000016
 20
-163.0
 30
0.0
 11
641.38804100000016
 21
-472.06791699999991
 31
0.0
  0
CIRCLE
  8
SIZE
  6
CONTINUOUS
 62
    30
 10
641.38804100000016
 20
-65.0
 30
0.0
 40
6.0
  0
LINE
  8
SIZE
  6
CONTINUOUS
 62
    30
 10
641.38804100000016
 20
-65.0
 30
0.0
 11
641.38804100000016
 21
-77.0
 31
0.0
  0
CIRCLE
  8
SIZE
  6
CONTINUOUS
 62
    30
 10
641.38804100000016
 20
-163.0
 30
0.0
 40
6.0
  0
LINE
  8
SIZE
  6
CONTINUOUS
 62
    30
 10
641.38804100000016
 20
-163.0
 30
0.0
 11
641.38804100000016
 21
-151.0
 31
0.0
  0
TEXT
  8
SIZE
  6
CONTINUOUS
 62
    30
 10
616.38804100000016
 20
-458.58791742857142
 30
0.0
 40
64.0
  1
φ98
 50
90.0
 41
0.9
 72
     1
 11
616.38804100000016
 21
-371.63934599999988
 31
0.0
  0
LINE
  8
SIZE
  6
CONTINUOUS
 62
    30
 10
400.29209737926789
 20
-52.0
 30
0.0
 11
781.38804100000016
 21
-52.0
 31
0.0
  0
LINE
  8
SIZE
  6
CONTINUOUS
 62
    30
 10
398.88802135804781
 20
-176.0
 30
0.0
 11
781.38804100000016
 21
-176.0
 31
0.0
  0
LINE
  8
SIZE
  6
CONTINUOUS
 62
    30
 10
761.38804100000016
 20
-64.0
 30
0.0
 11
761.38804100000016
 21
-164.0
 31
0.0
  0
LINE
  8
SIZE
  6
CONTINUOUS
 62
    30
 10
761.38804100000016
 20
-176.0
 30
0.0
 11
761.38804100000016
 21
-509.07074799999992
 31
0.0
  0
CIRCLE
  8
SIZE
  6
CONTINUOUS
 62
    30
 10
761.38804100000016
 20
-52.0
 30
0.0
 40
6.0
  0
LINE
  8
SIZE
  6
CONTINUOUS
 62
    30
 10
761.38804100000016
 20
-52.0
 30
0.0
 11
761.38804100000016
 21
-64.0
 31
0.0
  0
CIRCLE
  8
SIZE
  6
CONTINUOUS
 62
    30
 10
761.38804100000016
 20
-176.0
 30
0.0
 40
6.0
  0
LINE
  8
SIZE
  6
CONTINUOUS
 62
    30
 10
761.38804100000016
 20
-176.0
 30
0.0
 11
761.38804100000016
 21
-164.0
 31
0.0
  0
TEXT
  8
SIZE
  6
CONTINUOUS
 62
    30
 10
736.38804100000016
 20
-495.59074714285708
 30
0.0
 40
64.0
  1
φ124
 50
90.0
 41
0.9
 72
     1
 11
736.38804100000016
 21
-385.32789000000002
 31
0.0
  0
LINE
  8
SIZE
  6
CONTINUOUS
 62
    30
 10
366.12616708577752
 20
-187.0
 30
0.0
 11
901.38804100000016
 21
-187.0
 31
0.0
  0
LINE
  8
SIZE
  6
CONTINUOUS
 62
    30
 10
367.53024310699863
 20
-41.0
 30
0.0
 11
901.38804100000016
 21
-41.0
 31
0.0
  0
LINE
  8
SIZE
  6
CONTINUOUS
 62
    30
 10
881.38804100000016
 20
-53.0
 30
0.0
 11
881.38804100000016
 21
-175.0
 31
0.0
  0
LINE
  8
SIZE
  6
CONTINUOUS
 62
    30
 10
881.38804100000016
 20
-187.0
 30
0.0
 11
881.38804100000016
 21
-506.32789000000002
 31
0.0
  0
CIRCLE
  8
SIZE
  6
CONTINUOUS
 62
    30
 10
881.38804100000016
 20
-41.0
 30
0.0
 40
6.0
  0
LINE
  8
SIZE
  6
CONTINUOUS
 62
    30
 10
881.38804100000016
 20
-41.0
 30
0.0
 11
881.38804100000016
 21
-53.0
 31
0.0
  0
CIRCLE
  8
SIZE
  6
CONTINUOUS
 62
    30
 10
881.38804100000016
 20
-187.0
 30
0.0
 40
6.0
  0
LINE
  8
SIZE
  6
CONTINUOUS
 62
    30
 10
881.38804100000016
 20
-187.0
 30
0.0
 11
881.38804100000016
 21
-175.0
 31
0.0
  0
TEXT
  8
SIZE
  6
CONTINUOUS
 62
    30
 10
856.38804100000016
 20
-492.84789000000001
 30
0.0
 40
64.0
  1
φ146
 50
90.0
 41
0.9
 72
     1
 11
856.38804100000016
 21
-385.32789000000002
 31
0.0
  0
TEXT
  8
ETC
  6
CONTINUOUS
 62
    61
 10
662.85682941567393
 20
262.70427273815142
 30
0.0
 40
50.0
  1
VL-15ZMH4-L
 41
0.9
  0
TEXT
  8
ETC
  6
CONTINUOUS
 62
    61
 10
539.05721944654806
 20
428.5443402450876
 30
0.0
 40
64.0
  1
VL-15ZMH4-L_3
 41
0.9
  0
TEXT
  8
ETC
  6
CONTINUOUS
 62
    61
 10
534.87122544654767
 20
335.89678481729612
 30
0.0
 40
64.0
  1
換気扇
 41
0.9
  0
CIRCLE
  8
ARRANGE
  6
CONTINUOUS
 62
     1
 10
0.0
 20
0.0
 30
0.0
 40
40.0
  0
POINT
  8
ARRANGE
  6
CONTINUOUS
 62
     1
 10
0.0
 20
0.0
 30
0.0
  0
LINE
  8
OUTLINE
  6
CONTINUOUS
 62
     3
 10
287.0
 20
0.0
 30
0.0
 11
0.0
 21
0.0
 31
0.0
  0
LINE
  8
BASIS
  6
CENTER
 62
     6
 10
-202.49999999999989
 20
-207.02256299999991
 30
0.0
 11
-202.49999999999989
 21
-25.947510000000019
 31
0.0
  0
LINE
  8
OUTLINE
  6
CONTINUOUS
 62
     3
 10
-286.55943999999982
 20
-197.0597799999999
 30
0.0
 11
-285.0
 21
-199.2868999999998
 31
0.0
  0
ARC
  8
OUTLINE
  6
CONTINUOUS
 62
     3
 10
-281.91001470657682
 20
-193.91585266768141
 30
0.0
 40
5.6126152912674252
 50
173.70044989254751
 51
214.0664560320983
  0
LINE
  8
BASIS
  6
CENTER
 62
     6
 10
-302.95857699999999
 20
-114.0
 30
0.0
 11
-105.69669500000001
 21
-114.0
 31
0.0
  0
LINE
  8
OUTLINE
  6
CONTINUOUS
 62
     3
 10
-285.0
 20
0.0
 30
0.0
 11
0.0
 21
0.0
 31
0.0
  0
LINE
  8
OUTLINE
  6
CONTINUOUS
 62
     3
 10
-285.0
 20
-132.27566688249661
 30
0.0
 11
-285.0
 21
-185.30000000000001
 31
0.0
  0
LINE
  8
OUTLINE
  6
CONTINUOUS
 62
     3
 10
-285.0
 20
-185.30000000000001
 30
0.0
 11
-291.60000000000002
 21
-185.30000000000001
 31
0.0
  0
LINE
  8
BASIS
  6
CENTER
 62
     6
 10
202.49999999999989
 20
-204.807278
 30
0.0
 11
202.49999999999989
 21
-25.947510000000019
 31
0.0
  0
LINE
  8
OUTLINE
  6
CONTINUOUS
 62
     3
 10
287.0
 20
-185.30000000000001
 30
0.0
 11
291.71253000000002
 21
-185.30000000000001
 31
0.0
  0
LINE
  8
DETAIL
  6
CONTINUOUS
 62
     5
 10
292.5
 20
-190.30000000000001
 30
0.0
 11
292.5
 21
-186.1999999999999
 31
0.0
  0
ARC
  8
DETAIL
  6
CONTINUOUS
 62
     5
 10
289.5
 20
-190.30000000000001
 30
0.0
 40
3.0
 50
270.0
 51
0.0
  0
ARC
  8
DETAIL
  6
CONTINUOUS
 62
     5
 10
-289.54064107971038
 20
-190.30000000000001
 30
0.0
 40
3.0
 50
181.00014385206771
 51
270.0
  0
ARC
  8
DETAIL
  6
CONTINUOUS
 62
     5
 10
291.59999999999991
 20
-186.1999999999999
 30
0.0
 40
0.9
 50
0.0
 51
90.0
  0
LINE
  8
OUTLINE
  6
CONTINUOUS
 62
     3
 10
287.0
 20
-185.30000000000001
 30
0.0
 11
291.59999999999991
 21
-185.30000000000001
 31
0.0
  0
LINE
  8
OUTLINE
  6
CONTINUOUS
 62
     3
 10
292.49999999999977
 20
-190.30000000000001
 30
0.0
 11
292.5
 21
-186.1999999999999
 31
0.0
  0
LINE
  8
OUTLINE
  6
CONTINUOUS
 62
     3
 10
288.48874000000001
 20
-193.30000000000001
 30
0.0
 11
289.5
 21
-193.30000000000001
 31
0.0
  0
LINE
  8
OUTLINE
  6
CONTINUOUS
 62
     3
 10
288.48874000000001
 20
-193.30000000000001
 30
0.0
 11
288.44905999999992
 21
-195.57337000000001
 31
0.0
  0
LINE
  8
OUTLINE
  6
CONTINUOUS
 62
     3
 10
288.44905999999992
 20
-195.57337000000001
 30
0.0
 11
274.16364822040492
 21
-220.30115768925469
 31
0.0
  0
LINE
  8
OUTLINE
  6
CONTINUOUS
 62
     3
 10
-239.1999999999999
 20
-222.80000000000001
 30
0.0
 11
76.586697975418019
 21
-222.800000000002
 31
0.0
  0
ARC
  8
OUTLINE
  6
CONTINUOUS
 62
     3
 10
269.83418980006172
 20
-217.80000000000001
 30
0.0
 40
5.0
 50
270.0
 51
329.9846803964565
  0
ARC
  8
OUTLINE
  6
CONTINUOUS
 62
     3
 10
289.5
 20
-190.30000000000001
 30
0.0
 40
3.0
 50
270.0
 51
0.0
  0
ARC
  8
OUTLINE
  6
CONTINUOUS
 62
     3
 10
291.59999999999991
 20
-186.1999999999999
 30
0.0
 40
0.9
 50
0.0
 51
90.0
  0
LINE
  8
OUTLINE
  6
CONTINUOUS
 62
     3
 10
-287.48874000000001
 20
-193.30000000000001
 30
0.0
 11
-289.49999999999989
 21
-193.30000000000001
 31
0.0
  0
LINE
  8
OUTLINE
  6
CONTINUOUS
 62
     3
 10
-292.5
 20
-190.30000000000001
 30
0.0
 11
-292.5
 21
-186.1999999999999
 31
0.0
  0
ARC
  8
OUTLINE
  6
CONTINUOUS
 62
     3
 10
-291.60000000000002
 20
-186.1999999999999
 30
0.0
 40
0.9
 50
90.0
 51
180.0
  0
ARC
  8
OUTLINE
  6
CONTINUOUS
 62
     3
 10
-289.49999999999989
 20
-190.30000000000001
 30
0.0
 40
3.0
 50
180.0
 51
270.0
  0
CIRCLE
  8
DETAIL
  6
CONTINUOUS
 62
     5
 10
202.49999999999989
 20
-114.0
 30
0.0
 40
47.0
  0
CIRCLE
  8
DETAIL
  6
CONTINUOUS
 62
     5
 10
202.49999999999989
 20
-114.0
 30
0.0
 40
49.0
  0
CIRCLE
  8
DETAIL
  6
CONTINUOUS
 62
     5
 10
202.49999999999989
 20
-114.0
 30
0.0
 40
62.0
  0
ARC
  8
DETAIL
  6
CONTINUOUS
 62
     5
 10
202.49999999999989
 20
-114.0
 30
0.0
 40
73.0
 50
211.86274956866831
 51
328.13725043133172
  0
LINE
  8
DETAIL
  6
CONTINUOUS
 62
     5
 10
140.5
 20
-152.53569773599531
 30
0.0
 11
140.5
 21
-75.46430226400463
 31
0.0
  0
LINE
  8
DETAIL
  6
CONTINUOUS
 62
     5
 10
264.5
 20
-152.53569773599531
 30
0.0
 11
264.5
 21
-75.46430226400463
 31
0.0
  0
ARC
  8
DETAIL
  6
CONTINUOUS
 62
     5
 10
202.49999999999989
 20
-114.0
 30
0.0
 40
73.0
 50
31.862749568668299
 51
148.13725043133169
  0
CIRCLE
  8
DETAIL
  6
CONTINUOUS
 62
     5
 10
-202.49999999999989
 20
-114.0
 30
0.0
 40
47.0
  0
CIRCLE
  8
DETAIL
  6
CONTINUOUS
 62
     5
 10
-202.49999999999989
 20
-114.0
 30
0.0
 40
49.0
  0
CIRCLE
  8
DETAIL
  6
CONTINUOUS
 62
     5
 10
-202.49999999999989
 20
-114.0
 30
0.0
 40
62.0
  0
ARC
  8
DETAIL
  6
CONTINUOUS
 62
     5
 10
-202.49999999999989
 20
-114.0
 30
0.0
 40
73.0
 50
31.862749568668299
 51
148.13725043133169
  0
LINE
  8
DETAIL
  6
CONTINUOUS
 62
     5
 10
-264.5
 20
-75.46430226400463
 30
0.0
 11
-264.5
 21
-152.53569773599531
 31
0.0
  0
LINE
  8
DETAIL
  6
CONTINUOUS
 62
     5
 10
-140.5
 20
-75.46430226400463
 30
0.0
 11
-140.5
 21
-152.53569773599531
 31
0.0
  0
ARC
  8
DETAIL
  6
CONTINUOUS
 62
     5
 10
-202.49999999999989
 20
-114.0
 30
0.0
 40
73.0
 50
211.86274956866831
 51
328.13725043133172
  0
LINE
  8
DETAIL
  6
CONTINUOUS
 62
     5
 10
-285.0
 20
-238.9999999999998
 30
0.0
 11
-239.1999999999999
 21
-238.9999999999998
 31
0.0
  0
LINE
  8
NOTE
  6
CONTINUOUS
 62
     4
 10
-295.0
 20
-229.9999999999998
 30
0.0
 11
-275.0
 21
-229.9999999999998
 31
0.0
  0
LINE
  8
NOTE
  6
CONTINUOUS
 62
     4
 10
-285.0
 20
-239.99999999999989
 30
0.0
 11
-285.0
 21
-219.9999999999998
 31
0.0
  0
TEXT
  8
NOTE
  6
CONTINUOUS
 62
     4
 10
-495.61354286667938
 20
-374.3427145420888
 30
0.0
 40
64.0
  1
EL
 41
0.9
  0
LINE
  8
NOTE
  6
CONTINUOUS
 62
     4
 10
-309.04016712847567
 20
-261.96983522689692
 30
0.0
 11
-404.79991334628971
 21
-389.31600930264631
 31
0.0
1001
ACAD
1000
DSTYLE
1002
{
1070
    41
1040
40.0
1070
    42
1040
20.0
1070
    43
1040
200.0
1070
    44
1040
20.0
1070
    73
1070
     0
1070
    74
1070
     0
1070
    77
1070
     0
1070
    78
1070
     8
1070
   140
1040
64.0
1070
   147
1040
25.0
1070
   172
1070
     1
1070
   174
1070
     1
1070
   176
1070
   256
1070
   177
1070
   256
1070
   178
1070
   256
1002
}
  0
LINE
  8
NOTE
  6
CONTINUOUS
 62
     4
 10
-404.79991334628971
 20
-389.31600930264631
 30
0.0
 11
-505.91199384582148
 21
-389.31600930264631
 31
0.0
1001
ACAD
1000
DSTYLE
1002
{
1070
    41
1040
40.0
1070
    42
1040
20.0
1070
    43
1040
200.0
1070
    44
1040
20.0
1070
    73
1070
     0
1070
    74
1070
     0
1070
    77
1070
     0
1070
    78
1070
     8
1070
   140
1040
64.0
1070
   147
1040
25.0
1070
   172
1070
     1
1070
   174
1070
     1
1070
   176
1070
   256
1070
   177
1070
   256
1070
   178
1070
   256
1002
}
  0
LINE
  8
NOTE
  6
CONTINUOUS
 62
     4
 10
-317.6064585819563
 20
-255.52829191735711
 30
0.0
 11
-285.0
 21
-229.9999999999998
 31
0.0
  0
LINE
  8
NOTE
  6
CONTINUOUS
 62
     4
 10
-285.0
 20
-229.9999999999998
 30
0.0
 11
-300.47387567499533
 21
-268.41137853643659
 31
0.0
  0
LINE
  8
NOTE
  6
CONTINUOUS
 62
     4
 10
-285.0
 20
-229.9999999999998
 30
0.0
 11
-309.0401671284759
 21
-261.96983522689692
 31
0.0
  0
LINE
  8
SIZE
  6
CONTINUOUS
 62
    30
 10
-281.21848105401199
 20
-223.0
 30
0.0
 11
-620.19679699999995
 21
-223.0
 31
0.0
  0
CIRCLE
  8
SIZE
  6
CONTINUOUS
 62
    30
 10
-723.11572784235875
 20
0.0000000000000568
 30
0.0
 40
6.0
  0
CIRCLE
  8
SIZE
  6
CONTINUOUS
 62
    30
 10
-723.11572784235875
 20
-238.99999999999969
 30
0.0
 40
6.0
  0
LINE
  8
SIZE
  6
CONTINUOUS
 62
    30
 10
-620.19679699999995
 20
0.0
 30
0.0
 11
-743.11572784235875
 21
0.0000000000000568
 31
0.0
  0
LINE
  8
SIZE
  6
CONTINUOUS
 62
    30
 10
-305.0
 20
-238.9999999999998
 30
0.0
 11
-743.11572784235875
 21
-238.99999999999969
 31
0.0
  0
LINE
  8
SIZE
  6
CONTINUOUS
 62
    30
 10
-723.11572784235875
 20
0.0000000000000568
 30
0.0
 11
-723.11572784235875
 21
-238.99999999999969
 31
0.0
  0
TEXT
  8
SIZE
  6
CONTINUOUS
 62
    30
 10
-748.11572784235875
 20
-192.18571428571431
 30
0.0
 40
64.0
  1
239
 50
90.0
 41
0.9
  0
TEXT
  8
ETC
  6
CONTINUOUS
 62
    61
 10
662.85682941567393
 20
180.35542024890759
 30
0.0
 40
50.0
  1
VL-20ZMH4-L
 41
0.9
  0
ARC
  8
OUTLINE
  6
CONTINUOUS
 62
     3
 10
-202.49999999999989
 20
-114.0
 30
0.0
 40
84.500000000000014
 50
167.50936229657799
 51
192.49063770342201
  0
LINE
  8
OUTLINE
  6
CONTINUOUS
 62
     3
 10
-285.0
 20
-199.2868999999998
 30
0.0
 11
-285.0
 21
-238.9999999999998
 31
0.0
  0
LINE
  8
OUTLINE
  6
CONTINUOUS
 62
     3
 10
-239.1999999999999
 20
-222.80000000000001
 30
0.0
 11
-239.1999999999999
 21
-238.9999999999998
 31
0.0
  0
LINE
  8
OUTLINE
  6
CONTINUOUS
 62
     3
 10
93.814979999999991
 20
-246.80000000000001
 30
0.0
 11
218.52393000000009
 21
-246.80000000000001
 31
0.0
  0
LINE
  8
OUTLINE
  6
CONTINUOUS
 62
     3
 10
228.63890779532491
 20
-230.30000000000001
 30
0.0
 11
266.20864999999998
 21
-230.30000000000001
 31
0.0
  0
LINE
  8
OUTLINE
  6
CONTINUOUS
 62
     3
 10
75.778699999999958
 20
-234.80872999999991
 30
0.0
 11
75.586850000000027
 21
-223.81746000000001
 31
0.0
  0
ARC
  8
OUTLINE
  6
CONTINUOUS
 62
     3
 10
93.814979999999991
 20
-236.80000000000001
 30
0.0
 40
10.0
 50
180.99999999999531
 51
270.0
  0
LINE
  8
OUTLINE
  6
CONTINUOUS
 62
     3
 10
83.295929999999998
 20
-235.30000000000001
 30
0.0
 11
76.278620000000046
 21
-235.30000000000001
 31
0.0
  0
LINE
  8
OUTLINE
  6
CONTINUOUS
 62
     3
 10
83.795805424224909
 20
-235.78883934339169
 30
0.0
 11
83.816500000000019
 21
-236.97452999999999
 31
0.0
  0
ARC
  8
OUTLINE
  6
CONTINUOUS
 62
     3
 10
76.278620000000046
 20
-234.80000000000001
 30
0.0
 40
0.5
 50
180.99999999999531
 51
270.0
  0
ARC
  8
OUTLINE
  6
CONTINUOUS
 62
     3
 10
83.295929999999998
 20
-235.80000000000001
 30
0.0
 40
0.5
 50
1.0000189999976019
 51
90.0
  0
ARC
  8
OUTLINE
  6
CONTINUOUS
 62
     3
 10
76.586699999999951
 20
-223.80000000000001
 30
0.0
 40
1.0
 50
90.000115999999949
 51
180.99999800000049
  0
ARC
  8
OUTLINE
  6
CONTINUOUS
 62
     3
 10
218.52393000000009
 20
-236.80000000000001
 30
0.0
 40
10.0
 50
270.0
 51
358.99999999999818
  0
LINE
  8
OUTLINE
  6
CONTINUOUS
 62
     3
 10
228.52239999999981
 20
-236.97452999999999
 30
0.0
 11
228.63890779532491
 21
-230.30000000000001
 31
0.0
  0
LINE
  8
OUTLINE
  6
CONTINUOUS
 62
     3
 10
266.70857999999998
 20
-229.80872999999991
 30
0.0
 11
266.81315000000001
 21
-223.81746000000001
 31
0.0
  0
ARC
  8
OUTLINE
  6
CONTINUOUS
 62
     3
 10
266.20864999999998
 20
-229.80000000000001
 30
0.0
 40
0.5
 50
270.0
 51
358.99999999999818
  0
ARC
  8
OUTLINE
  6
CONTINUOUS
 62
     3
 10
265.81330000000003
 20
-223.80000000000001
 30
0.0
 40
1.0
 50
359.00000199999948
 51
89.999884000000051
  0
LINE
  8
OUTLINE
  6
CONTINUOUS
 62
     3
 10
287.0
 20
-185.30000000000001
 30
0.0
 11
287.0
 21
0.0
 31
0.0
  0
LINE
  8
OUTLINE
  6
CONTINUOUS
 62
     3
 10
-285.0
 20
-238.9999999999998
 30
0.0
 11
-239.1999999999999
 21
-238.9999999999998
 31
0.0
  0
LINE
  8
OUTLINE
  6
CONTINUOUS
 62
     3
 10
265.81330000000003
 20
-222.80000000000001
 30
0.0
 11
269.83418980006172
 21
-222.80000000000001
 31
0.0
  0
LINE
  8
OUTLINE
  6
CONTINUOUS
 62
     3
 10
-285.0
 20
0.0
 30
0.0
 11
-285.0
 21
-95.724333117503363
 31
0.0
  0
ENDSEC
  0
EOF
