  0
SECTION
  2
HEADER
  9
$ACADVER
  1
AC1009
  9
$DWGCODEPAGE
  3
dos932
  9
$INSBASE
 10
0.0
 20
0.0
 30
0.0
  9
$EXTMIN
 10
-706.51701234341454
 20
-543.13658508837398
 30
-0.0015258207003583
  9
$EXTMAX
 10
1289.767467928777
 20
469.43665338847308
 30
0.0000000349246037
  9
$LIMMIN
 10
-2970.0
 20
-2100.0
  9
$LIMMAX
 10
2970.0
 20
2100.0
  9
$ORTHOMODE
 70
     1
  9
$REGENMODE
 70
     1
  9
$FILLMODE
 70
     1
  9
$QTEXTMODE
 70
     0
  9
$MIRRTEXT
 70
     0
  9
$LTSCALE
 40
20.0
  9
$ATTMODE
 70
     1
  9
$TEXTSIZE
 40
64.0
  9
$TRACEWID
 40
0.05
  9
$TEXTSTYLE
  7
STANDARD
  9
$CLAYER
  8
SIZE
  9
$CELTYPE
  6
CONTINUOUS
  9
$CECOLOR
 62
     7
  9
$DIMSCALE
 40
1.0
  9
$DIMASZ
 40
12.0
  9
$DIMEXO
 40
20.0
  9
$DIMDLI
 40
200.0
  9
$DIMRND
 40
0.0
  9
$DIMDLE
 40
0.0
  9
$DIMEXE
 40
20.0
  9
$DIMTP
 40
0.0
  9
$DIMTM
 40
0.0
  9
$DIMTXT
 40
64.0
  9
$DIMCEN
 40
0.09
  9
$DIMTSZ
 40
0.0
  9
$DIMTOL
 70
     0
  9
$DIMLIM
 70
     0
  9
$DIMTIH
 70
     0
  9
$DIMTOH
 70
     0
  9
$DIMSE1
 70
     0
  9
$DIMSE2
 70
     0
  9
$DIMTAD
 70
     1
  9
$DIMZIN
 70
     8
  9
$DIMBLK
  1

  9
$DIMASO
 70
     1
  9
$DIMSHO
 70
     0
  9
$DIMPOST
  1

  9
$DIMAPOST
  1

  9
$DIMALT
 70
     0
  9
$DIMALTD
 70
     2
  9
$DIMALTF
 40
25.399999999999999
  9
$DIMLFAC
 40
1.0
  9
$DIMTOFL
 70
     1
  9
$DIMTVP
 40
0.0
  9
$DIMTIX
 70
     1
  9
$DIMSOXD
 70
     0
  9
$DIMSAH
 70
     0
  9
$DIMBLK1
  1

  9
$DIMBLK2
  1

  9
$DIMSTYLE
  2
STANDARD
  9
$DIMCLRD
 70
     7
  9
$DIMCLRE
 70
     7
  9
$DIMCLRT
 70
     7
  9
$DIMTFAC
 40
1.0
  9
$DIMGAP
 40
25.0
  9
$LUNITS
 70
     2
  9
$LUPREC
 70
     4
  9
$SKETCHINC
 40
0.1
  9
$FILLETRAD
 40
3.0
  9
$AUNITS
 70
     1
  9
$AUPREC
 70
     3
  9
$MENU
  1
ACAD
  9
$ELEVATION
 40
0.0
  9
$PELEVATION
 40
0.0
  9
$THICKNESS
 40
0.0
  9
$LIMCHECK
 70
     0
  9
$CHAMFERA
 40
0.0
  9
$CHAMFERB
 40
0.0
  9
$SKPOLY
 70
     0
  9
$TDCREATE
 40
2453019.62301037
  9
$TDUPDATE
 40
2459019.506807512
  9
$TDINDWG
 40
1.7136849653
  9
$TDUSRTIMER
 40
1.7136849653
  9
$USRTIMER
 70
     1
  9
$ANGBASE
 50
0.0
  9
$ANGDIR
 70
     0
  9
$PDMODE
 70
     3
  9
$PDSIZE
 40
-2.0
  9
$PLINEWID
 40
0.0
  9
$SPLFRAME
 70
     0
  9
$SPLINETYPE
 70
     6
  9
$SPLINESEGS
 70
     8
  9
$SURFTAB1
 70
     6
  9
$SURFTAB2
 70
     6
  9
$SURFTYPE
 70
     6
  9
$SURFU
 70
     6
  9
$SURFV
 70
     6
  9
$UCSNAME
  2

  9
$UCSORG
 10
0.0
 20
0.0
 30
0.0
  9
$UCSXDIR
 10
1.0
 20
0.0
 30
0.0
  9
$UCSYDIR
 10
0.0
 20
1.0
 30
0.0
  9
$PUCSNAME
  2

  9
$PUCSORG
 10
0.0
 20
0.0
 30
0.0
  9
$PUCSXDIR
 10
1.0
 20
0.0
 30
0.0
  9
$PUCSYDIR
 10
0.0
 20
1.0
 30
0.0
  9
$USERI1
 70
     0
  9
$USERI2
 70
     0
  9
$USERI3
 70
     0
  9
$USERI4
 70
     0
  9
$USERI5
 70
     0
  9
$USERR1
 40
20.0
  9
$USERR2
 40
0.0
  9
$USERR3
 40
0.0
  9
$USERR4
 40
0.0
  9
$USERR5
 40
0.0
  9
$WORLDVIEW
 70
     1
  9
$SHADEDGE
 70
     3
  9
$SHADEDIF
 70
    70
  9
$TILEMODE
 70
     1
  9
$MAXACTVP
 70
    48
  9
$PINSBASE
 10
0.0
 20
0.0
 30
0.0
  9
$PLIMCHECK
 70
     0
  9
$PEXTMIN
 10
-100000000000000000000.0
 20
-100000000000000000000.0
 30
-100000000000000000000.0
  9
$PEXTMAX
 10
100000000000000000000.0
 20
100000000000000000000.0
 30
100000000000000000000.0
  9
$PLIMMIN
 10
0.0
 20
0.0
  9
$PLIMMAX
 10
12.0
 20
9.0
  9
$UNITMODE
 70
     0
  9
$VISRETAIN
 70
     0
  9
$PLINEGEN
 70
     0
  9
$PSLTSCALE
 70
     0
  9
$TREEDEPTH
 70
  3020
  9
$ATTDIA
 70
     0
  9
$ATTREQ
 70
     1
  9
$BLIPMODE
 70
     1
  9
$COORDS
 70
     1
  9
$DRAGMODE
 70
     2
  9
$OSMODE
 70
     0
  9
$HANDLING
 70
     0
  9
$HANDSEED
  5
FFEB
  0
ENDSEC
  0
SECTION
  2
TABLES
  0
TABLE
  2
LTYPE
 70
     4
  0
LTYPE
  2
CONTINUOUS
 70
     0
  3
実線
 72
    65
 73
     0
 40
0.0
  0
LTYPE
  2
DASHDOT
 70
     0
  3
____ _ ____ _ ____ _ ____ _ ____ _ ____ _ ____
 72
    65
 73
     4
 40
5.5
 49
4.0
 49
-0.6
 49
0.3
 49
-0.6
  0
LTYPE
  2
CENTER
 70
     0
  3
Center ____ _ ____ _ ____ _ ____ _ ____ _ ____
 72
    65
 73
     4
 40
1.0
 49
0.5
 49
-0.25
 49
0.0
 49
-0.25
  0
LTYPE
  2
PHANTOM
 70
     0
  3
Phantom ______  __  __  ______  __  __  ______
 72
    65
 73
     6
 40
2.5
 49
1.25
 49
-0.25
 49
0.25
 49
-0.25
 49
0.25
 49
-0.25
  0
ENDTAB
  0
TABLE
  2
LAYER
 70
    12
  0
LAYER
  2
0
 70
     0
 62
     7
  6
CONTINUOUS
  0
LAYER
  2
BASIS
 70
     0
 62
     6
  6
DASHDOT
  0
LAYER
  2
OUTLINE
 70
     0
 62
     3
  6
CONTINUOUS
  0
LAYER
  2
DETAIL
 70
     0
 62
     5
  6
CONTINUOUS
  0
LAYER
  2
SIZE
 70
     0
 62
    30
  6
CONTINUOUS
  0
LAYER
  2
ARRANGE
 70
     0
 62
     1
  6
CONTINUOUS
  0
LAYER
  2
ETC
 70
     0
 62
    61
  6
CONTINUOUS
  0
LAYER
  2
FIX
 70
     0
 62
    11
  6
CONTINUOUS
  0
LAYER
  2
NOTE
 70
     0
 62
     4
  6
CONTINUOUS
  0
LAYER
  2
DEFPOINTS
 70
    64
 62
     7
  6
CONTINUOUS
  0
LAYER
  2
SERVICESPACE
 70
    64
 62
     2
  6
DASHDOT
  0
LAYER
  2
SYMBOLLINE
 70
    64
 62
    15
  6
CONTINUOUS
  0
ENDTAB
  0
TABLE
  2
STYLE
 70
     1
  0
STYLE
  2
STANDARD
 70
     0
 40
64.0
 41
0.9
 50
0.0
 71
     0
 42
64.0
  3
SIMPLEX.shx
  4
BIGFONT.shx
  0
ENDTAB
  0
TABLE
  2
APPID
 70
    19
  0
APPID
  2
ACAD
 70
     0
  0
APPID
  2
AUTOCAD_POSTSCRIPT_FIGURE
 70
     0
  0
APPID
  2
ACAD_EXEMPT_FROM_CAD_STANDARDS
 70
     0
  0
APPID
  2
ACAD_PSEXT
 70
     0
  0
APPID
  2
ACAUTHENVIRON
 70
     0
  0
APPID
  2
GENIUS_GENOENT_13
 70
     0
  0
APPID
  2
GENIUS_GENCFG_13
 70
     0
  0
APPID
  2
GENIUS_GENCFG0_13
 70
     0
  0
APPID
  2
GENIUS_GENCFG1_13
 70
     0
  0
APPID
  2
GENIUS_GENCFG2_13
 70
     0
  0
APPID
  2
GENIUS_GENCFG3_13
 70
     0
  0
APPID
  2
GENIUS_GENCFG4_13
 70
     0
  0
APPID
  2
GENIUS_GEVCFG0_13
 70
     0
  0
APPID
  2
CONTENTBLOCKICON
 70
     0
  0
APPID
  2
CONTENTBLOCKDESCRIPTION
 70
     0
  0
APPID
  2
ACAD_NAV_VCDISPLAY
 70
     0
  0
APPID
  2
ACAD_MLEADERVER
 70
     0
  0
APPID
  2
ACDBDYNAMICBLOCKTRUENAME
 70
     0
  0
APPID
  2
ACDBDYNAMICBLOCKGUID
 70
     0
  0
ENDTAB
  0
TABLE
  2
DIMSTYLE
 70
     1
  0
DIMSTYLE
  2
STANDARD
 70
     0
  3

  4

  5
_ORIGIN
  6

  7

 40
1.0
 41
12.0
 42
20.0
 43
200.0
 44
20.0
 45
0.0
 46
0.0
 47
0.0
 48
0.0
140
64.0
141
0.09
142
0.0
143
25.399999999999999
144
1.0
145
0.0
146
1.0
147
25.0
 71
     0
 72
     0
 73
     0
 74
     0
 75
     0
 76
     0
 77
     1
 78
     8
170
     0
171
     2
172
     1
173
     0
174
     1
175
     0
176
     7
177
     7
178
     7
  0
ENDTAB
  0
TABLE
  2
VIEW
 70
     1
  0
VIEW
  2
ALL
 70
     0
 40
4282.6198079999986
 10
0.0
 20
41.309904000000003
 41
5940.0
 11
0.0
 21
0.0
 31
1.0
 12
0.0
 22
0.0
 32
0.0
 42
50.0
 43
0.0
 44
0.0
 50
0.0
 71
     0
  0
ENDTAB
  0
TABLE
  2
UCS
 70
     0
  0
ENDTAB
  0
TABLE
  2
VPORT
 70
     1
  0
VPORT
  2
*ACTIVE
 70
     0
 10
0.0
 20
0.0
 11
1.0
 21
1.0
 12
291.62522779268159
 22
-36.849965849950422
 13
0.0
 23
0.0
 14
1.0
 24
1.0
 15
0.0
 25
0.0
 16
0.0
 26
0.0
 36
1.0
 17
0.0
 27
0.0
 37
0.0
 40
1146.5105477533759
 41
1.747787610619469
 42
50.0
 43
0.0
 44
0.0
 50
0.0
 51
0.0
 71
     0
 72
  1000
 73
     1
 74
     3
 75
     0
 76
     0
 77
     0
 78
     0
  0
ENDTAB
  0
ENDSEC
  0
SECTION
  2
BLOCKS
  0
BLOCK
  8
0
  2
_ORIGIN
 70
     0
 10
0.0
 20
0.0
 30
0.0
  3
_ORIGIN
  1
_ORIGIN
  0
CIRCLE
  8
0
  6
CONTINUOUS
 62
     7
 10
0.0
 20
0.0
 30
0.0
 40
0.5
  0
LINE
  8
0
  6
CONTINUOUS
 62
     7
 10
0.0
 20
0.0
 30
0.0
 11
-1.0
 21
0.0
 31
0.0
  0
ENDBLK
  8
0
  0
ENDSEC
  0
SECTION
  2
ENTITIES
  0
CIRCLE
  8
ARRANGE
  6
CONTINUOUS
 62
     1
 10
0.0
 20
0.0
 30
0.0
 40
40.0
  0
POINT
  8
ARRANGE
  6
CONTINUOUS
 62
     1
 10
0.0
 20
0.0
 30
0.0
  0
LINE
  8
BASIS
  6
CENTER
 62
     6
 10
0.0
 20
-240.753567
 30
0.0
 11
0.0
 21
50.62944600000003
 31
0.0
  0
LINE
  8
BASIS
  6
CENTER
 62
     6
 10
-461.00003299999997
 20
-114.0
 30
0.0
 11
-104.1646929999999
 21
-114.0
 31
0.0
  0
LINE
  8
BASIS
  6
CENTER
 62
     6
 10
105.490337
 20
-114.0
 30
0.0
 11
483.84510999999998
 21
-114.0
 31
0.0
  0
TEXT
  8
NOTE
  6
CONTINUOUS
 62
     4
 10
-477.80895199999992
 20
-181.88510600000001
 30
0.0
 40
40.0
  1
EA OA1
 50
90.0
 41
0.9
  0
LINE
  8
DETAIL
  6
CONTINUOUS
 62
     5
 10
219.88502000000011
 20
-246.80000000000001
 30
0.0
 11
-219.88502000000011
 21
-246.80000000000001
 31
0.0
  0
LINE
  8
DETAIL
  6
CONTINUOUS
 62
     5
 10
-257.61229999999989
 20
-222.80000000000001
 30
0.0
 11
257.61229999999989
 21
-222.80000000000001
 31
0.0
  0
LINE
  8
DETAIL
  6
CONTINUOUS
 62
     5
 10
137.27234999999999
 20
-232.30000000000001
 30
0.0
 11
7.5
 21
-232.29930999999999
 31
0.0
  0
LINE
  8
DETAIL
  6
CONTINUOUS
 62
     5
 10
75.570280000000025
 20
-185.5
 30
0.0
 11
154.966679
 21
-185.5
 31
0.0
  0
LINE
  8
DETAIL
  6
CONTINUOUS
 62
     5
 10
-210.40000000000001
 20
0.0
 30
0.0
 11
210.40000000000001
 21
0.0
 31
0.0
  0
LINE
  8
DETAIL
  6
CONTINUOUS
 62
     5
 10
-195.40000000000001
 20
-24.0
 30
0.0
 11
-195.40000000000001
 21
-30.0
 31
0.0
  0
LINE
  8
DETAIL
  6
CONTINUOUS
 62
     5
 10
-197.40000000000001
 20
-30.0
 30
0.0
 11
-197.40000000000001
 21
-24.0
 31
0.0
  0
LINE
  8
DETAIL
  6
CONTINUOUS
 62
     5
 10
-200.40000000000001
 20
-32.0
 30
0.0
 11
-200.40000000000001
 21
-10.0
 31
0.0
  0
LINE
  8
DETAIL
  6
CONTINUOUS
 62
     5
 10
-340.39999999999992
 20
-32.0
 30
0.0
 11
-340.39999999999992
 21
-10.0
 31
0.0
  0
LINE
  8
DETAIL
  6
CONTINUOUS
 62
     5
 10
-343.39999999999992
 20
-30.0
 30
0.0
 11
-343.39999999999992
 21
-24.0
 31
0.0
  0
LINE
  8
DETAIL
  6
CONTINUOUS
 62
     5
 10
-345.39999999999992
 20
-30.0
 30
0.0
 11
-345.39999999999992
 21
-24.0
 31
0.0
  0
LINE
  8
DETAIL
  6
CONTINUOUS
 62
     5
 10
-352.29624999999987
 20
-32.0
 30
0.0
 11
-187.75459000000001
 21
-32.0
 31
0.0
  0
LINE
  8
DETAIL
  6
CONTINUOUS
 62
     5
 10
-352.29624999999987
 20
-34.0
 30
0.0
 11
-187.75459000000001
 21
-34.0
 31
0.0
  0
LINE
  8
DETAIL
  6
CONTINUOUS
 62
     5
 10
-238.0
 20
-228.80000000000001
 30
0.0
 11
-257.0261799999999
 21
-228.80000000000001
 31
0.0
  0
LINE
  8
DETAIL
  6
CONTINUOUS
 62
     5
 10
-291.64664499999992
 20
-185.5
 30
0.0
 11
-245.033321
 21
-185.5
 31
0.0
  0
LINE
  8
DETAIL
  6
CONTINUOUS
 62
     5
 10
-435.00243999999992
 20
-163.06982999999991
 30
0.0
 11
-389.0
 21
-166.28999999999999
 31
0.0
  0
LINE
  8
DETAIL
  6
CONTINUOUS
 62
     5
 10
-435.00243999999992
 20
-64.930169999999976
 30
0.0
 11
-389.0
 21
-61.70999999999998
 31
0.0
  0
LINE
  8
DETAIL
  6
CONTINUOUS
 62
     5
 10
-436.0
 20
-162.0
 30
0.0
 11
-436.0
 21
-66.0
 31
0.0
  0
LINE
  8
DETAIL
  6
CONTINUOUS
 62
     5
 10
-435.00243999999992
 20
-163.06982999999991
 30
0.0
 11
-436.0
 21
-162.0
 31
0.0
  0
LINE
  8
DETAIL
  6
CONTINUOUS
 62
     5
 10
-435.00243999999992
 20
-64.930169999999976
 30
0.0
 11
-436.0
 21
-66.0
 31
0.0
  0
LINE
  8
DETAIL
  6
CONTINUOUS
 62
     5
 10
-288.0
 20
-178.5
 30
0.0
 11
-288.0
 21
-60.5
 31
0.0
  0
LINE
  8
DETAIL
  6
CONTINUOUS
 62
     5
 10
-359.0
 20
-187.0
 30
0.0
 11
-359.0
 21
-41.0
 31
0.0
  0
LINE
  8
DETAIL
  6
CONTINUOUS
 62
     5
 10
-329.0
 20
-198.5
 30
0.0
 11
-329.0
 21
-34.0
 31
0.0
  0
LINE
  8
DETAIL
  6
CONTINUOUS
 62
     5
 10
-389.0
 20
-176.0
 30
0.0
 11
-389.0
 21
-52.0
 31
0.0
  0
LINE
  8
DETAIL
  6
CONTINUOUS
 62
     5
 10
-329.0
 20
-187.0
 30
0.0
 11
-359.0
 21
-187.0
 31
0.0
  0
LINE
  8
DETAIL
  6
CONTINUOUS
 62
     5
 10
-359.0
 20
-176.0
 30
0.0
 11
-389.0
 21
-176.0
 31
0.0
  0
LINE
  8
DETAIL
  6
CONTINUOUS
 62
     5
 10
-261.69429000000002
 20
-220.85035999999991
 30
0.0
 11
-273.6737399999999
 21
-195.89318
 31
0.0
  0
LINE
  8
DETAIL
  6
CONTINUOUS
 62
     5
 10
-257.0261799999999
 20
-228.80000000000001
 30
0.0
 11
-257.11315000000002
 21
-223.81746000000001
 31
0.0
  0
ARC
  8
DETAIL
  6
CONTINUOUS
 62
     5
 10
-256.11329999999992
 20
-223.80000000000001
 30
0.0
 40
1.0
 50
90.0
 51
180.99999800000049
  0
ARC
  8
DETAIL
  6
CONTINUOUS
 62
     5
 10
-257.61229999999989
 20
-217.80000000000001
 30
0.0
 40
5.0
 50
216.98576700000191
 51
270.0
  0
ARC
  8
DETAIL
  6
CONTINUOUS
 62
     5
 10
-257.61229999999989
 20
-217.80000000000001
 30
0.0
 40
5.0
 50
205.64100600000279
 51
208.6424840000029
  0
LINE
  8
DETAIL
  6
CONTINUOUS
 62
     5
 10
-288.0
 20
-198.5
 30
0.0
 11
-329.0
 21
-198.5
 31
0.0
  0
LINE
  8
DETAIL
  6
CONTINUOUS
 62
     5
 10
-288.0
 20
-198.5
 30
0.0
 11
-288.0
 21
-178.5
 31
0.0
  0
ARC
  8
DETAIL
  6
CONTINUOUS
 62
     5
 10
-270.96917000000002
 20
-194.59499
 30
0.0
 40
3.0
 50
181.00000000000179
 51
205.64100600000279
  0
LINE
  8
DETAIL
  6
CONTINUOUS
 62
     5
 10
-273.96870999999987
 20
-194.64734999999999
 30
0.0
 11
-273.97158999999982
 21
-194.48255
 31
0.0
  0
LINE
  8
DETAIL
  6
CONTINUOUS
 62
     5
 10
-289.54664500000001
 20
-193.5
 30
0.0
 11
-274.97143999999992
 21
-193.5
 31
0.0
  0
ARC
  8
DETAIL
  6
CONTINUOUS
 62
     5
 10
-274.97143999999992
 20
-194.5
 30
0.0
 40
1.0
 50
0.9999569999975704
 51
90.0
  0
LINE
  8
DETAIL
  6
CONTINUOUS
 62
     5
 10
-329.0
 20
-41.0
 30
0.0
 11
-359.0
 21
-41.0
 31
0.0
  0
LINE
  8
DETAIL
  6
CONTINUOUS
 62
     5
 10
-359.0
 20
-52.0
 30
0.0
 11
-389.0
 21
-52.0
 31
0.0
  0
ARC
  8
DETAIL
  6
CONTINUOUS
 62
     5
 10
-341.39999999999992
 20
-30.0
 30
0.0
 40
2.0
 50
180.0
 51
270.0
  0
ARC
  8
DETAIL
  6
CONTINUOUS
 62
     5
 10
-341.39999999999992
 20
-30.0
 30
0.0
 40
4.0
 50
180.0
 51
210.00000000000011
  0
LINE
  8
DETAIL
  6
CONTINUOUS
 62
     5
 10
-352.29624999999987
 20
-34.0
 30
0.0
 11
-352.29624999999987
 21
-32.0
 31
0.0
  0
LINE
  8
DETAIL
  6
CONTINUOUS
 62
     5
 10
-296.7999999999999
 20
-35.306429999999978
 30
0.0
 11
-296.7999999999999
 21
-35.300000000000011
 31
0.0
  0
LINE
  8
DETAIL
  6
CONTINUOUS
 62
     5
 10
-296.30000000000001
 20
-35.331380000000017
 30
0.0
 11
-296.30000000000001
 21
-35.300000000000011
 31
0.0
  0
LINE
  8
DETAIL
  6
CONTINUOUS
 62
     5
 10
-288.0
 20
-60.5
 30
0.0
 11
-288.0
 21
-34.0
 31
0.0
  0
LINE
  8
DETAIL
  6
CONTINUOUS
 62
     5
 10
-7.7276500000000397
 20
-232.30000000000001
 30
0.0
 11
-90.5
 21
-232.30000000000001
 31
0.0
  0
LINE
  8
DETAIL
  6
CONTINUOUS
 62
     5
 10
-152.7276599999999
 20
-232.30000000000001
 30
0.0
 11
-211.5
 21
-232.30000000000001
 31
0.0
  0
ARC
  8
DETAIL
  6
CONTINUOUS
 62
     5
 10
-219.88502000000011
 20
-236.80000000000001
 30
0.0
 40
10.0
 50
181.00000000000179
 51
270.0
  0
LINE
  8
DETAIL
  6
CONTINUOUS
 62
     5
 10
-212.5
 20
-230.30000000000001
 30
0.0
 11
-237.5
 21
-230.30000000000001
 31
0.0
  0
LINE
  8
DETAIL
  6
CONTINUOUS
 62
     5
 10
-229.99141999999989
 20
-230.79127999999989
 30
0.0
 11
-229.88348999999999
 21
-236.97452999999999
 31
0.0
  0
LINE
  8
DETAIL
  6
CONTINUOUS
 62
     5
 10
-238.0
 20
-228.80000000000001
 30
0.0
 11
-238.0
 21
-229.80000000000001
 31
0.0
  0
ARC
  8
DETAIL
  6
CONTINUOUS
 62
     5
 10
-230.49135000000001
 20
-230.80000000000001
 30
0.0
 40
0.5
 50
1.0000000000017759
 51
90.0
  0
ARC
  8
DETAIL
  6
CONTINUOUS
 62
     5
 10
-237.5
 20
-229.80000000000001
 30
0.0
 40
0.5
 50
180.0
 51
270.0
  0
LINE
  8
DETAIL
  6
CONTINUOUS
 62
     5
 10
-212.0
 20
-231.80000000000001
 30
0.0
 11
-212.0
 21
-230.80000999999999
 31
0.0
  0
ARC
  8
DETAIL
  6
CONTINUOUS
 62
     5
 10
-211.5
 20
-231.80000000000001
 30
0.0
 40
0.5
 50
180.0
 51
270.0
  0
ARC
  8
DETAIL
  6
CONTINUOUS
 62
     5
 10
-212.5
 20
-230.80000000000001
 30
0.0
 40
0.5
 50
359.99924299999941
 51
90.0
  0
LINE
  8
DETAIL
  6
CONTINUOUS
 62
     5
 10
-90.500409999999988
 20
-232.16315
 30
0.0
 11
-137.72765000000001
 21
-232.30000000000001
 31
0.0
  0
LINE
  8
DETAIL
  6
CONTINUOUS
 62
     5
 10
-137.72765000000001
 20
-232.30000000000001
 30
0.0
 11
-152.5
 21
-232.29930999999999
 31
0.0
  0
LINE
  8
DETAIL
  6
CONTINUOUS
 62
     5
 10
-152.5
 20
-232.29930999999999
 30
0.0
 11
-152.72765000000001
 21
-232.30000000000001
 31
0.0
  0
ARC
  8
DETAIL
  6
CONTINUOUS
 62
     5
 10
-199.39999999999981
 20
-30.0
 30
0.0
 40
2.0
 50
270.0
 51
0.0
  0
ARC
  8
DETAIL
  6
CONTINUOUS
 62
     5
 10
-199.39999999999981
 20
-30.0
 30
0.0
 40
4.0
 50
329.99999999999989
 51
0.0
  0
LINE
  8
DETAIL
  6
CONTINUOUS
 62
     5
 10
-187.75459000000001
 20
-34.0
 30
0.0
 11
-187.75459000000001
 21
-32.0
 31
0.0
  0
LINE
  8
DETAIL
  6
CONTINUOUS
 62
     5
 10
7.2723499999999603
 20
-232.30000000000001
 30
0.0
 11
-7.5
 21
-232.29930999999999
 31
0.0
  0
LINE
  8
DETAIL
  6
CONTINUOUS
 62
     5
 10
-73.008799999999951
 20
-193.5
 30
0.0
 11
72.91551000000004
 21
-193.5
 31
0.0
  0
LINE
  8
DETAIL
  6
CONTINUOUS
 62
     5
 10
-72.511160000000018
 20
-192.0386399999999
 30
0.0
 11
-72.50816999999995
 21
-192.0713299999999
 31
0.0
  0
LINE
  8
DETAIL
  6
CONTINUOUS
 62
     5
 10
-72.50816999999995
 20
-192.0713299999999
 30
0.0
 11
-72.506869999999935
 21
-192.10614000000001
 31
0.0
  0
LINE
  8
DETAIL
  6
CONTINUOUS
 62
     5
 10
-72.570730000000026
 20
-188.44765000000001
 30
0.0
 11
-72.5
 21
-192.5
 31
0.0
  0
LINE
  8
DETAIL
  6
CONTINUOUS
 62
     5
 10
-72.5
 20
-192.5
 30
0.0
 11
-72.508879999999976
 21
-193.00873000000001
 31
0.0
  0
ARC
  8
DETAIL
  6
CONTINUOUS
 62
     5
 10
-73.008799999999951
 20
-193.0
 30
0.0
 40
0.5
 50
270.0
 51
358.99999199999968
  0
ARC
  8
DETAIL
  6
CONTINUOUS
 62
     5
 10
-75.570280000000025
 20
-188.4999999999998
 30
0.0
 40
3.0
 50
1.0000000000017759
 51
90.0
  0
LINE
  8
DETAIL
  6
CONTINUOUS
 62
     5
 10
72.508879999999976
 20
-193.00873000000001
 30
0.0
 11
72.5
 21
-192.5
 31
0.0
  0
LINE
  8
DETAIL
  6
CONTINUOUS
 62
     5
 10
72.5
 20
-192.5
 30
0.0
 11
72.570740000000001
 21
-188.44765000000001
 31
0.0
  0
LINE
  8
DETAIL
  6
CONTINUOUS
 62
     5
 10
72.506880000000024
 20
-192.10614000000001
 30
0.0
 11
72.508100000000013
 21
-192.07243
 31
0.0
  0
LINE
  8
DETAIL
  6
CONTINUOUS
 62
     5
 10
72.508100000000013
 20
-192.07243
 30
0.0
 11
72.510940000000005
 21
-192.04035999999999
 31
0.0
  0
LINE
  8
DETAIL
  6
CONTINUOUS
 62
     5
 10
72.510940000000005
 20
-192.04035999999999
 30
0.0
 11
72.516009999999937
 21
-192.01009999999999
 31
0.0
  0
ARC
  8
DETAIL
  6
CONTINUOUS
 62
     5
 10
73.008799999999951
 20
-193.0
 30
0.0
 40
0.5
 50
181.00036600000041
 51
270.0
  0
ARC
  8
DETAIL
  6
CONTINUOUS
 62
     5
 10
75.570280000000025
 20
-188.4999999999998
 30
0.0
 40
3.0
 50
90.0
 51
178.99999999999821
  0
LINE
  8
DETAIL
  6
CONTINUOUS
 62
     5
 10
-330.39999999999992
 20
0.0
 30
0.0
 11
-210.40000000000001
 21
0.0
 31
0.0
  0
ARC
  8
DETAIL
  6
CONTINUOUS
 62
     5
 10
-330.39999999999992
 20
-10.0
 30
0.0
 40
10.0
 50
90.0
 51
180.0
  0
LINE
  8
DETAIL
  6
CONTINUOUS
 62
     5
 10
-345.39999999999992
 20
-24.0
 30
0.0
 11
-343.39999999999992
 21
-24.0
 31
0.0
  0
CIRCLE
  8
DETAIL
  6
CONTINUOUS
 62
     5
 10
-324.71746000000002
 20
-12.899970000000049
 30
0.0
 40
3.0
  0
CIRCLE
  8
DETAIL
  6
CONTINUOUS
 62
     5
 10
-284.71746000000002
 20
-12.899970000000049
 30
0.0
 40
3.0
  0
CIRCLE
  8
DETAIL
  6
CONTINUOUS
 62
     5
 10
-254.71745999999999
 20
-12.899970000000049
 30
0.0
 40
3.0
  0
ARC
  8
DETAIL
  6
CONTINUOUS
 62
     5
 10
-210.40000000000001
 20
-10.0
 30
0.0
 40
10.0
 50
0.0
 51
90.0
  0
CIRCLE
  8
DETAIL
  6
CONTINUOUS
 62
     5
 10
-214.71745999999999
 20
-12.899970000000049
 30
0.0
 40
3.0
  0
LINE
  8
DETAIL
  6
CONTINUOUS
 62
     5
 10
-197.40000000000001
 20
-24.0
 30
0.0
 11
-195.40000000000001
 21
-24.0
 31
0.0
  0
LINE
  8
DETAIL
  6
CONTINUOUS
 62
     5
 10
197.40000000000001
 20
-30.0
 30
0.0
 11
197.40000000000001
 21
-24.0
 31
0.0
  0
LINE
  8
DETAIL
  6
CONTINUOUS
 62
     5
 10
195.40000000000001
 20
-30.0
 30
0.0
 11
195.40000000000001
 21
-24.0
 31
0.0
  0
LINE
  8
DETAIL
  6
CONTINUOUS
 62
     5
 10
345.39999999999992
 20
-24.0
 30
0.0
 11
345.39999999999992
 21
-30.0
 31
0.0
  0
LINE
  8
DETAIL
  6
CONTINUOUS
 62
     5
 10
343.39999999999992
 20
-30.0
 30
0.0
 11
343.39999999999992
 21
-24.0
 31
0.0
  0
LINE
  8
DETAIL
  6
CONTINUOUS
 62
     5
 10
340.39999999999992
 20
-32.0
 30
0.0
 11
340.39999999999992
 21
-10.0
 31
0.0
  0
LINE
  8
DETAIL
  6
CONTINUOUS
 62
     5
 10
200.40000000000001
 20
-32.0
 30
0.0
 11
200.40000000000001
 21
-10.0
 31
0.0
  0
LINE
  8
DETAIL
  6
CONTINUOUS
 62
     5
 10
434.90915000000001
 20
-163.06982999999991
 30
0.0
 11
388.90670999999998
 21
-166.28999999999999
 31
0.0
  0
LINE
  8
DETAIL
  6
CONTINUOUS
 62
     5
 10
434.90915000000001
 20
-64.930169999999976
 30
0.0
 11
388.90670999999998
 21
-61.70999999999998
 31
0.0
  0
LINE
  8
DETAIL
  6
CONTINUOUS
 62
     5
 10
199.39999999999989
 20
-34.0
 30
0.0
 11
284.39999999999992
 21
-34.0
 31
0.0
  0
LINE
  8
DETAIL
  6
CONTINUOUS
 62
     5
 10
189.0935299999999
 20
-32.0
 30
0.0
 11
351.76364999999993
 21
-32.0
 31
0.0
  0
LINE
  8
DETAIL
  6
CONTINUOUS
 62
     5
 10
189.0935299999999
 20
-34.0
 30
0.0
 11
351.76364999999993
 21
-34.0
 31
0.0
  0
ARC
  8
DETAIL
  6
CONTINUOUS
 62
     5
 10
257.61229999999989
 20
-217.80000000000001
 30
0.0
 40
5.0
 50
270.0
 51
334.35899399999721
  0
LINE
  8
DETAIL
  6
CONTINUOUS
 62
     5
 10
211.5
 20
-232.30000000000001
 30
0.0
 11
152.5
 21
-232.29930999999999
 31
0.0
  0
LINE
  8
DETAIL
  6
CONTINUOUS
 62
     5
 10
152.5
 20
-232.29930999999999
 30
0.0
 11
152.27234999999979
 21
-232.30000000000001
 31
0.0
  0
LINE
  8
DETAIL
  6
CONTINUOUS
 62
     5
 10
137.5
 20
-232.29930999999999
 30
0.0
 11
137.27234999999999
 21
-232.30000000000001
 31
0.0
  0
LINE
  8
DETAIL
  6
CONTINUOUS
 62
     5
 10
152.27234999999979
 20
-232.30000000000001
 30
0.0
 11
137.5
 21
-232.29930999999999
 31
0.0
  0
LINE
  8
DETAIL
  6
CONTINUOUS
 62
     5
 10
237.5
 20
-230.30000000000001
 30
0.0
 11
212.5
 21
-230.30000000000001
 31
0.0
  0
LINE
  8
DETAIL
  6
CONTINUOUS
 62
     5
 10
212.0
 20
-230.80000999999999
 30
0.0
 11
212.0
 21
-231.80000000000001
 31
0.0
  0
ARC
  8
DETAIL
  6
CONTINUOUS
 62
     5
 10
211.5
 20
-231.80000000000001
 30
0.0
 40
0.5
 50
270.0
 51
0.0
  0
ARC
  8
DETAIL
  6
CONTINUOUS
 62
     5
 10
212.5
 20
-230.80000000000001
 30
0.0
 40
0.5
 50
90.0
 51
180.00075800000201
  0
ARC
  8
DETAIL
  6
CONTINUOUS
 62
     5
 10
219.88502000000011
 20
-236.80000000000001
 30
0.0
 40
10.0
 50
270.0
 51
358.99999999999818
  0
LINE
  8
DETAIL
  6
CONTINUOUS
 62
     5
 10
238.0
 20
-228.80000000000001
 30
0.0
 11
257.02617999999973
 21
-228.80000000000001
 31
0.0
  0
LINE
  8
DETAIL
  6
CONTINUOUS
 62
     5
 10
238.0
 20
-228.80000000000001
 30
0.0
 11
238.0
 21
-229.80000000000001
 31
0.0
  0
LINE
  8
DETAIL
  6
CONTINUOUS
 62
     5
 10
229.99143000000001
 20
-230.79127999999989
 30
0.0
 11
229.88349999999991
 21
-236.97452999999999
 31
0.0
  0
ARC
  8
DETAIL
  6
CONTINUOUS
 62
     5
 10
230.49135000000001
 20
-230.80000000000001
 30
0.0
 40
0.5
 50
90.0
 51
178.9999960000022
  0
ARC
  8
DETAIL
  6
CONTINUOUS
 62
     5
 10
237.5
 20
-229.80000000000001
 30
0.0
 40
0.5
 50
270.0
 51
0.0
  0
LINE
  8
DETAIL
  6
CONTINUOUS
 62
     5
 10
257.11315000000002
 20
-223.81746000000001
 30
0.0
 11
257.02617999999973
 21
-228.80000000000001
 31
0.0
  0
ARC
  8
DETAIL
  6
CONTINUOUS
 62
     5
 10
256.11331000000001
 20
-223.80000000000001
 30
0.0
 40
1.0
 50
358.99999999999818
 51
90.0
  0
ARC
  8
DETAIL
  6
CONTINUOUS
 62
     5
 10
199.39999999999989
 20
-30.0
 30
0.0
 40
4.0
 50
180.0
 51
210.00000000000011
  0
LINE
  8
DETAIL
  6
CONTINUOUS
 62
     5
 10
189.0935299999999
 20
-32.0
 30
0.0
 11
189.0935299999999
 21
-34.0
 31
0.0
  0
ARC
  8
DETAIL
  6
CONTINUOUS
 62
     5
 10
199.39999999999989
 20
-30.0
 30
0.0
 40
2.0
 50
180.0
 51
270.0
  0
LINE
  8
DETAIL
  6
CONTINUOUS
 62
     5
 10
287.90670999999998
 20
-178.5
 30
0.0
 11
287.90670999999998
 21
-60.5
 31
0.0
  0
LINE
  8
DETAIL
  6
CONTINUOUS
 62
     5
 10
358.90670999999998
 20
-187.0
 30
0.0
 11
358.90670999999998
 21
-41.0
 31
0.0
  0
LINE
  8
DETAIL
  6
CONTINUOUS
 62
     5
 10
328.90670999999998
 20
-198.5
 30
0.0
 11
328.90670999999998
 21
-34.0
 31
0.0
  0
LINE
  8
DETAIL
  6
CONTINUOUS
 62
     5
 10
388.90670999999998
 20
-176.0
 30
0.0
 11
388.90670999999998
 21
-52.0
 31
0.0
  0
LINE
  8
DETAIL
  6
CONTINUOUS
 62
     5
 10
328.90670999999998
 20
-187.0
 30
0.0
 11
358.90670999999998
 21
-187.0
 31
0.0
  0
LINE
  8
DETAIL
  6
CONTINUOUS
 62
     5
 10
273.67374000000001
 20
-195.89318
 30
0.0
 11
262.11991
 21
-219.96366
 31
0.0
  0
ARC
  8
DETAIL
  6
CONTINUOUS
 62
     5
 10
257.61229999999989
 20
-217.80000000000001
 30
0.0
 40
5.0
 50
331.35753999999588
 51
334.35899399999721
  0
LINE
  8
DETAIL
  6
CONTINUOUS
 62
     5
 10
287.90670999999998
 20
-198.5
 30
0.0
 11
328.90670999999998
 21
-198.5
 31
0.0
  0
LINE
  8
DETAIL
  6
CONTINUOUS
 62
     5
 10
287.90670999999998
 20
-198.5
 30
0.0
 11
287.90670999999998
 21
-178.5
 31
0.0
  0
LINE
  8
DETAIL
  6
CONTINUOUS
 62
     5
 10
274.97143999999992
 20
-193.5
 30
0.0
 11
289.45335499999987
 21
-193.4999999999998
 31
0.0
  0
ARC
  8
DETAIL
  6
CONTINUOUS
 62
     5
 10
270.96917000000008
 20
-194.59499
 30
0.0
 40
3.0
 50
334.35899399999721
 51
358.99999999999818
  0
LINE
  8
DETAIL
  6
CONTINUOUS
 62
     5
 10
273.96872000000008
 20
-194.64734999999999
 30
0.0
 11
273.97158999999988
 21
-194.48255
 31
0.0
  0
ARC
  8
DETAIL
  6
CONTINUOUS
 62
     5
 10
274.97143999999992
 20
-194.5
 30
0.0
 40
1.0
 50
90.0
 51
179.0000419999985
  0
LINE
  8
DETAIL
  6
CONTINUOUS
 62
     5
 10
358.90670999999998
 20
-176.0
 30
0.0
 11
388.90670999999998
 21
-176.0
 31
0.0
  0
LINE
  8
DETAIL
  6
CONTINUOUS
 62
     5
 10
328.90670999999998
 20
-41.0
 30
0.0
 11
358.90670999999998
 21
-41.0
 31
0.0
  0
ARC
  8
DETAIL
  6
CONTINUOUS
 62
     5
 10
341.39999999999992
 20
-30.0
 30
0.0
 40
2.0
 50
270.0
 51
0.0
  0
LINE
  8
DETAIL
  6
CONTINUOUS
 62
     5
 10
287.90670999999998
 20
-60.5
 30
0.0
 11
287.90670999999998
 21
-34.0
 31
0.0
  0
LINE
  8
DETAIL
  6
CONTINUOUS
 62
     5
 10
358.90670999999998
 20
-52.0
 30
0.0
 11
388.90670999999998
 21
-52.0
 31
0.0
  0
ARC
  8
DETAIL
  6
CONTINUOUS
 62
     5
 10
341.39999999999992
 20
-30.0
 30
0.0
 40
4.0
 50
329.99999999999989
 51
0.0
  0
LINE
  8
DETAIL
  6
CONTINUOUS
 62
     5
 10
351.76364999999993
 20
-32.0
 30
0.0
 11
351.76364999999993
 21
-34.0
 31
0.0
  0
LINE
  8
DETAIL
  6
CONTINUOUS
 62
     5
 10
435.90670999999969
 20
-162.0
 30
0.0
 11
435.90670999999969
 21
-66.0
 31
0.0
  0
LINE
  8
DETAIL
  6
CONTINUOUS
 62
     5
 10
434.90915000000001
 20
-163.06982999999991
 30
0.0
 11
435.90670999999969
 21
-162.0
 31
0.0
  0
LINE
  8
DETAIL
  6
CONTINUOUS
 62
     5
 10
434.90915000000001
 20
-64.930169999999976
 30
0.0
 11
435.90670999999969
 21
-66.0
 31
0.0
  0
LINE
  8
DETAIL
  6
CONTINUOUS
 62
     5
 10
210.40000000000001
 20
0.0
 30
0.0
 11
330.39999999999992
 21
0.0
 31
0.0
  0
CIRCLE
  8
DETAIL
  6
CONTINUOUS
 62
     5
 10
216.28254000000001
 20
-12.899970000000049
 30
0.0
 40
3.0
  0
LINE
  8
DETAIL
  6
CONTINUOUS
 62
     5
 10
195.40000000000001
 20
-24.0
 30
0.0
 11
197.40000000000001
 21
-24.0
 31
0.0
  0
ARC
  8
DETAIL
  6
CONTINUOUS
 62
     5
 10
210.40000000000001
 20
-10.0
 30
0.0
 40
10.0
 50
90.0
 51
180.0
  0
CIRCLE
  8
DETAIL
  6
CONTINUOUS
 62
     5
 10
256.28253999999993
 20
-12.899970000000049
 30
0.0
 40
3.0
  0
LINE
  8
DETAIL
  6
CONTINUOUS
 62
     5
 10
343.39999999999992
 20
-24.0
 30
0.0
 11
345.39999999999992
 21
-24.0
 31
0.0
  0
CIRCLE
  8
DETAIL
  6
CONTINUOUS
 62
     5
 10
286.28253999999993
 20
-12.899970000000049
 30
0.0
 40
3.0
  0
CIRCLE
  8
DETAIL
  6
CONTINUOUS
 62
     5
 10
326.28253999999993
 20
-12.899970000000049
 30
0.0
 40
3.0
  0
ARC
  8
DETAIL
  6
CONTINUOUS
 62
     5
 10
330.39999999999992
 20
-10.0
 30
0.0
 40
10.0
 50
0.0
 51
90.0
  0
LINE
  8
OUTLINE
  6
CONTINUOUS
 62
     3
 10
219.88502000000011
 20
-246.80000000000001
 30
0.0
 11
-219.88502000000011
 21
-246.80000000000001
 31
0.0
  0
LINE
  8
OUTLINE
  6
CONTINUOUS
 62
     3
 10
-257.61229999999989
 20
-222.80000000000001
 30
0.0
 11
-256.11329999999992
 21
-222.80000000000001
 31
0.0
  0
LINE
  8
OUTLINE
  6
CONTINUOUS
 62
     3
 10
-210.40000000000001
 20
0.0
 30
0.0
 11
210.40000000000001
 21
0.0
 31
0.0
  0
LINE
  8
OUTLINE
  6
CONTINUOUS
 62
     3
 10
-238.0
 20
-228.80000000000001
 30
0.0
 11
-257.0261799999999
 21
-228.80000000000001
 31
0.0
  0
LINE
  8
OUTLINE
  6
CONTINUOUS
 62
     3
 10
-261.69429000000002
 20
-220.85035999999991
 30
0.0
 11
-273.6737399999999
 21
-195.89318
 31
0.0
  0
LINE
  8
OUTLINE
  6
CONTINUOUS
 62
     3
 10
-257.0261799999999
 20
-228.80000000000001
 30
0.0
 11
-257.11315000000002
 21
-223.81746000000001
 31
0.0
  0
ARC
  8
OUTLINE
  6
CONTINUOUS
 62
     3
 10
-256.11329999999992
 20
-223.80000000000001
 30
0.0
 40
1.0
 50
90.0
 51
180.99999800000049
  0
ARC
  8
OUTLINE
  6
CONTINUOUS
 62
     3
 10
-257.61229999999989
 20
-217.80000000000001
 30
0.0
 40
5.0
 50
216.98576700000191
 51
270.0
  0
ARC
  8
OUTLINE
  6
CONTINUOUS
 62
     3
 10
-257.61229999999989
 20
-217.80000000000001
 30
0.0
 40
5.0
 50
205.64100600000279
 51
208.6424840000029
  0
ARC
  8
OUTLINE
  6
CONTINUOUS
 62
     3
 10
-270.96917000000002
 20
-194.59499
 30
0.0
 40
3.0
 50
181.00000000000179
 51
205.64100600000279
  0
LINE
  8
OUTLINE
  6
CONTINUOUS
 62
     3
 10
-273.96870999999987
 20
-194.64734999999999
 30
0.0
 11
-273.97158999999982
 21
-194.48255
 31
0.0
  0
LINE
  8
OUTLINE
  6
CONTINUOUS
 62
     3
 10
-286.017
 20
-193.5
 30
0.0
 11
-274.97143999999992
 21
-193.5
 31
0.0
  0
ARC
  8
OUTLINE
  6
CONTINUOUS
 62
     3
 10
-274.97143999999992
 20
-194.5
 30
0.0
 40
1.0
 50
0.9999569999975704
 51
90.0
  0
ARC
  8
OUTLINE
  6
CONTINUOUS
 62
     3
 10
-219.88502000000011
 20
-236.80000000000001
 30
0.0
 40
10.0
 50
181.00000000000179
 51
270.0
  0
LINE
  8
OUTLINE
  6
CONTINUOUS
 62
     3
 10
-229.99141999999989
 20
-230.79127999999989
 30
0.0
 11
-229.88348999999999
 21
-236.97452999999999
 31
0.0
  0
LINE
  8
OUTLINE
  6
CONTINUOUS
 62
     3
 10
-238.0
 20
-228.80000000000001
 30
0.0
 11
-238.0
 21
-229.80000000000001
 31
0.0
  0
ARC
  8
OUTLINE
  6
CONTINUOUS
 62
     3
 10
-230.49135000000001
 20
-230.80000000000001
 30
0.0
 40
0.5
 50
1.0000000000017759
 51
90.0
  0
ARC
  8
OUTLINE
  6
CONTINUOUS
 62
     3
 10
-237.5
 20
-229.80000000000001
 30
0.0
 40
0.5
 50
180.0
 51
270.0
  0
LINE
  8
OUTLINE
  6
CONTINUOUS
 62
     3
 10
-285.0
 20
0.0
 30
0.0
 11
-210.40000000000001
 21
0.0
 31
0.0
  0
ARC
  8
OUTLINE
  6
CONTINUOUS
 62
     3
 10
257.61229999999989
 20
-217.80000000000001
 30
0.0
 40
5.0
 50
270.0
 51
334.35899399999721
  0
LINE
  8
OUTLINE
  6
CONTINUOUS
 62
     3
 10
237.5
 20
-230.30000000000001
 30
0.0
 11
230.49135000000001
 21
-230.30000000000001
 31
0.0
  0
ARC
  8
OUTLINE
  6
CONTINUOUS
 62
     3
 10
219.88502000000011
 20
-236.80000000000001
 30
0.0
 40
10.0
 50
270.0
 51
358.99999999999818
  0
LINE
  8
OUTLINE
  6
CONTINUOUS
 62
     3
 10
238.0
 20
-228.80000000000001
 30
0.0
 11
257.02617999999973
 21
-228.80000000000001
 31
0.0
  0
LINE
  8
OUTLINE
  6
CONTINUOUS
 62
     3
 10
238.0
 20
-228.80000000000001
 30
0.0
 11
238.0
 21
-229.80000000000001
 31
0.0
  0
LINE
  8
OUTLINE
  6
CONTINUOUS
 62
     3
 10
229.99143000000001
 20
-230.79127999999989
 30
0.0
 11
229.88349999999991
 21
-236.97452999999999
 31
0.0
  0
ARC
  8
OUTLINE
  6
CONTINUOUS
 62
     3
 10
230.49135000000001
 20
-230.80000000000001
 30
0.0
 40
0.5
 50
90.0
 51
178.9999960000022
  0
ARC
  8
OUTLINE
  6
CONTINUOUS
 62
     3
 10
237.5
 20
-229.80000000000001
 30
0.0
 40
0.5
 50
270.0
 51
0.0
  0
LINE
  8
OUTLINE
  6
CONTINUOUS
 62
     3
 10
257.11315000000002
 20
-223.81746000000001
 30
0.0
 11
257.02617999999973
 21
-228.80000000000001
 31
0.0
  0
ARC
  8
OUTLINE
  6
CONTINUOUS
 62
     3
 10
256.11331000000001
 20
-223.80000000000001
 30
0.0
 40
1.0
 50
358.99999999999818
 51
90.0
  0
LINE
  8
OUTLINE
  6
CONTINUOUS
 62
     3
 10
273.67374000000001
 20
-195.89318
 30
0.0
 11
262.11991
 21
-219.96366
 31
0.0
  0
ARC
  8
OUTLINE
  6
CONTINUOUS
 62
     3
 10
257.61229999999989
 20
-217.80000000000001
 30
0.0
 40
5.0
 50
331.35753999999588
 51
334.35899399999721
  0
LINE
  8
OUTLINE
  6
CONTINUOUS
 62
     3
 10
274.97143999999992
 20
-193.5
 30
0.0
 11
286.01700000000011
 21
-193.5
 31
0.0
  0
ARC
  8
OUTLINE
  6
CONTINUOUS
 62
     3
 10
270.96917000000008
 20
-194.59499
 30
0.0
 40
3.0
 50
334.35899399999721
 51
358.99999999999818
  0
LINE
  8
OUTLINE
  6
CONTINUOUS
 62
     3
 10
273.96872000000008
 20
-194.64734999999999
 30
0.0
 11
273.97158999999988
 21
-194.48255
 31
0.0
  0
ARC
  8
OUTLINE
  6
CONTINUOUS
 62
     3
 10
274.97143999999992
 20
-194.5
 30
0.0
 40
1.0
 50
90.0
 51
179.0000419999985
  0
LINE
  8
OUTLINE
  6
CONTINUOUS
 62
     3
 10
210.40000000000001
 20
0.0
 30
0.0
 11
285.0
 21
0.0
 31
0.0
  0
LINE
  8
OUTLINE
  6
CONTINUOUS
 62
     3
 10
256.11331000000001
 20
-222.80000000000001
 30
0.0
 11
257.61229999999989
 21
-222.80000000000001
 31
0.0
  0
LINE
  8
OUTLINE
  6
CONTINUOUS
 62
     3
 10
-230.49135000000001
 20
-230.30000000000001
 30
0.0
 11
-237.5
 21
-230.30000000000001
 31
0.0
  0
TEXT
  8
NOTE
  6
CONTINUOUS
 62
     4
 10
525.88522099999955
 20
-181.88510600000001
 30
0.0
 40
40.0
  1
SA RA1
 50
90.0
 41
0.9
  0
LINE
  8
SIZE
  6
CONTINUOUS
 62
    30
 10
719.17314599999963
 20
-76.930169999999976
 30
0.0
 11
719.17314599999963
 21
-150.59129100000001
 31
0.0
  0
LINE
  8
SIZE
  6
CONTINUOUS
 62
    30
 10
719.17314599999963
 20
-162.59129100000001
 30
0.0
 11
719.17314599999963
 21
-446.34474699999998
 31
0.0
  0
CIRCLE
  8
SIZE
  6
CONTINUOUS
 62
    30
 10
719.17314599999963
 20
-64.930169999999976
 30
0.0
 40
6.0
  0
LINE
  8
SIZE
  6
CONTINUOUS
 62
    30
 10
719.17314599999963
 20
-64.930169999999976
 30
0.0
 11
719.17314599999963
 21
-76.930169999999976
 31
0.0
  0
CIRCLE
  8
SIZE
  6
CONTINUOUS
 62
    30
 10
719.17314599999963
 20
-162.59129100000001
 30
0.0
 40
6.0
  0
LINE
  8
SIZE
  6
CONTINUOUS
 62
    30
 10
719.17314599999963
 20
-162.59129100000001
 30
0.0
 11
719.17314599999963
 21
-150.59129100000001
 31
0.0
  0
TEXT
  8
SIZE
  6
CONTINUOUS
 62
    30
 10
694.17314599999963
 20
-432.86474742857138
 30
0.0
 40
64.0
  1
φ98
 50
90.0
 41
0.9
 72
     1
 11
694.17314599999963
 21
-345.91617600000001
 31
0.0
  0
LINE
  8
SIZE
  6
CONTINUOUS
 62
    30
 10
408.90670999999998
 20
-52.0
 30
0.0
 11
859.17314600000009
 21
-52.0
 31
0.0
  0
LINE
  8
SIZE
  6
CONTINUOUS
 62
    30
 10
408.90670999999998
 20
-176.0
 30
0.0
 11
859.17314600000009
 21
-176.0
 31
0.0
  0
LINE
  8
SIZE
  6
CONTINUOUS
 62
    30
 10
839.17314599999986
 20
-64.0
 30
0.0
 11
839.17314599999986
 21
-164.0
 31
0.0
  0
LINE
  8
SIZE
  6
CONTINUOUS
 62
    30
 10
839.17314599999986
 20
-176.0
 30
0.0
 11
839.17314599999986
 21
-483.46236899999991
 31
0.0
  0
CIRCLE
  8
SIZE
  6
CONTINUOUS
 62
    30
 10
839.17314599999986
 20
-52.0
 30
0.0
 40
6.0
  0
LINE
  8
SIZE
  6
CONTINUOUS
 62
    30
 10
839.17314599999986
 20
-52.0
 30
0.0
 11
839.17314599999986
 21
-64.0
 31
0.0
  0
CIRCLE
  8
SIZE
  6
CONTINUOUS
 62
    30
 10
839.17314599999986
 20
-176.0
 30
0.0
 40
6.0
  0
LINE
  8
SIZE
  6
CONTINUOUS
 62
    30
 10
839.17314599999986
 20
-176.0
 30
0.0
 11
839.17314599999986
 21
-164.0
 31
0.0
  0
TEXT
  8
SIZE
  6
CONTINUOUS
 62
    30
 10
814.17314599999986
 20
-469.98236914285712
 30
0.0
 40
64.0
  1
φ124
 50
90.0
 41
0.9
 72
     1
 11
814.17314599999986
 21
-359.71951200000001
 31
0.0
  0
LINE
  8
SIZE
  6
CONTINUOUS
 62
    30
 10
378.90670999999998
 20
-41.0
 30
0.0
 11
979.17314600000032
 21
-41.0
 31
0.0
  0
LINE
  8
SIZE
  6
CONTINUOUS
 62
    30
 10
378.90670999999998
 20
-187.0
 30
0.0
 11
979.17314600000032
 21
-187.0
 31
0.0
  0
LINE
  8
SIZE
  6
CONTINUOUS
 62
    30
 10
959.17314600000009
 20
-53.25
 30
0.0
 11
959.17314600000009
 21
-174.75
 31
0.0
  0
LINE
  8
SIZE
  6
CONTINUOUS
 62
    30
 10
959.17314600000009
 20
-186.7499999999998
 30
0.0
 11
959.17314600000009
 21
-484.86051599999979
 31
0.0
  0
CIRCLE
  8
SIZE
  6
CONTINUOUS
 62
    30
 10
959.17314600000009
 20
-41.25
 30
0.0
 40
6.0
  0
LINE
  8
SIZE
  6
CONTINUOUS
 62
    30
 10
959.17314600000009
 20
-41.25
 30
0.0
 11
959.17314600000009
 21
-53.25
 31
0.0
  0
CIRCLE
  8
SIZE
  6
CONTINUOUS
 62
    30
 10
959.17314600000009
 20
-186.7499999999998
 30
0.0
 40
6.0
  0
LINE
  8
SIZE
  6
CONTINUOUS
 62
    30
 10
959.17314600000009
 20
-186.7499999999998
 30
0.0
 11
959.17314600000009
 21
-174.75
 31
0.0
  0
TEXT
  8
SIZE
  6
CONTINUOUS
 62
    30
 10
934.17314600000009
 20
-471.380516
 30
0.0
 40
64.0
  1
φ146
 50
90.0
 41
0.9
 72
     1
 11
934.17314600000009
 21
-363.86051600000002
 31
0.0
  0
LINE
  8
SIZE
  6
CONTINUOUS
 62
    30
 10
344.60097999999971
 20
0.0
 30
0.0
 11
1099.1731460000001
 21
0.0
 31
0.0
  0
LINE
  8
SIZE
  6
CONTINUOUS
 62
    30
 10
268.31522500000011
 20
-222.80000000000001
 30
0.0
 11
1099.1731460000001
 21
-222.80000000000001
 31
0.0
  0
LINE
  8
SIZE
  6
CONTINUOUS
 62
    30
 10
1079.1731460000001
 20
-12.0
 30
0.0
 11
1079.1731460000001
 21
-210.80000000000001
 31
0.0
  0
CIRCLE
  8
SIZE
  6
CONTINUOUS
 62
    30
 10
1079.1731460000001
 20
0.0
 30
0.0
 40
6.0
  0
LINE
  8
SIZE
  6
CONTINUOUS
 62
    30
 10
1079.1731460000001
 20
0.0
 30
0.0
 11
1079.1731460000001
 21
-12.0
 31
0.0
  0
CIRCLE
  8
SIZE
  6
CONTINUOUS
 62
    30
 10
1079.1731460000001
 20
-222.80000000000001
 30
0.0
 40
6.0
  0
LINE
  8
SIZE
  6
CONTINUOUS
 62
    30
 10
1079.1731460000001
 20
-222.80000000000001
 30
0.0
 11
1079.1731460000001
 21
-210.80000000000001
 31
0.0
  0
TEXT
  8
SIZE
  6
CONTINUOUS
 62
    30
 10
1054.1731460000001
 20
-188.05714285714279
 30
0.0
 40
64.0
  1
223
 50
90.0
 41
0.9
 72
     1
 11
1054.1731460000001
 21
-114.0
 31
0.0
  0
LINE
  8
SIZE
  6
CONTINUOUS
 62
    30
 10
268.31522500000011
 20
-222.80000000000001
 30
0.0
 11
619.17314599999963
 21
-222.80000000000001
 31
0.0
  0
LINE
  8
SIZE
  6
CONTINUOUS
 62
    30
 10
239.88502000000011
 20
-246.80000000000001
 30
0.0
 11
619.17314599999963
 21
-246.80000000000001
 31
0.0
  0
LINE
  8
SIZE
  6
CONTINUOUS
 62
    30
 10
599.17314599999963
 20
-210.80000000000001
 30
0.0
 11
599.17314599999963
 21
-198.80000000000001
 31
0.0
  0
LINE
  8
SIZE
  6
CONTINUOUS
 62
    30
 10
599.17314599999963
 20
-258.80000000000001
 30
0.0
 11
599.17314599999963
 21
-416.80000000000001
 31
0.0
  0
LINE
  8
SIZE
  6
CONTINUOUS
 62
    30
 10
599.17314599999963
 20
-222.80000000000001
 30
0.0
 11
599.17314599999963
 21
-246.80000000000001
 31
0.0
  0
CIRCLE
  8
SIZE
  6
CONTINUOUS
 62
    30
 10
599.17314599999963
 20
-222.80000000000001
 30
0.0
 40
6.0
  0
LINE
  8
SIZE
  6
CONTINUOUS
 62
    30
 10
599.17314599999963
 20
-222.80000000000001
 30
0.0
 11
599.17314599999963
 21
-210.80000000000001
 31
0.0
  0
CIRCLE
  8
SIZE
  6
CONTINUOUS
 62
    30
 10
599.17314599999963
 20
-246.80000000000001
 30
0.0
 40
6.0
  0
LINE
  8
SIZE
  6
CONTINUOUS
 62
    30
 10
599.17314599999963
 20
-246.80000000000001
 30
0.0
 11
599.17314599999963
 21
-258.80000000000001
 31
0.0
  0
TEXT
  8
SIZE
  6
CONTINUOUS
 62
    30
 10
574.17314599999963
 20
-391.80000000000001
 30
0.0
 40
64.0
  1
24
 50
90.0
 41
0.9
 72
     1
 11
574.17314599999963
 21
-343.80000000000001
 31
0.0
  0
LINE
  8
SIZE
  6
CONTINUOUS
 62
    30
 10
423.90670999999969
 20
-403.04218600000002
 30
0.0
 11
296.90670999999998
 21
-403.04218600000002
 31
0.0
  0
CIRCLE
  8
SIZE
  6
CONTINUOUS
 62
    30
 10
435.90670999999969
 20
-403.04218600000002
 30
0.0
 40
6.0
  0
LINE
  8
SIZE
  6
CONTINUOUS
 62
    30
 10
435.90670999999969
 20
-403.04218600000002
 30
0.0
 11
423.90670999999969
 21
-403.04218600000002
 31
0.0
  0
CIRCLE
  8
SIZE
  6
CONTINUOUS
 62
    30
 10
284.90670999999998
 20
-403.04218600000002
 30
0.0
 40
6.0
  0
LINE
  8
SIZE
  6
CONTINUOUS
 62
    30
 10
284.90670999999998
 20
-403.04218600000002
 30
0.0
 11
296.90670999999998
 21
-403.04218600000002
 31
0.0
  0
TEXT
  8
SIZE
  6
CONTINUOUS
 62
    30
 10
304.17813857142858
 20
-378.04218600000002
 30
0.0
 40
64.0
  1
151
 41
0.9
 72
     1
 11
360.40670999999998
 21
-378.04218600000002
 31
0.0
  0
LINE
  8
SIZE
  6
CONTINUOUS
 62
    30
 10
-436.0
 20
-189.38423299999999
 30
0.0
 11
-436.0
 21
-423.04218599999979
 31
0.0
  0
LINE
  8
SIZE
  6
CONTINUOUS
 62
    30
 10
-424.0
 20
-403.04218600000002
 30
0.0
 11
-297.0
 21
-403.04218600000002
 31
0.0
  0
CIRCLE
  8
SIZE
  6
CONTINUOUS
 62
    30
 10
-436.0
 20
-403.04218600000002
 30
0.0
 40
6.0
  0
LINE
  8
SIZE
  6
CONTINUOUS
 62
    30
 10
-436.0
 20
-403.04218600000002
 30
0.0
 11
-424.0
 21
-403.04218600000002
 31
0.0
  0
CIRCLE
  8
SIZE
  6
CONTINUOUS
 62
    30
 10
-285.0
 20
-403.04218600000002
 30
0.0
 40
6.0
  0
LINE
  8
SIZE
  6
CONTINUOUS
 62
    30
 10
-285.0
 20
-403.04218600000002
 30
0.0
 11
-297.0
 21
-403.04218600000002
 31
0.0
  0
TEXT
  8
SIZE
  6
CONTINUOUS
 62
    30
 10
-423.7999101791774
 20
-378.04218600000002
 30
0.0
 40
64.0
  1
151
 41
0.9
 72
     1
 11
-367.571338750606
 21
-378.04218600000002
 31
0.0
  0
LINE
  8
SIZE
  6
CONTINUOUS
 62
    30
 10
-273.0
 20
-403.04218600000002
 30
0.0
 11
290.90670999999998
 21
-403.04218600000002
 31
0.0
  0
CIRCLE
  8
SIZE
  6
CONTINUOUS
 62
    30
 10
-285.0
 20
-403.04218600000002
 30
0.0
 40
6.0
  0
LINE
  8
SIZE
  6
CONTINUOUS
 62
    30
 10
-285.0
 20
-403.04218600000002
 30
0.0
 11
-273.0
 21
-403.04218600000002
 31
0.0
  0
CIRCLE
  8
SIZE
  6
CONTINUOUS
 62
    30
 10
284.90670999999998
 20
-403.04218600000002
 30
0.0
 40
6.0
  0
TEXT
  8
SIZE
  6
CONTINUOUS
 62
    30
 10
-74.103787857142862
 20
-378.04218600000002
 30
0.0
 40
64.0
  1
570
 41
0.9
 72
     1
 11
-0.0466450000000123
 21
-378.04218600000002
 31
0.0
  0
LINE
  8
NOTE
  6
CONTINUOUS
 62
     4
 10
309.0
 20
-50.968482999999992
 30
0.0
 11
309.0
 21
-15.856890000000019
 31
0.0
  0
CIRCLE
  8
FIX
  6
CONTINUOUS
 62
    11
 10
309.0
 20
-32.0
 30
0.0
 40
2.0
  0
LINE
  8
NOTE
  6
CONTINUOUS
 62
     4
 10
-309.0
 20
-50.968482999999992
 30
0.0
 11
-309.0
 21
-15.856890000000019
 31
0.0
  0
CIRCLE
  8
FIX
  6
CONTINUOUS
 62
    11
 10
-309.0
 20
-32.0
 30
0.0
 40
2.0
  0
LINE
  8
SIZE
  6
CONTINUOUS
 62
    30
 10
-309.0
 20
4.1431099999999788
 30
0.0
 11
-309.0
 21
222.10389499999999
 31
0.0
  0
LINE
  8
SIZE
  6
CONTINUOUS
 62
    30
 10
309.0
 20
4.1431099999999788
 30
0.0
 11
309.0
 21
222.10389499999999
 31
0.0
  0
LINE
  8
SIZE
  6
CONTINUOUS
 62
    30
 10
-297.0
 20
202.10389499999999
 30
0.0
 11
297.0
 21
202.10389499999999
 31
0.0
  0
CIRCLE
  8
SIZE
  6
CONTINUOUS
 62
    30
 10
-309.0
 20
202.10389499999999
 30
0.0
 40
6.0
  0
LINE
  8
SIZE
  6
CONTINUOUS
 62
    30
 10
-309.0
 20
202.10389499999999
 30
0.0
 11
-297.0
 21
202.10389499999999
 31
0.0
  0
CIRCLE
  8
SIZE
  6
CONTINUOUS
 62
    30
 10
309.0
 20
202.10389499999999
 30
0.0
 40
6.0
  0
LINE
  8
SIZE
  6
CONTINUOUS
 62
    30
 10
309.0
 20
202.10389499999999
 30
0.0
 11
297.0
 21
202.10389499999999
 31
0.0
  0
TEXT
  8
SIZE
  6
CONTINUOUS
 62
    30
 10
-261.11999999999989
 20
227.10389499999999
 30
0.0
 40
64.0
  1
618（天吊位置）
 41
0.9
 72
     1
 11
0.0
 21
227.10389499999999
 31
0.0
  0
LINE
  8
SIZE
  6
CONTINUOUS
 62
    30
 10
-481.00003299999997
 20
-114.0
 30
0.0
 11
-637.12316399999975
 21
-114.0
 31
0.0
  0
LINE
  8
SIZE
  6
CONTINUOUS
 62
    30
 10
-375.42081899999988
 20
0.0
 30
0.0
 11
-637.12316399999975
 21
0.0
 31
0.0
  0
LINE
  8
SIZE
  6
CONTINUOUS
 62
    30
 10
-617.12316399999997
 20
-114.0
 30
0.0
 11
-617.12316399999997
 21
0.0
 31
0.0
  0
CIRCLE
  8
SIZE
  6
CONTINUOUS
 62
    30
 10
-617.12316399999997
 20
-114.0
 30
0.0
 40
6.0
  0
CIRCLE
  8
SIZE
  6
CONTINUOUS
 62
    30
 10
-617.12316399999997
 20
0.0
 30
0.0
 40
6.0
  0
TEXT
  8
SIZE
  6
CONTINUOUS
 62
    30
 10
-642.12316399999997
 20
-121.4571428571429
 30
0.0
 40
64.0
  1
114
 50
90.0
 41
0.9
 72
     1
 11
-642.12316399999997
 21
-57.0
 31
0.0
  0
LINE
  8
SIZE
  6
CONTINUOUS
 62
    30
 10
-292.54664500000001
 20
-195.14645060508519
 30
0.0
 11
-292.54664500000001
 21
-543.04218600000002
 31
0.0
  0
LINE
  8
SIZE
  6
CONTINUOUS
 62
    30
 10
292.45335499999987
 20
-195.97844745508701
 30
0.0
 11
292.45335499999987
 21
-543.04218600000002
 31
0.0
  0
LINE
  8
SIZE
  6
CONTINUOUS
 62
    30
 10
-280.54664500000001
 20
-523.04218599999979
 30
0.0
 11
280.45335499999999
 21
-523.04218599999979
 31
0.0
  0
CIRCLE
  8
SIZE
  6
CONTINUOUS
 62
    30
 10
-292.54664500000001
 20
-523.04218599999979
 30
0.0
 40
6.0
  0
LINE
  8
SIZE
  6
CONTINUOUS
 62
    30
 10
-292.54664500000001
 20
-523.04218599999979
 30
0.0
 11
-280.54664500000001
 21
-523.04218599999979
 31
0.0
  0
CIRCLE
  8
SIZE
  6
CONTINUOUS
 62
    30
 10
292.45335499999987
 20
-523.04218599999979
 30
0.0
 40
6.0
  0
LINE
  8
SIZE
  6
CONTINUOUS
 62
    30
 10
292.45335499999987
 20
-523.04218599999979
 30
0.0
 11
280.45335499999999
 21
-523.04218599999979
 31
0.0
  0
TEXT
  8
SIZE
  6
CONTINUOUS
 62
    30
 10
-110.58378785714289
 20
-498.04218599999979
 30
0.0
 40
64.0
  1
□585
 41
0.9
 72
     1
 11
-0.0466450000000123
 21
-498.04218599999979
 31
0.0
  0
CIRCLE
  8
DETAIL
  6
PHANTOM
 62
     5
 10
-200.0
 20
-114.0
 30
0.0
 40
84.500000000000014
  0
LINE
  8
DETAIL
  6
PHANTOM
 62
     5
 10
-276.5
 20
-78.111279999999965
 30
0.0
 11
-276.5
 21
-45.0
 31
0.0
  0
LINE
  8
DETAIL
  6
PHANTOM
 62
     5
 10
-274.5
 20
-43.0
 30
0.0
 11
-245.8175699999999
 21
-43.0
 31
0.0
  0
CIRCLE
  8
DETAIL
  6
PHANTOM
 62
     5
 10
-267.0
 20
-52.0
 30
0.0
 40
2.5
  0
ARC
  8
DETAIL
  6
PHANTOM
 62
     5
 10
-274.5
 20
-45.0
 30
0.0
 40
2.0
 50
90.0
 51
180.0
  0
LINE
  8
DETAIL
  6
PHANTOM
 62
     5
 10
-276.5
 20
-183.0
 30
0.0
 11
-276.5
 21
-149.88872000000001
 31
0.0
  0
LINE
  8
DETAIL
  6
PHANTOM
 62
     5
 10
-274.5
 20
-185.0
 30
0.0
 11
-245.8175699999999
 21
-185.0
 31
0.0
  0
CIRCLE
  8
DETAIL
  6
PHANTOM
 62
     5
 10
-267.0
 20
-176.0
 30
0.0
 40
2.5
  0
ARC
  8
DETAIL
  6
PHANTOM
 62
     5
 10
-274.5
 20
-183.0
 30
0.0
 40
2.0
 50
180.0
 51
270.0
  0
LINE
  8
DETAIL
  6
PHANTOM
 62
     5
 10
-123.5
 20
-45.0
 30
0.0
 11
-123.5
 21
-78.111279999999965
 31
0.0
  0
LINE
  8
DETAIL
  6
PHANTOM
 62
     5
 10
-154.1824300000001
 20
-43.0
 30
0.0
 11
-125.5
 21
-43.0
 31
0.0
  0
CIRCLE
  8
DETAIL
  6
PHANTOM
 62
     5
 10
-133.0
 20
-52.0
 30
0.0
 40
2.5
  0
ARC
  8
DETAIL
  6
PHANTOM
 62
     5
 10
-125.5
 20
-45.0
 30
0.0
 40
2.0
 50
0.0
 51
90.0
  0
LINE
  8
DETAIL
  6
PHANTOM
 62
     5
 10
-123.5
 20
-149.88872000000001
 30
0.0
 11
-123.5
 21
-183.0
 31
0.0
  0
LINE
  8
DETAIL
  6
PHANTOM
 62
     5
 10
-154.1824300000001
 20
-185.0
 30
0.0
 11
-125.5
 21
-185.0
 31
0.0
  0
CIRCLE
  8
DETAIL
  6
PHANTOM
 62
     5
 10
-133.0
 20
-176.0
 30
0.0
 40
2.5
  0
ARC
  8
DETAIL
  6
PHANTOM
 62
     5
 10
-125.5
 20
-183.0
 30
0.0
 40
2.0
 50
270.0
 51
0.0
  0
CIRCLE
  8
DETAIL
  6
PHANTOM
 62
     5
 10
200.0
 20
-114.0
 30
0.0
 40
84.500000000000014
  0
LINE
  8
DETAIL
  6
PHANTOM
 62
     5
 10
276.5
 20
-78.111279999999965
 30
0.0
 11
276.5
 21
-45.0
 31
0.0
  0
LINE
  8
DETAIL
  6
PHANTOM
 62
     5
 10
274.5
 20
-43.0
 30
0.0
 11
245.8175699999999
 21
-43.0
 31
0.0
  0
CIRCLE
  8
DETAIL
  6
PHANTOM
 62
     5
 10
267.0
 20
-52.0
 30
0.0
 40
2.5
  0
ARC
  8
DETAIL
  6
PHANTOM
 62
     5
 10
274.5
 20
-45.0
 30
0.0
 40
2.0
 50
0.0
 51
90.0
  0
LINE
  8
DETAIL
  6
PHANTOM
 62
     5
 10
276.5
 20
-183.0
 30
0.0
 11
276.5
 21
-149.88872000000001
 31
0.0
  0
LINE
  8
DETAIL
  6
PHANTOM
 62
     5
 10
274.5
 20
-185.0
 30
0.0
 11
245.8175699999999
 21
-185.0
 31
0.0
  0
CIRCLE
  8
DETAIL
  6
PHANTOM
 62
     5
 10
267.0
 20
-176.0
 30
0.0
 40
2.5
  0
ARC
  8
DETAIL
  6
PHANTOM
 62
     5
 10
274.5
 20
-183.0
 30
0.0
 40
2.0
 50
270.0
 51
0.0
  0
LINE
  8
DETAIL
  6
PHANTOM
 62
     5
 10
123.5
 20
-45.0
 30
0.0
 11
123.5
 21
-78.111279999999965
 31
0.0
  0
LINE
  8
DETAIL
  6
PHANTOM
 62
     5
 10
154.1824300000001
 20
-43.0
 30
0.0
 11
125.5
 21
-43.0
 31
0.0
  0
CIRCLE
  8
DETAIL
  6
PHANTOM
 62
     5
 10
133.0
 20
-52.0
 30
0.0
 40
2.5
  0
ARC
  8
DETAIL
  6
PHANTOM
 62
     5
 10
125.5
 20
-45.0
 30
0.0
 40
2.0
 50
90.0
 51
180.0
  0
LINE
  8
DETAIL
  6
PHANTOM
 62
     5
 10
123.5
 20
-149.88872000000001
 30
0.0
 11
123.5
 21
-183.0
 31
0.0
  0
LINE
  8
DETAIL
  6
PHANTOM
 62
     5
 10
154.1824300000001
 20
-185.0
 30
0.0
 11
125.5
 21
-185.0
 31
0.0
  0
CIRCLE
  8
DETAIL
  6
PHANTOM
 62
     5
 10
133.0
 20
-176.0
 30
0.0
 40
2.5
  0
ARC
  8
DETAIL
  6
PHANTOM
 62
     5
 10
125.5
 20
-183.0
 30
0.0
 40
2.0
 50
180.0
 51
270.0
  0
LINE
  8
DETAIL
  6
CONTINUOUS
 62
     5
 10
245.033321
 20
-185.5
 30
0.0
 11
291.55335500000001
 21
-185.5
 31
0.0
  0
LINE
  8
DETAIL
  6
CONTINUOUS
 62
     5
 10
-154.966679
 20
-185.5
 30
0.0
 11
-75.570280000000025
 21
-185.5
 31
0.0
  0
LINE
  8
BASIS
  6
CENTER
 62
     6
 10
200.0
 20
-211.149856
 30
0.0
 11
200.0
 21
-12.44160799999997
 31
0.0
  0
LINE
  8
BASIS
  6
CENTER
 62
     6
 10
-200.0
 20
-211.149856
 30
0.0
 11
-200.0
 21
-12.44160799999997
 31
0.0
  0
LINE
  8
SIZE
  6
CONTINUOUS
 62
    30
 10
-200.0
 20
9.13880800000004
 30
0.0
 11
-200.0
 21
102.1038949999997
 31
0.0
  0
LINE
  8
SIZE
  6
CONTINUOUS
 62
    30
 10
200.0
 20
2.7711209999999942
 30
0.0
 11
200.0
 21
102.1038949999997
 31
0.0
  0
LINE
  8
SIZE
  6
CONTINUOUS
 62
    30
 10
-188.0
 20
82.103894999999966
 30
0.0
 11
188.0
 21
82.103894999999966
 31
0.0
  0
CIRCLE
  8
SIZE
  6
CONTINUOUS
 62
    30
 10
-200.0
 20
82.103894999999966
 30
0.0
 40
6.0
  0
LINE
  8
SIZE
  6
CONTINUOUS
 62
    30
 10
-200.0
 20
82.103894999999966
 30
0.0
 11
-188.0
 21
82.103894999999966
 31
0.0
  0
CIRCLE
  8
SIZE
  6
CONTINUOUS
 62
    30
 10
200.0
 20
82.103894999999966
 30
0.0
 40
6.0
  0
LINE
  8
SIZE
  6
CONTINUOUS
 62
    30
 10
200.0
 20
82.103894999999966
 30
0.0
 11
188.0
 21
82.103894999999966
 31
0.0
  0
TEXT
  8
SIZE
  6
CONTINUOUS
 62
    30
 10
-74.05714285714285
 20
107.1038949999997
 30
0.0
 40
64.0
  1
400
 41
0.9
 72
     1
 11
0.0
 21
107.1038949999997
 31
0.0
  0
TEXT
  8
NOTE
  6
CONTINUOUS
 62
     4
 10
157.37914900000001
 20
-132.85056299999999
 30
0.0
 40
40.0
  1
RA2
 41
0.9
  0
TEXT
  8
NOTE
  6
CONTINUOUS
 62
     4
 10
-249.91703699999991
 20
-132.85056299999999
 30
0.0
 40
40.0
  1
OA2
 41
0.9
  0
TEXT
  8
ETC
  6
CONTINUOUS
 62
    61
 10
683.57078641065345
 20
229.46319603169289
 30
0.0
 40
50.0
  1
VL-15ZMH4-L
 41
0.9
  0
TEXT
  8
ETC
  6
CONTINUOUS
 62
    61
 10
559.77117644152713
 20
405.34032000435758
 30
0.0
 40
64.0
  1
VL-15ZMH4-L_5
 41
0.9
  0
TEXT
  8
ETC
  6
CONTINUOUS
 62
    61
 10
555.58518244152719
 20
312.69276457656622
 30
0.0
 40
64.0
  1
換気扇
 41
0.9
  0
LINE
  8
DETAIL
  6
CONTINUOUS
 62
     5
 10
292.45335499999987
 20
-190.49999999999989
 30
0.0
 11
292.45335499999987
 21
-186.40000000000001
 31
0.0
  0
LINE
  8
DETAIL
  6
CONTINUOUS
 62
     5
 10
-292.54664500000001
 20
-190.5
 30
0.0
 11
-292.5466449999999
 21
-186.40000000000001
 31
0.0
  0
LINE
  8
DETAIL
  6
CONTINUOUS
 62
     5
 10
-285.0
 20
-185.5
 30
0.0
 11
-285.0
 21
-34.0
 31
0.0
  0
LINE
  8
DETAIL
  6
CONTINUOUS
 62
     5
 10
285.0
 20
-185.5
 30
0.0
 11
285.0
 21
-34.0
 31
0.0
  0
ARC
  8
DETAIL
  6
CONTINUOUS
 62
     5
 10
-289.54664500000001
 20
-190.5
 30
0.0
 40
3.0
 50
180.0
 51
270.0
  0
ARC
  8
DETAIL
  6
CONTINUOUS
 62
     5
 10
289.45335499999987
 20
-190.49999999999989
 30
0.0
 40
3.0
 50
270.0
 51
0.0
  0
ARC
  8
DETAIL
  6
CONTINUOUS
 62
     5
 10
291.55335500000001
 20
-186.40000000000001
 30
0.0
 40
0.9
 50
0.0
 51
90.0
  0
ARC
  8
DETAIL
  6
CONTINUOUS
 62
     5
 10
-291.64664499999992
 20
-186.40000000000001
 30
0.0
 40
0.9
 50
90.0
 51
180.0
  0
LINE
  8
OUTLINE
  6
CONTINUOUS
 62
     3
 10
274.97143999999992
 20
-193.4999999999998
 30
0.0
 11
289.45335499999987
 21
-193.4999999999998
 31
0.0
  0
LINE
  8
OUTLINE
  6
CONTINUOUS
 62
     3
 10
292.45335499999987
 20
-190.49999999999989
 30
0.0
 11
292.45335499999987
 21
-186.40000000000001
 31
0.0
  0
LINE
  8
OUTLINE
  6
CONTINUOUS
 62
     3
 10
285.0
 20
-185.5
 30
0.0
 11
285.0
 21
0.0
 31
0.0
  0
LINE
  8
OUTLINE
  6
CONTINUOUS
 62
     3
 10
285.0
 20
-185.5
 30
0.0
 11
291.55335500000001
 21
-185.5
 31
0.0
  0
LINE
  8
OUTLINE
  6
CONTINUOUS
 62
     3
 10
-285.0
 20
-185.5
 30
0.0
 11
-285.0
 21
0.0
 31
0.0
  0
LINE
  8
OUTLINE
  6
CONTINUOUS
 62
     3
 10
-285.0
 20
-185.5
 30
0.0
 11
-291.64664500000009
 21
-185.5
 31
0.0
  0
LINE
  8
OUTLINE
  6
CONTINUOUS
 62
     3
 10
-292.54664500000001
 20
-190.5
 30
0.0
 11
-292.54664500000001
 21
-186.40000000000001
 31
0.0
  0
LINE
  8
OUTLINE
  6
CONTINUOUS
 62
     3
 10
-274.97143999999992
 20
-193.4999999999998
 30
0.0
 11
-289.54664500000001
 21
-193.4999999999998
 31
0.0
  0
ARC
  8
OUTLINE
  6
CONTINUOUS
 62
     3
 10
-291.64664500000009
 20
-186.40000000000001
 30
0.0
 40
0.9
 50
90.0
 51
180.0
  0
ARC
  8
OUTLINE
  6
CONTINUOUS
 62
     3
 10
291.55335500000001
 20
-186.40000000000001
 30
0.0
 40
0.9
 50
0.0
 51
90.0
  0
ARC
  8
OUTLINE
  6
CONTINUOUS
 62
     3
 10
289.45335499999987
 20
-190.49999999999989
 30
0.0
 40
3.0
 50
270.0
 51
0.0
  0
ARC
  8
OUTLINE
  6
CONTINUOUS
 62
     3
 10
-289.54664500000001
 20
-190.49999999999989
 30
0.0
 40
3.0
 50
180.0
 51
270.0
  0
LINE
  8
SIZE
  6
CONTINUOUS
 62
    30
 10
285.0
 20
-192.23446570581359
 30
0.0
 11
285.0
 21
-423.04218599999979
 31
0.0
  0
LINE
  8
SIZE
  6
CONTINUOUS
 62
    30
 10
-285.0
 20
-191.9571320639005
 30
0.0
 11
-285.0
 21
-423.04218599999979
 31
0.0
  0
LINE
  8
SIZE
  6
CONTINUOUS
 62
    30
 10
456.76435167877003
 20
-65.0
 30
0.0
 11
736.15421054739727
 21
-65.0
 31
0.0
  0
LINE
  8
SIZE
  6
CONTINUOUS
 62
    30
 10
456.76435167877003
 20
-163.0
 30
0.0
 11
736.70911475681351
 21
-163.0
 31
0.0
  0
CIRCLE
  8
DETAIL
  6
PHANTOM
 62
     5
 10
200.0
 20
-114.0
 30
0.0
 40
49.0
  0
CIRCLE
  8
DETAIL
  6
PHANTOM
 62
     5
 10
200.0
 20
-114.0
 30
0.0
 40
62.0
  0
ARC
  8
DETAIL
  6
PHANTOM
 62
     5
 10
200.0
 20
-114.0
 30
0.0
 40
73.0
 50
211.86274956867331
 51
328.13725043132672
  0
LINE
  8
DETAIL
  6
PHANTOM
 62
     5
 10
138.0
 20
-152.53569773599531
 30
0.0
 11
138.0
 21
-75.464302264004573
 31
0.0
  0
LINE
  8
DETAIL
  6
PHANTOM
 62
     5
 10
262.0
 20
-152.53569773599531
 30
0.0
 11
262.0
 21
-75.46430226400463
 31
0.0
  0
ARC
  8
DETAIL
  6
PHANTOM
 62
     5
 10
200.0
 20
-114.0
 30
0.0
 40
73.0
 50
31.862749568673259
 51
148.13725043132669
  0
CIRCLE
  8
DETAIL
  6
PHANTOM
 62
     5
 10
-200.0
 20
-114.0
 30
0.0
 40
49.0
  0
CIRCLE
  8
DETAIL
  6
PHANTOM
 62
     5
 10
-200.0
 20
-114.0
 30
0.0
 40
62.0
  0
ARC
  8
DETAIL
  6
PHANTOM
 62
     5
 10
-200.0
 20
-114.0
 30
0.0
 40
73.0
 50
31.862749568673259
 51
148.13725043132669
  0
LINE
  8
DETAIL
  6
PHANTOM
 62
     5
 10
-138.0
 20
-152.5356977359954
 30
0.0
 11
-138.0
 21
-75.46430226400463
 31
0.0
  0
LINE
  8
DETAIL
  6
PHANTOM
 62
     5
 10
-262.0
 20
-152.53569773599531
 30
0.0
 11
-262.0
 21
-75.46430226400463
 31
0.0
  0
ARC
  8
DETAIL
  6
PHANTOM
 62
     5
 10
-200.0
 20
-114.0
 30
0.0
 40
73.0
 50
211.86274956867331
 51
328.13725043132672
  0
LINE
  8
SIZE
  6
CONTINUOUS
 62
    30
 10
436.0
 20
-176.0
 30
0.0
 11
436.0
 21
-423.04218599999979
 31
0.0
  0
TEXT
  8
ETC
  6
CONTINUOUS
 62
    61
 10
683.57078641065345
 20
152.1884528588316
 30
0.0
 40
50.0
  1
VL-20ZMH4-L
 41
0.9
  0
LINE
  8
OUTLINE
  6
CONTINUOUS
 62
     3
 10
-329.0
 20
-34.0
 30
0.0
 11
-285.0
 21
-34.0
 31
0.0
  0
LINE
  8
OUTLINE
  6
CONTINUOUS
 62
     3
 10
-435.00243999999992
 20
-163.06982999999991
 30
0.0
 11
-389.0
 21
-166.28999999999999
 31
0.0
  0
LINE
  8
OUTLINE
  6
CONTINUOUS
 62
     3
 10
-435.00243999999992
 20
-64.930169999999976
 30
0.0
 11
-389.0
 21
-61.70999999999998
 31
0.0
  0
LINE
  8
OUTLINE
  6
CONTINUOUS
 62
     3
 10
-436.0
 20
-162.0
 30
0.0
 11
-436.0
 21
-66.0
 31
0.0
  0
LINE
  8
OUTLINE
  6
CONTINUOUS
 62
     3
 10
-435.00243999999992
 20
-163.06982999999991
 30
0.0
 11
-436.0
 21
-162.0
 31
0.0
  0
LINE
  8
OUTLINE
  6
CONTINUOUS
 62
     3
 10
-435.00243999999992
 20
-64.930169999999976
 30
0.0
 11
-436.0
 21
-66.0
 31
0.0
  0
LINE
  8
OUTLINE
  6
CONTINUOUS
 62
     3
 10
-359.0
 20
-187.0
 30
0.0
 11
-359.0
 21
-41.0
 31
0.0
  0
LINE
  8
OUTLINE
  6
CONTINUOUS
 62
     3
 10
-329.0
 20
-198.5
 30
0.0
 11
-329.0
 21
-34.0
 31
0.0
  0
LINE
  8
OUTLINE
  6
CONTINUOUS
 62
     3
 10
-389.0
 20
-176.0
 30
0.0
 11
-389.0
 21
-52.0
 31
0.0
  0
LINE
  8
OUTLINE
  6
CONTINUOUS
 62
     3
 10
-329.0
 20
-187.0
 30
0.0
 11
-359.0
 21
-187.0
 31
0.0
  0
LINE
  8
OUTLINE
  6
CONTINUOUS
 62
     3
 10
-359.0
 20
-176.0
 30
0.0
 11
-389.0
 21
-176.0
 31
0.0
  0
LINE
  8
OUTLINE
  6
CONTINUOUS
 62
     3
 10
-288.0
 20
-198.5
 30
0.0
 11
-329.0
 21
-198.5
 31
0.0
  0
LINE
  8
OUTLINE
  6
CONTINUOUS
 62
     3
 10
-288.0
 20
-198.5
 30
0.0
 11
-288.0
 21
-193.5
 31
0.0
  0
LINE
  8
OUTLINE
  6
CONTINUOUS
 62
     3
 10
-329.0
 20
-41.0
 30
0.0
 11
-359.0
 21
-41.0
 31
0.0
  0
LINE
  8
OUTLINE
  6
CONTINUOUS
 62
     3
 10
-359.0
 20
-52.0
 30
0.0
 11
-389.0
 21
-52.0
 31
0.0
  0
LINE
  8
OUTLINE
  6
CONTINUOUS
 62
     3
 10
-288.0
 20
-185.5
 30
0.0
 11
-288.0
 21
-34.0
 31
0.0
  0
LINE
  8
OUTLINE
  6
CONTINUOUS
 62
     3
 10
434.90915000000001
 20
-163.06982999999991
 30
0.0
 11
388.90670999999998
 21
-166.28999999999999
 31
0.0
  0
LINE
  8
OUTLINE
  6
CONTINUOUS
 62
     3
 10
434.90915000000001
 20
-64.930169999999976
 30
0.0
 11
388.90670999999998
 21
-61.70999999999998
 31
0.0
  0
LINE
  8
OUTLINE
  6
CONTINUOUS
 62
     3
 10
285.0
 20
-34.0
 30
0.0
 11
328.90670999999998
 21
-34.0
 31
0.0
  0
LINE
  8
OUTLINE
  6
CONTINUOUS
 62
     3
 10
358.90670999999998
 20
-187.0
 30
0.0
 11
358.90670999999998
 21
-41.0
 31
0.0
  0
LINE
  8
OUTLINE
  6
CONTINUOUS
 62
     3
 10
328.90670999999998
 20
-198.5
 30
0.0
 11
328.90670999999998
 21
-34.0
 31
0.0
  0
LINE
  8
OUTLINE
  6
CONTINUOUS
 62
     3
 10
388.90670999999998
 20
-176.0
 30
0.0
 11
388.90670999999998
 21
-52.0
 31
0.0
  0
LINE
  8
OUTLINE
  6
CONTINUOUS
 62
     3
 10
328.90670999999998
 20
-187.0
 30
0.0
 11
358.90670999999998
 21
-187.0
 31
0.0
  0
LINE
  8
OUTLINE
  6
CONTINUOUS
 62
     3
 10
287.90670999999998
 20
-198.5
 30
0.0
 11
328.90670999999998
 21
-198.5
 31
0.0
  0
LINE
  8
OUTLINE
  6
CONTINUOUS
 62
     3
 10
287.90670999999998
 20
-198.5
 30
0.0
 11
287.90670999999998
 21
-193.4999999999998
 31
0.0
  0
LINE
  8
OUTLINE
  6
CONTINUOUS
 62
     3
 10
358.90670999999998
 20
-176.0
 30
0.0
 11
388.90670999999998
 21
-176.0
 31
0.0
  0
LINE
  8
OUTLINE
  6
CONTINUOUS
 62
     3
 10
328.90670999999998
 20
-41.0
 30
0.0
 11
358.90670999999998
 21
-41.0
 31
0.0
  0
LINE
  8
OUTLINE
  6
CONTINUOUS
 62
     3
 10
287.90670999999998
 20
-185.5
 30
0.0
 11
287.90670999999998
 21
-34.0
 31
0.0
  0
LINE
  8
OUTLINE
  6
CONTINUOUS
 62
     3
 10
358.90670999999998
 20
-52.0
 30
0.0
 11
388.90670999999998
 21
-52.0
 31
0.0
  0
LINE
  8
OUTLINE
  6
CONTINUOUS
 62
     3
 10
435.90670999999969
 20
-162.0
 30
0.0
 11
435.90670999999969
 21
-66.0
 31
0.0
  0
LINE
  8
OUTLINE
  6
CONTINUOUS
 62
     3
 10
434.90915000000001
 20
-163.06982999999991
 30
0.0
 11
435.90670999999969
 21
-162.0
 31
0.0
  0
LINE
  8
OUTLINE
  6
CONTINUOUS
 62
     3
 10
434.90915000000001
 20
-64.930169999999976
 30
0.0
 11
435.90670999999969
 21
-66.0
 31
0.0
  0
ENDSEC
  0
EOF
