  0
SECTION
  2
HEADER
  9
$ACADVER
  1
AC1009
  9
$DWGCODEPAGE
  3
dos932
  9
$INSBASE
 10
0.0
 20
0.0
 30
0.0
  9
$EXTMIN
 10
-664.37071102481787
 20
-849.15160009305873
 30
-0.0015258207003583
  9
$EXTMAX
 10
1245.8084224674481
 20
904.26636580874401
 30
0.0000000349246037
  9
$LIMMIN
 10
-2970.0
 20
-2100.0
  9
$LIMMAX
 10
2970.0
 20
2100.0
  9
$ORTHOMODE
 70
     1
  9
$REGENMODE
 70
     1
  9
$FILLMODE
 70
     1
  9
$QTEXTMODE
 70
     0
  9
$MIRRTEXT
 70
     0
  9
$LTSCALE
 40
20.0
  9
$ATTMODE
 70
     1
  9
$TEXTSIZE
 40
64.0
  9
$TRACEWID
 40
0.05
  9
$TEXTSTYLE
  7
STANDARD
  9
$CLAYER
  8
SIZE
  9
$CELTYPE
  6
CONTINUOUS
  9
$CECOLOR
 62
     7
  9
$DIMSCALE
 40
1.0
  9
$DIMASZ
 40
12.0
  9
$DIMEXO
 40
20.0
  9
$DIMDLI
 40
200.0
  9
$DIMRND
 40
0.0
  9
$DIMDLE
 40
0.0
  9
$DIMEXE
 40
20.0
  9
$DIMTP
 40
0.0
  9
$DIMTM
 40
0.0
  9
$DIMTXT
 40
64.0
  9
$DIMCEN
 40
0.09
  9
$DIMTSZ
 40
0.0
  9
$DIMTOL
 70
     0
  9
$DIMLIM
 70
     0
  9
$DIMTIH
 70
     0
  9
$DIMTOH
 70
     0
  9
$DIMSE1
 70
     0
  9
$DIMSE2
 70
     0
  9
$DIMTAD
 70
     1
  9
$DIMZIN
 70
     8
  9
$DIMBLK
  1

  9
$DIMASO
 70
     1
  9
$DIMSHO
 70
     0
  9
$DIMPOST
  1

  9
$DIMAPOST
  1

  9
$DIMALT
 70
     0
  9
$DIMALTD
 70
     2
  9
$DIMALTF
 40
25.399999999999999
  9
$DIMLFAC
 40
1.0
  9
$DIMTOFL
 70
     1
  9
$DIMTVP
 40
0.0
  9
$DIMTIX
 70
     1
  9
$DIMSOXD
 70
     0
  9
$DIMSAH
 70
     0
  9
$DIMBLK1
  1

  9
$DIMBLK2
  1

  9
$DIMSTYLE
  2
STANDARD
  9
$DIMCLRD
 70
     7
  9
$DIMCLRE
 70
     7
  9
$DIMCLRT
 70
     7
  9
$DIMTFAC
 40
1.0
  9
$DIMGAP
 40
25.0
  9
$LUNITS
 70
     2
  9
$LUPREC
 70
     4
  9
$SKETCHINC
 40
0.1
  9
$FILLETRAD
 40
3.0
  9
$AUNITS
 70
     1
  9
$AUPREC
 70
     3
  9
$MENU
  1
ACAD
  9
$ELEVATION
 40
0.0
  9
$PELEVATION
 40
0.0
  9
$THICKNESS
 40
0.0
  9
$LIMCHECK
 70
     0
  9
$CHAMFERA
 40
0.0
  9
$CHAMFERB
 40
0.0
  9
$SKPOLY
 70
     0
  9
$TDCREATE
 40
2453019.62301037
  9
$TDUPDATE
 40
2459019.507004861
  9
$TDINDWG
 40
1.7129673727
  9
$TDUSRTIMER
 40
1.7129673727
  9
$USRTIMER
 70
     1
  9
$ANGBASE
 50
0.0
  9
$ANGDIR
 70
     0
  9
$PDMODE
 70
     3
  9
$PDSIZE
 40
-2.0
  9
$PLINEWID
 40
0.0
  9
$SPLFRAME
 70
     0
  9
$SPLINETYPE
 70
     6
  9
$SPLINESEGS
 70
     8
  9
$SURFTAB1
 70
     6
  9
$SURFTAB2
 70
     6
  9
$SURFTYPE
 70
     6
  9
$SURFU
 70
     6
  9
$SURFV
 70
     6
  9
$UCSNAME
  2

  9
$UCSORG
 10
0.0
 20
0.0
 30
0.0
  9
$UCSXDIR
 10
1.0
 20
0.0
 30
0.0
  9
$UCSYDIR
 10
0.0
 20
1.0
 30
0.0
  9
$PUCSNAME
  2

  9
$PUCSORG
 10
0.0
 20
0.0
 30
0.0
  9
$PUCSXDIR
 10
1.0
 20
0.0
 30
0.0
  9
$PUCSYDIR
 10
0.0
 20
1.0
 30
0.0
  9
$USERI1
 70
     0
  9
$USERI2
 70
     0
  9
$USERI3
 70
     0
  9
$USERI4
 70
     0
  9
$USERI5
 70
     0
  9
$USERR1
 40
20.0
  9
$USERR2
 40
0.0
  9
$USERR3
 40
0.0
  9
$USERR4
 40
0.0
  9
$USERR5
 40
0.0
  9
$WORLDVIEW
 70
     1
  9
$SHADEDGE
 70
     3
  9
$SHADEDIF
 70
    70
  9
$TILEMODE
 70
     1
  9
$MAXACTVP
 70
    48
  9
$PINSBASE
 10
0.0
 20
0.0
 30
0.0
  9
$PLIMCHECK
 70
     0
  9
$PEXTMIN
 10
-100000000000000000000.0
 20
-100000000000000000000.0
 30
-100000000000000000000.0
  9
$PEXTMAX
 10
100000000000000000000.0
 20
100000000000000000000.0
 30
100000000000000000000.0
  9
$PLIMMIN
 10
0.0
 20
0.0
  9
$PLIMMAX
 10
12.0
 20
9.0
  9
$UNITMODE
 70
     0
  9
$VISRETAIN
 70
     0
  9
$PLINEGEN
 70
     0
  9
$PSLTSCALE
 70
     0
  9
$TREEDEPTH
 70
  3020
  9
$ATTDIA
 70
     0
  9
$ATTREQ
 70
     1
  9
$BLIPMODE
 70
     1
  9
$COORDS
 70
     1
  9
$DRAGMODE
 70
     2
  9
$OSMODE
 70
     0
  9
$HANDLING
 70
     0
  9
$HANDSEED
  5
EF79
  0
ENDSEC
  0
SECTION
  2
TABLES
  0
TABLE
  2
LTYPE
 70
     4
  0
LTYPE
  2
CONTINUOUS
 70
     0
  3
実線
 72
    65
 73
     0
 40
0.0
  0
LTYPE
  2
DASHDOT
 70
     0
  3
____ _ ____ _ ____ _ ____ _ ____ _ ____ _ ____
 72
    65
 73
     4
 40
5.5
 49
4.0
 49
-0.6
 49
0.3
 49
-0.6
  0
LTYPE
  2
CENTER
 70
     0
  3
Center ____ _ ____ _ ____ _ ____ _ ____ _ ____
 72
    65
 73
     4
 40
1.0
 49
0.5
 49
-0.25
 49
0.0
 49
-0.25
  0
LTYPE
  2
PHANTOM
 70
     0
  3
Phantom ______  __  __  ______  __  __  ______
 72
    65
 73
     6
 40
2.5
 49
1.25
 49
-0.25
 49
0.25
 49
-0.25
 49
0.25
 49
-0.25
  0
ENDTAB
  0
TABLE
  2
LAYER
 70
    12
  0
LAYER
  2
0
 70
     0
 62
     7
  6
CONTINUOUS
  0
LAYER
  2
BASIS
 70
     0
 62
     6
  6
DASHDOT
  0
LAYER
  2
OUTLINE
 70
     0
 62
     3
  6
CONTINUOUS
  0
LAYER
  2
DETAIL
 70
     0
 62
     5
  6
CONTINUOUS
  0
LAYER
  2
SIZE
 70
     0
 62
    30
  6
CONTINUOUS
  0
LAYER
  2
ARRANGE
 70
     0
 62
     1
  6
CONTINUOUS
  0
LAYER
  2
ETC
 70
     0
 62
    61
  6
CONTINUOUS
  0
LAYER
  2
FIX
 70
     0
 62
    11
  6
CONTINUOUS
  0
LAYER
  2
NOTE
 70
     0
 62
     4
  6
CONTINUOUS
  0
LAYER
  2
DEFPOINTS
 70
    64
 62
     7
  6
CONTINUOUS
  0
LAYER
  2
SERVICESPACE
 70
    64
 62
     2
  6
DASHDOT
  0
LAYER
  2
SYMBOLLINE
 70
    64
 62
    15
  6
CONTINUOUS
  0
ENDTAB
  0
TABLE
  2
STYLE
 70
     1
  0
STYLE
  2
STANDARD
 70
     0
 40
64.0
 41
0.9
 50
0.0
 71
     0
 42
64.0
  3
SIMPLEX.shx
  4
BIGFONT.shx
  0
ENDTAB
  0
TABLE
  2
APPID
 70
    19
  0
APPID
  2
ACAD
 70
     0
  0
APPID
  2
AUTOCAD_POSTSCRIPT_FIGURE
 70
     0
  0
APPID
  2
ACAD_EXEMPT_FROM_CAD_STANDARDS
 70
     0
  0
APPID
  2
ACAD_PSEXT
 70
     0
  0
APPID
  2
ACAUTHENVIRON
 70
     0
  0
APPID
  2
GENIUS_GENOENT_13
 70
     0
  0
APPID
  2
GENIUS_GENCFG_13
 70
     0
  0
APPID
  2
GENIUS_GENCFG0_13
 70
     0
  0
APPID
  2
GENIUS_GENCFG1_13
 70
     0
  0
APPID
  2
GENIUS_GENCFG2_13
 70
     0
  0
APPID
  2
GENIUS_GENCFG3_13
 70
     0
  0
APPID
  2
GENIUS_GENCFG4_13
 70
     0
  0
APPID
  2
GENIUS_GEVCFG0_13
 70
     0
  0
APPID
  2
CONTENTBLOCKICON
 70
     0
  0
APPID
  2
CONTENTBLOCKDESCRIPTION
 70
     0
  0
APPID
  2
ACAD_NAV_VCDISPLAY
 70
     0
  0
APPID
  2
ACAD_MLEADERVER
 70
     0
  0
APPID
  2
ACDBDYNAMICBLOCKTRUENAME
 70
     0
  0
APPID
  2
ACDBDYNAMICBLOCKGUID
 70
     0
  0
ENDTAB
  0
TABLE
  2
DIMSTYLE
 70
     1
  0
DIMSTYLE
  2
STANDARD
 70
     0
  3

  4

  5
_ORIGIN
  6

  7

 40
1.0
 41
12.0
 42
20.0
 43
200.0
 44
20.0
 45
0.0
 46
0.0
 47
0.0
 48
0.0
140
64.0
141
0.09
142
0.0
143
25.399999999999999
144
1.0
145
0.0
146
1.0
147
25.0
 71
     0
 72
     0
 73
     0
 74
     0
 75
     0
 76
     0
 77
     1
 78
     8
170
     0
171
     2
172
     1
173
     0
174
     1
175
     0
176
     7
177
     7
178
     7
  0
ENDTAB
  0
TABLE
  2
VIEW
 70
     1
  0
VIEW
  2
ALL
 70
     0
 40
4282.6198079999986
 10
0.0
 20
41.309904000000003
 41
5940.0
 11
0.0
 21
0.0
 31
1.0
 12
0.0
 22
0.0
 32
0.0
 42
50.0
 43
0.0
 44
0.0
 50
0.0
 71
     0
  0
ENDTAB
  0
TABLE
  2
UCS
 70
     0
  0
ENDTAB
  0
TABLE
  2
VPORT
 70
     1
  0
VPORT
  2
*ACTIVE
 70
     0
 10
0.0
 20
0.0
 11
1.0
 21
1.0
 12
290.71885572131492
 22
27.55738285784264
 13
0.0
 23
0.0
 14
1.0
 24
1.0
 15
0.0
 25
0.0
 16
0.0
 26
0.0
 36
1.0
 17
0.0
 27
0.0
 37
0.0
 40
1765.0428363939691
 41
1.747787610619469
 42
50.0
 43
0.0
 44
0.0
 50
0.0
 51
0.0
 71
     0
 72
  1000
 73
     1
 74
     3
 75
     0
 76
     0
 77
     0
 78
     0
  0
ENDTAB
  0
ENDSEC
  0
SECTION
  2
BLOCKS
  0
BLOCK
  8
0
  2
_ORIGIN
 70
     0
 10
0.0
 20
0.0
 30
0.0
  3
_ORIGIN
  1
_ORIGIN
  0
CIRCLE
  8
0
  6
CONTINUOUS
 62
     7
 10
0.0
 20
0.0
 30
0.0
 40
0.5
  0
LINE
  8
0
  6
CONTINUOUS
 62
     7
 10
0.0
 20
0.0
 30
0.0
 11
-1.0
 21
0.0
 31
0.0
  0
ENDBLK
  8
0
  0
ENDSEC
  0
SECTION
  2
ENTITIES
  0
CIRCLE
  8
ARRANGE
  6
CONTINUOUS
 62
     1
 10
0.0
 20
0.0
 30
0.0
 40
40.0
  0
POINT
  8
ARRANGE
  6
CONTINUOUS
 62
     1
 10
0.0
 20
0.0
 30
0.0
  0
LINE
  8
BASIS
  6
CENTER
 62
     6
 10
0.0
 20
-326.77057100000002
 30
0.0
 11
0.0
 21
326.77057100000002
 31
0.0
  0
LINE
  8
BASIS
  6
CENTER
 62
     6
 10
337.1351279999999
 20
0.0
 30
0.0
 11
-321.05926700000009
 21
0.0
 31
0.0
  0
LINE
  8
BASIS
  6
CENTER
 62
     6
 10
-202.5
 20
457.30592999999999
 30
0.0
 11
-202.5
 21
264.32643800000011
 31
0.0
  0
LINE
  8
DETAIL
  6
CONTINUOUS
 62
     5
 10
285.0
 20
339.15334999999982
 30
0.0
 11
285.0
 21
-340.24664999999999
 31
0.0
  0
LINE
  8
DETAIL
  6
CONTINUOUS
 62
     5
 10
-287.61144999999988
 20
-75.307680000000005
 30
0.0
 11
-287.61209000000008
 21
-199.2466499999999
 31
0.0
  0
LINE
  8
DETAIL
  6
CONTINUOUS
 62
     5
 10
-285.0
 20
-283.24664999999982
 30
0.0
 11
-285.0
 21
283.15334999999982
 31
0.0
  0
LINE
  8
DETAIL
  6
CONTINUOUS
 62
     5
 10
-285.0
 20
339.15334999999982
 30
0.0
 11
-285.0
 21
-339.24664999999982
 31
0.0
  0
LINE
  8
DETAIL
  6
CONTINUOUS
 62
     5
 10
288.61254000000008
 20
-199.2466499999999
 30
0.0
 11
288.61254000000008
 21
199.15334999999999
 31
0.0
  0
LINE
  8
DETAIL
  6
CONTINUOUS
 62
     5
 10
-283.40000000000009
 20
284.75335000000001
 30
0.0
 11
283.39999999999958
 21
284.75335000000001
 31
0.0
  0
LINE
  8
DETAIL
  6
CONTINUOUS
 62
     5
 10
-267.0
 20
287.55335000000008
 30
0.0
 11
-149.0
 21
287.55335000000008
 31
0.0
  0
LINE
  8
DETAIL
  6
CONTINUOUS
 62
     5
 10
-264.5
 20
388.55335000000008
 30
0.0
 11
-140.5
 21
388.55335000000008
 31
0.0
  0
LINE
  8
DETAIL
  6
CONTINUOUS
 62
     5
 10
-250.5
 20
435.55334999999991
 30
0.0
 11
-154.5
 21
435.55334999999991
 31
0.0
  0
LINE
  8
DETAIL
  6
CONTINUOUS
 62
     5
 10
-264.5
 20
358.55335000000008
 30
0.0
 11
-140.5
 21
358.55335000000008
 31
0.0
  0
LINE
  8
DETAIL
  6
CONTINUOUS
 62
     5
 10
-285.0
 20
328.55335000000008
 30
0.0
 11
-118.0
 21
328.55335000000008
 31
0.0
  0
LINE
  8
DETAIL
  6
CONTINUOUS
 62
     5
 10
-331.0
 20
344.15334999999982
 30
0.0
 11
-331.0
 21
194.15334999999999
 31
0.0
  0
LINE
  8
DETAIL
  6
CONTINUOUS
 62
     5
 10
-251.56982999999991
 20
434.55579000000012
 30
0.0
 11
-254.78999999999999
 21
388.55335000000008
 31
0.0
  0
LINE
  8
DETAIL
  6
CONTINUOUS
 62
     5
 10
-251.56982999999991
 20
434.55579000000012
 30
0.0
 11
-250.5
 21
435.55334999999991
 31
0.0
  0
LINE
  8
NOTE
  6
CONTINUOUS
 62
     4
 10
-324.0302499999998
 20
309.15334999999999
 30
0.0
 11
-292.53334000000001
 21
309.15334999999999
 31
0.0
  0
LINE
  8
DETAIL
  6
CONTINUOUS
 62
     5
 10
-315.5
 20
344.15334999999982
 30
0.0
 11
-331.0
 21
344.15334999999982
 31
0.0
  0
LINE
  8
DETAIL
  6
CONTINUOUS
 62
     5
 10
-331.0
 20
342.15334999999982
 30
0.0
 11
-315.5
 21
342.15334999999982
 31
0.0
  0
LINE
  8
DETAIL
  6
CONTINUOUS
 62
     5
 10
-302.5
 20
344.15334999999982
 30
0.0
 11
-302.5
 21
309.15334999999999
 31
0.0
  0
LINE
  8
DETAIL
  6
CONTINUOUS
 62
     5
 10
-315.5
 20
344.15334999999982
 30
0.0
 11
-315.5
 21
309.15334999999999
 31
0.0
  0
LINE
  8
DETAIL
  6
CONTINUOUS
 62
     5
 10
-285.0
 20
339.15334999999982
 30
0.0
 11
-292.0
 21
339.15334999999982
 31
0.0
  0
LINE
  8
DETAIL
  6
CONTINUOUS
 62
     5
 10
-302.5
 20
344.15334999999982
 30
0.0
 11
-292.0
 21
344.15334999999982
 31
0.0
  0
LINE
  8
DETAIL
  6
CONTINUOUS
 62
     5
 10
-292.0
 20
344.15334999999982
 30
0.0
 11
-292.0
 21
339.15334999999982
 31
0.0
  0
LINE
  8
DETAIL
  6
CONTINUOUS
 62
     5
 10
-285.0
 20
287.55335000000008
 30
0.0
 11
-285.0
 21
328.55335000000008
 31
0.0
  0
LINE
  8
NOTE
  6
CONTINUOUS
 62
     4
 10
-309.0
 20
324.47264999999987
 30
0.0
 11
-309.0
 21
293.36236000000008
 31
0.0
  0
ARC
  8
DETAIL
  6
CONTINUOUS
 62
     5
 10
-309.0
 20
309.15334999999999
 30
0.0
 40
6.5
 50
180.0
 51
0.0
  0
ARC
  8
DETAIL
  6
CONTINUOUS
 62
     5
 10
-283.40000000000009
 20
283.15334999999982
 30
0.0
 40
1.6000000000000001
 50
90.0
 51
180.0
  0
LINE
  8
DETAIL
  6
CONTINUOUS
 62
     5
 10
-285.0
 20
287.55335000000008
 30
0.0
 11
-267.0
 21
287.55335000000008
 31
0.0
  0
LINE
  8
DETAIL
  6
CONTINUOUS
 62
     5
 10
-287.61234000000007
 20
199.15334999999999
 30
0.0
 11
-287.61207000000007
 21
75.488579999999956
 31
0.0
  0
LINE
  8
NOTE
  6
CONTINUOUS
 62
     4
 10
-323.51476000000002
 20
229.15334999999999
 30
0.0
 11
-292.66221000000002
 21
229.15334999999999
 31
0.0
  0
LINE
  8
DETAIL
  6
CONTINUOUS
 62
     5
 10
-315.5
 20
196.15334999999999
 30
0.0
 11
-331.0
 21
196.15334999999999
 31
0.0
  0
LINE
  8
DETAIL
  6
CONTINUOUS
 62
     5
 10
-315.5
 20
194.15334999999999
 30
0.0
 11
-331.0
 21
194.15334999999999
 31
0.0
  0
LINE
  8
DETAIL
  6
CONTINUOUS
 62
     5
 10
-302.5
 20
229.15334999999999
 30
0.0
 11
-302.5
 21
194.15334999999999
 31
0.0
  0
LINE
  8
DETAIL
  6
CONTINUOUS
 62
     5
 10
-315.5
 20
229.15334999999999
 30
0.0
 11
-315.5
 21
194.15334999999999
 31
0.0
  0
LINE
  8
NOTE
  6
CONTINUOUS
 62
     4
 10
-309.0
 20
244.82952
 30
0.0
 11
-309.0
 21
210.7551599999999
 31
0.0
  0
ARC
  8
DETAIL
  6
CONTINUOUS
 62
     5
 10
-309.0
 20
229.15334999999999
 30
0.0
 40
6.5
 50
0.0
 51
180.0
  0
LINE
  8
DETAIL
  6
CONTINUOUS
 62
     5
 10
-285.0
 20
199.15334999999999
 30
0.0
 11
-292.0
 21
199.15334999999999
 31
0.0
  0
LINE
  8
DETAIL
  6
CONTINUOUS
 62
     5
 10
-292.0
 20
194.15334999999999
 30
0.0
 11
-302.5
 21
194.15334999999999
 31
0.0
  0
LINE
  8
DETAIL
  6
CONTINUOUS
 62
     5
 10
-292.0
 20
194.15334999999999
 30
0.0
 11
-292.0
 21
199.15334999999999
 31
0.0
  0
LINE
  8
DETAIL
  6
CONTINUOUS
 62
     5
 10
-287.31291999999979
 20
73.087549999999965
 30
0.0
 11
-287.25705000000022
 21
73.031680000000051
 31
0.0
  0
LINE
  8
DETAIL
  6
CONTINUOUS
 62
     5
 10
-287.25766000000021
 20
73.032289999999989
 30
0.0
 11
-287.24884999999989
 21
73.023590000000013
 31
0.0
  0
LINE
  8
DETAIL
  6
CONTINUOUS
 62
     5
 10
-286.64851999999968
 20
72.761520000000019
 30
0.0
 11
-286.61265999999978
 21
72.760220000000004
 31
0.0
  0
LINE
  8
DETAIL
  6
CONTINUOUS
 62
     5
 10
-286.6885400000001
 20
72.764509999999973
 30
0.0
 11
-286.64851999999968
 21
72.761520000000019
 31
0.0
  0
LINE
  8
DETAIL
  6
CONTINUOUS
 62
     5
 10
-286.73259999999982
 20
72.769729999999981
 30
0.0
 11
-286.6885400000001
 21
72.764509999999973
 31
0.0
  0
LINE
  8
DETAIL
  6
CONTINUOUS
 62
     5
 10
-286.7805699999999
 20
72.777810000000045
 30
0.0
 11
-286.73259999999982
 21
72.769729999999981
 31
0.0
  0
LINE
  8
DETAIL
  6
CONTINUOUS
 62
     5
 10
-286.83276000000018
 20
72.789559999999938
 30
0.0
 11
-286.7805699999999
 21
72.777810000000045
 31
0.0
  0
LINE
  8
DETAIL
  6
CONTINUOUS
 62
     5
 10
-286.88736000000023
 20
72.805319999999938
 30
0.0
 11
-286.83276000000018
 21
72.789559999999938
 31
0.0
  0
LINE
  8
DETAIL
  6
CONTINUOUS
 62
     5
 10
-286.94294999999971
 20
72.825230000000033
 30
0.0
 11
-286.88736000000023
 21
72.805319999999938
 31
0.0
  0
LINE
  8
DETAIL
  6
CONTINUOUS
 62
     5
 10
-286.9986100000001
 20
72.849360000000047
 30
0.0
 11
-286.94294999999971
 21
72.825230000000033
 31
0.0
  0
LINE
  8
DETAIL
  6
CONTINUOUS
 62
     5
 10
-287.05328000000009
 20
72.877510000000029
 30
0.0
 11
-286.9986100000001
 21
72.849360000000047
 31
0.0
  0
LINE
  8
DETAIL
  6
CONTINUOUS
 62
     5
 10
-287.10626999999982
 20
72.909470000000056
 30
0.0
 11
-287.05328000000009
 21
72.877510000000029
 31
0.0
  0
LINE
  8
DETAIL
  6
CONTINUOUS
 62
     5
 10
-287.15692999999959
 20
72.944849999999974
 30
0.0
 11
-287.10626999999982
 21
72.909470000000056
 31
0.0
  0
LINE
  8
DETAIL
  6
CONTINUOUS
 62
     5
 10
-287.20461999999998
 20
72.983110000000011
 30
0.0
 11
-287.15692999999959
 21
72.944849999999974
 31
0.0
  0
LINE
  8
DETAIL
  6
CONTINUOUS
 62
     5
 10
-287.24884999999989
 20
73.023590000000013
 30
0.0
 11
-287.20461999999998
 21
72.983110000000011
 31
0.0
  0
LINE
  8
DETAIL
  6
CONTINUOUS
 62
     5
 10
-286.61265999999978
 20
72.760220000000004
 30
0.0
 11
-286.44202000000001
 21
72.757420000000025
 31
0.0
  0
LINE
  8
DETAIL
  6
CONTINUOUS
 62
     5
 10
-286.44202000000001
 20
72.757420000000025
 30
0.0
 11
-286.21539999999999
 21
72.754559999999969
 31
0.0
  0
LINE
  8
DETAIL
  6
CONTINUOUS
 62
     5
 10
-286.21539999999999
 20
72.754559999999969
 30
0.0
 11
-286.0902000000001
 21
72.753490000000056
 31
0.0
  0
LINE
  8
DETAIL
  6
CONTINUOUS
 62
     5
 10
-286.0902000000001
 20
72.753490000000056
 30
0.0
 11
-286.07502000000022
 21
72.753410000000031
 31
0.0
  0
LINE
  8
DETAIL
  6
CONTINUOUS
 62
     5
 10
-286.07502000000022
 20
72.753410000000031
 30
0.0
 11
-285.0
 21
72.753349999999955
 31
0.0
  0
LINE
  8
DETAIL
  6
CONTINUOUS
 62
     5
 10
-287.61207000000007
 20
75.488579999999956
 30
0.0
 11
-287.60942999999997
 21
74.974919999999997
 31
0.0
  0
LINE
  8
DETAIL
  6
CONTINUOUS
 62
     5
 10
-287.60942999999997
 20
74.974919999999997
 30
0.0
 11
-287.60570999999982
 21
74.597290000000044
 31
0.0
  0
LINE
  8
DETAIL
  6
CONTINUOUS
 62
     5
 10
-287.60570999999982
 20
74.597290000000044
 30
0.0
 11
-287.60176000000001
 21
74.328629999999976
 31
0.0
  0
LINE
  8
DETAIL
  6
CONTINUOUS
 62
     5
 10
-287.60176000000001
 20
74.328629999999976
 30
0.0
 11
-287.59807999999981
 21
74.142560000000003
 31
0.0
  0
LINE
  8
DETAIL
  6
CONTINUOUS
 62
     5
 10
-287.59807999999981
 20
74.142560000000003
 30
0.0
 11
-287.5949599999999
 21
74.017749999999978
 31
0.0
  0
LINE
  8
DETAIL
  6
CONTINUOUS
 62
     5
 10
-287.5949599999999
 20
74.017749999999978
 30
0.0
 11
-287.59252000000009
 21
73.93741
 31
0.0
  0
LINE
  8
DETAIL
  6
CONTINUOUS
 62
     5
 10
-287.59252000000009
 20
73.93741
 30
0.0
 11
-287.59000000000009
 21
73.867539999999963
 31
0.0
  0
LINE
  8
DETAIL
  6
CONTINUOUS
 62
     5
 10
-287.59000000000009
 20
73.867539999999963
 30
0.0
 11
-287.58827000000019
 21
73.826189999999997
 31
0.0
  0
LINE
  8
DETAIL
  6
CONTINUOUS
 62
     5
 10
-287.58827000000019
 20
73.826189999999997
 30
0.0
 11
-287.58645999999999
 21
73.788530000000037
 31
0.0
  0
LINE
  8
DETAIL
  6
CONTINUOUS
 62
     5
 10
-287.58645999999999
 20
73.788530000000037
 30
0.0
 11
-287.58454999999998
 21
73.754050000000007
 31
0.0
  0
LINE
  8
DETAIL
  6
CONTINUOUS
 62
     5
 10
-287.33694999999989
 20
73.112529999999992
 30
0.0
 11
-287.31331
 21
73.087949999999978
 31
0.0
  0
LINE
  8
DETAIL
  6
CONTINUOUS
 62
     5
 10
-287.36558999999988
 20
73.144990000000007
 30
0.0
 11
-287.33694999999989
 21
73.112529999999992
 31
0.0
  0
LINE
  8
DETAIL
  6
CONTINUOUS
 62
     5
 10
-287.39226000000008
 20
73.178290000000061
 30
0.0
 11
-287.36558999999988
 21
73.144990000000007
 31
0.0
  0
LINE
  8
DETAIL
  6
CONTINUOUS
 62
     5
 10
-287.41687999999982
 20
73.212149999999951
 30
0.0
 11
-287.39226000000008
 21
73.178290000000061
 31
0.0
  0
LINE
  8
DETAIL
  6
CONTINUOUS
 62
     5
 10
-287.43939999999981
 20
73.246329999999944
 30
0.0
 11
-287.41687999999982
 21
73.212149999999951
 31
0.0
  0
LINE
  8
DETAIL
  6
CONTINUOUS
 62
     5
 10
-287.45985999999988
 20
73.280619999999999
 30
0.0
 11
-287.43939999999981
 21
73.246329999999944
 31
0.0
  0
LINE
  8
DETAIL
  6
CONTINUOUS
 62
     5
 10
-287.47829000000002
 20
73.314799999999991
 30
0.0
 11
-287.45985999999988
 21
73.280619999999999
 31
0.0
  0
LINE
  8
DETAIL
  6
CONTINUOUS
 62
     5
 10
-287.49475999999999
 20
73.348690000000033
 30
0.0
 11
-287.47829000000002
 21
73.314799999999991
 31
0.0
  0
LINE
  8
DETAIL
  6
CONTINUOUS
 62
     5
 10
-287.50936999999982
 20
73.382169999999974
 30
0.0
 11
-287.49475999999999
 21
73.348690000000033
 31
0.0
  0
LINE
  8
DETAIL
  6
CONTINUOUS
 62
     5
 10
-287.52215999999999
 20
73.414949999999976
 30
0.0
 11
-287.50936999999982
 21
73.382169999999974
 31
0.0
  0
LINE
  8
DETAIL
  6
CONTINUOUS
 62
     5
 10
-287.53325000000001
 20
73.44686999999999
 30
0.0
 11
-287.52215999999999
 21
73.414949999999976
 31
0.0
  0
LINE
  8
DETAIL
  6
CONTINUOUS
 62
     5
 10
-287.54270000000002
 20
73.477549999999951
 30
0.0
 11
-287.53325000000001
 21
73.44686999999999
 31
0.0
  0
LINE
  8
DETAIL
  6
CONTINUOUS
 62
     5
 10
-287.55058999999977
 20
73.506619999999998
 30
0.0
 11
-287.54270000000002
 21
73.477549999999951
 31
0.0
  0
LINE
  8
DETAIL
  6
CONTINUOUS
 62
     5
 10
-287.55711000000019
 20
73.533909999999992
 30
0.0
 11
-287.55058999999977
 21
73.506619999999998
 31
0.0
  0
LINE
  8
DETAIL
  6
CONTINUOUS
 62
     5
 10
-287.56240000000031
 20
73.55916000000002
 30
0.0
 11
-287.55711000000019
 21
73.533909999999992
 31
0.0
  0
LINE
  8
DETAIL
  6
CONTINUOUS
 62
     5
 10
-287.56667000000022
 20
73.582459999999969
 30
0.0
 11
-287.56240000000031
 21
73.55916000000002
 31
0.0
  0
LINE
  8
DETAIL
  6
CONTINUOUS
 62
     5
 10
-287.57009999999991
 20
73.603830000000016
 30
0.0
 11
-287.56667000000022
 21
73.582459999999969
 31
0.0
  0
LINE
  8
DETAIL
  6
CONTINUOUS
 62
     5
 10
-287.57288000000023
 20
73.62351000000001
 30
0.0
 11
-287.57009999999991
 21
73.603830000000016
 31
0.0
  0
LINE
  8
DETAIL
  6
CONTINUOUS
 62
     5
 10
-287.57515000000012
 20
73.641650000000027
 30
0.0
 11
-287.57288000000023
 21
73.62351000000001
 31
0.0
  0
LINE
  8
DETAIL
  6
CONTINUOUS
 62
     5
 10
-287.57702999999992
 20
73.658670000000029
 30
0.0
 11
-287.57515000000012
 21
73.641650000000027
 31
0.0
  0
LINE
  8
DETAIL
  6
CONTINUOUS
 62
     5
 10
-287.57864999999993
 20
73.674949999999967
 30
0.0
 11
-287.57702999999992
 21
73.658670000000029
 31
0.0
  0
LINE
  8
DETAIL
  6
CONTINUOUS
 62
     5
 10
-287.58005000000003
 20
73.69074999999998
 30
0.0
 11
-287.57864999999993
 21
73.674949999999967
 31
0.0
  0
LINE
  8
DETAIL
  6
CONTINUOUS
 62
     5
 10
-287.58130999999997
 20
73.70631000000003
 30
0.0
 11
-287.58005000000003
 21
73.69074999999998
 31
0.0
  0
LINE
  8
DETAIL
  6
CONTINUOUS
 62
     5
 10
-287.58246000000008
 20
73.72189000000003
 30
0.0
 11
-287.58130999999997
 21
73.70631000000003
 31
0.0
  0
LINE
  8
DETAIL
  6
CONTINUOUS
 62
     5
 10
-287.58352999999988
 20
73.73775999999998
 30
0.0
 11
-287.58246000000008
 21
73.72189000000003
 31
0.0
  0
LINE
  8
DETAIL
  6
CONTINUOUS
 62
     5
 10
-287.58454999999998
 20
73.754050000000007
 30
0.0
 11
-287.58352999999988
 21
73.73775999999998
 31
0.0
  0
LINE
  8
DETAIL
  6
CONTINUOUS
 62
     5
 10
-285.0
 20
-72.746650000000045
 30
0.0
 11
-286.07530000000003
 21
-72.746710000000007
 31
0.0
  0
LINE
  8
DETAIL
  6
CONTINUOUS
 62
     5
 10
-286.07530000000003
 20
-72.746710000000007
 30
0.0
 11
-286.16417000000001
 21
-72.747359999999958
 31
0.0
  0
LINE
  8
DETAIL
  6
CONTINUOUS
 62
     5
 10
-286.16417000000001
 20
-72.747359999999958
 30
0.0
 11
-286.38211000000001
 21
-72.749869999999987
 31
0.0
  0
LINE
  8
DETAIL
  6
CONTINUOUS
 62
     5
 10
-286.38211000000001
 20
-72.749869999999987
 30
0.0
 11
-286.61265999999978
 21
-72.753529999999955
 31
0.0
  0
LINE
  8
DETAIL
  6
CONTINUOUS
 62
     5
 10
-287.24628999999999
 20
-73.014400000000023
 30
0.0
 11
-287.25763000000012
 21
-73.025560000000041
 31
0.0
  0
LINE
  8
DETAIL
  6
CONTINUOUS
 62
     5
 10
-287.20163000000002
 20
-72.97384999999997
 30
0.0
 11
-287.24628999999999
 21
-73.014400000000023
 31
0.0
  0
LINE
  8
DETAIL
  6
CONTINUOUS
 62
     5
 10
-287.15352999999999
 20
-72.935619999999972
 30
0.0
 11
-287.20163000000002
 21
-72.97384999999997
 31
0.0
  0
LINE
  8
DETAIL
  6
CONTINUOUS
 62
     5
 10
-287.10257999999982
 20
-72.900380000000041
 30
0.0
 11
-287.15352999999999
 21
-72.935619999999972
 31
0.0
  0
LINE
  8
DETAIL
  6
CONTINUOUS
 62
     5
 10
-287.04944999999998
 20
-72.868690000000015
 30
0.0
 11
-287.10257999999982
 21
-72.900380000000041
 31
0.0
  0
LINE
  8
DETAIL
  6
CONTINUOUS
 62
     5
 10
-286.99481999999989
 20
-72.84087999999997
 30
0.0
 11
-287.04944999999998
 21
-72.868690000000015
 31
0.0
  0
LINE
  8
DETAIL
  6
CONTINUOUS
 62
     5
 10
-286.93939
 20
-72.817139999999995
 30
0.0
 11
-286.99481999999989
 21
-72.84087999999997
 31
0.0
  0
LINE
  8
DETAIL
  6
CONTINUOUS
 62
     5
 10
-286.88414000000012
 20
-72.797590000000014
 30
0.0
 11
-286.93939
 21
-72.817139999999995
 31
0.0
  0
LINE
  8
DETAIL
  6
CONTINUOUS
 62
     5
 10
-286.82981000000018
 20
-72.782119999999964
 30
0.0
 11
-286.88414000000012
 21
-72.797590000000014
 31
0.0
  0
LINE
  8
DETAIL
  6
CONTINUOUS
 62
     5
 10
-286.7778800000001
 20
-72.770600000000059
 30
0.0
 11
-286.82981000000018
 21
-72.782119999999964
 31
0.0
  0
LINE
  8
DETAIL
  6
CONTINUOUS
 62
     5
 10
-286.73000000000002
 20
-72.762659999999983
 30
0.0
 11
-286.7778800000001
 21
-72.770600000000059
 31
0.0
  0
LINE
  8
DETAIL
  6
CONTINUOUS
 62
     5
 10
-286.68625999999989
 20
-72.757589999999936
 30
0.0
 11
-286.73000000000002
 21
-72.762659999999983
 31
0.0
  0
LINE
  8
DETAIL
  6
CONTINUOUS
 62
     5
 10
-286.64713999999998
 20
-72.754750000000058
 30
0.0
 11
-286.68625999999989
 21
-72.757589999999936
 31
0.0
  0
LINE
  8
DETAIL
  6
CONTINUOUS
 62
     5
 10
-286.61265999999978
 20
-72.753529999999955
 30
0.0
 11
-286.64713999999998
 21
-72.754750000000058
 31
0.0
  0
LINE
  8
DETAIL
  6
CONTINUOUS
 62
     5
 10
-287.25704000000002
 20
-73.024980000000028
 30
0.0
 11
-287.31291999999979
 21
-73.080850000000055
 31
0.0
  0
LINE
  8
DETAIL
  6
CONTINUOUS
 62
     5
 10
-287.35302000000001
 20
-73.123659999999973
 30
0.0
 11
-287.38180000000011
 21
-73.158140000000003
 31
0.0
  0
LINE
  8
DETAIL
  6
CONTINUOUS
 62
     5
 10
-287.32206000000002
 20
-73.090130000000045
 30
0.0
 11
-287.35302000000001
 21
-73.123659999999973
 31
0.0
  0
LINE
  8
DETAIL
  6
CONTINUOUS
 62
     5
 10
-287.31334000000021
 20
-73.081289999999967
 30
0.0
 11
-287.32206000000002
 21
-73.090130000000045
 31
0.0
  0
LINE
  8
DETAIL
  6
CONTINUOUS
 62
     5
 10
-287.58554999999978
 20
-73.764789999999948
 30
0.0
 11
-287.58753999999999
 21
-73.803850000000011
 31
0.0
  0
LINE
  8
DETAIL
  6
CONTINUOUS
 62
     5
 10
-287.58449999999988
 20
-73.746599999999944
 30
0.0
 11
-287.58554999999978
 21
-73.764789999999948
 31
0.0
  0
LINE
  8
DETAIL
  6
CONTINUOUS
 62
     5
 10
-287.58339999999998
 20
-73.729080000000067
 30
0.0
 11
-287.58449999999988
 21
-73.746599999999944
 31
0.0
  0
LINE
  8
DETAIL
  6
CONTINUOUS
 62
     5
 10
-287.58224000000018
 20
-73.712099999999964
 30
0.0
 11
-287.58339999999998
 21
-73.729080000000067
 31
0.0
  0
LINE
  8
DETAIL
  6
CONTINUOUS
 62
     5
 10
-287.58097999999973
 20
-73.695370000000025
 30
0.0
 11
-287.58224000000018
 21
-73.712099999999964
 31
0.0
  0
LINE
  8
DETAIL
  6
CONTINUOUS
 62
     5
 10
-287.57958999999983
 20
-73.678679999999986
 30
0.0
 11
-287.58097999999973
 21
-73.695370000000025
 31
0.0
  0
LINE
  8
DETAIL
  6
CONTINUOUS
 62
     5
 10
-287.57799999999997
 20
-73.661550000000034
 30
0.0
 11
-287.57958999999983
 21
-73.678679999999986
 31
0.0
  0
LINE
  8
DETAIL
  6
CONTINUOUS
 62
     5
 10
-287.57612999999992
 20
-73.64354000000003
 30
0.0
 11
-287.57799999999997
 21
-73.661550000000034
 31
0.0
  0
LINE
  8
DETAIL
  6
CONTINUOUS
 62
     5
 10
-287.57384999999982
 20
-73.624299999999948
 30
0.0
 11
-287.57612999999992
 21
-73.64354000000003
 31
0.0
  0
LINE
  8
DETAIL
  6
CONTINUOUS
 62
     5
 10
-287.57101000000011
 20
-73.603240000000028
 30
0.0
 11
-287.57384999999982
 21
-73.624299999999948
 31
0.0
  0
LINE
  8
DETAIL
  6
CONTINUOUS
 62
     5
 10
-287.56745000000001
 20
-73.580349999999953
 30
0.0
 11
-287.57101000000011
 21
-73.603240000000028
 31
0.0
  0
LINE
  8
DETAIL
  6
CONTINUOUS
 62
     5
 10
-287.56295
 20
-73.555319999999938
 30
0.0
 11
-287.56745000000001
 21
-73.580349999999953
 31
0.0
  0
LINE
  8
DETAIL
  6
CONTINUOUS
 62
     5
 10
-287.55736999999999
 20
-73.528360000000021
 30
0.0
 11
-287.56295
 21
-73.555319999999938
 31
0.0
  0
LINE
  8
DETAIL
  6
CONTINUOUS
 62
     5
 10
-287.55051999999978
 20
-73.499639999999999
 30
0.0
 11
-287.55736999999999
 21
-73.528360000000021
 31
0.0
  0
LINE
  8
DETAIL
  6
CONTINUOUS
 62
     5
 10
-287.54225000000002
 20
-73.469290000000001
 30
0.0
 11
-287.55051999999978
 21
-73.499639999999999
 31
0.0
  0
LINE
  8
DETAIL
  6
CONTINUOUS
 62
     5
 10
-287.53238999999991
 20
-73.437549999999987
 30
0.0
 11
-287.54225000000002
 21
-73.469290000000001
 31
0.0
  0
LINE
  8
DETAIL
  6
CONTINUOUS
 62
     5
 10
-287.52078999999998
 20
-73.404549999999972
 30
0.0
 11
-287.53238999999991
 21
-73.437549999999987
 31
0.0
  0
LINE
  8
DETAIL
  6
CONTINUOUS
 62
     5
 10
-287.50729000000001
 20
-73.370480000000043
 30
0.0
 11
-287.52078999999998
 21
-73.404549999999972
 31
0.0
  0
LINE
  8
DETAIL
  6
CONTINUOUS
 62
     5
 10
-287.49178999999998
 20
-73.335619999999949
 30
0.0
 11
-287.50729000000001
 21
-73.370480000000043
 31
0.0
  0
LINE
  8
DETAIL
  6
CONTINUOUS
 62
     5
 10
-287.47422999999981
 20
-73.300269999999955
 30
0.0
 11
-287.49178999999998
 21
-73.335619999999949
 31
0.0
  0
LINE
  8
DETAIL
  6
CONTINUOUS
 62
     5
 10
-287.45451000000003
 20
-73.264609999999948
 30
0.0
 11
-287.47422999999981
 21
-73.300269999999955
 31
0.0
  0
LINE
  8
DETAIL
  6
CONTINUOUS
 62
     5
 10
-287.43254999999999
 20
-73.228880000000004
 30
0.0
 11
-287.45451000000003
 21
-73.264609999999948
 31
0.0
  0
LINE
  8
DETAIL
  6
CONTINUOUS
 62
     5
 10
-287.40832999999981
 20
-73.193309999999997
 30
0.0
 11
-287.43254999999999
 21
-73.228880000000004
 31
0.0
  0
LINE
  8
DETAIL
  6
CONTINUOUS
 62
     5
 10
-287.38180000000011
 20
-73.158140000000003
 30
0.0
 11
-287.40832999999981
 21
-73.193309999999997
 31
0.0
  0
LINE
  8
DETAIL
  6
CONTINUOUS
 62
     5
 10
-287.58753999999999
 20
-73.803850000000011
 30
0.0
 11
-287.58944999999989
 21
-73.847049999999967
 31
0.0
  0
LINE
  8
DETAIL
  6
CONTINUOUS
 62
     5
 10
-287.58944999999989
 20
-73.847049999999967
 30
0.0
 11
-287.59129999999999
 21
-73.895240000000058
 31
0.0
  0
LINE
  8
DETAIL
  6
CONTINUOUS
 62
     5
 10
-287.59129999999999
 20
-73.895240000000058
 30
0.0
 11
-287.59402999999969
 21
-73.978730000000041
 31
0.0
  0
LINE
  8
DETAIL
  6
CONTINUOUS
 62
     5
 10
-287.59402999999969
 20
-73.978730000000041
 30
0.0
 11
-287.59672
 21
-74.078009999999949
 31
0.0
  0
LINE
  8
DETAIL
  6
CONTINUOUS
 62
     5
 10
-287.59672
 20
-74.078009999999949
 30
0.0
 11
-287.60023000000001
 21
-74.238659999999982
 31
0.0
  0
LINE
  8
DETAIL
  6
CONTINUOUS
 62
     5
 10
-287.60023000000001
 20
-74.238659999999982
 30
0.0
 11
-287.60435000000012
 21
-74.48784999999998
 31
0.0
  0
LINE
  8
DETAIL
  6
CONTINUOUS
 62
     5
 10
-287.60435000000012
 20
-74.48784999999998
 30
0.0
 11
-287.60854000000018
 21
-74.859659999999963
 31
0.0
  0
LINE
  8
DETAIL
  6
CONTINUOUS
 62
     5
 10
-287.60854000000018
 20
-74.859659999999963
 30
0.0
 11
-287.61144999999988
 21
-75.307680000000005
 31
0.0
  0
LINE
  8
BASIS
  6
CENTER
 62
     6
 10
270.01781999999997
 20
199.75335000000001
 30
0.0
 11
450.54742999999962
 21
199.75335000000001
 31
0.0
  0
LINE
  8
NOTE
  6
CONTINUOUS
 62
     4
 10
294.40431999999959
 20
309.15334999999999
 30
0.0
 11
322.61076000000003
 21
309.15334999999999
 31
0.0
  0
LINE
  8
NOTE
  6
CONTINUOUS
 62
     4
 10
293.64926000000008
 20
228.15334999999999
 30
0.0
 11
322.15772000000021
 21
228.15334999999999
 31
0.0
  0
ARC
  8
DETAIL
  6
CONTINUOUS
 62
     5
 10
309.0
 20
228.15334999999999
 30
0.0
 40
6.5
 50
0.0
 51
180.0
  0
ARC
  8
DETAIL
  6
CONTINUOUS
 62
     5
 10
309.0
 20
309.15334999999999
 30
0.0
 40
6.5
 50
180.0
 51
0.0
  0
LINE
  8
DETAIL
  6
PHANTOM
 62
     5
 10
285.0
 20
115.25335
 30
0.0
 11
328.0
 21
115.25335
 31
0.0
  0
LINE
  8
DETAIL
  6
CONTINUOUS
 62
     5
 10
53.5
 20
287.55335000000008
 30
0.0
 11
84.5
 21
287.55335000000008
 31
0.0
  0
LINE
  8
DETAIL
  6
CONTINUOUS
 62
     5
 10
-153.43017000000009
 20
434.55579000000012
 30
0.0
 11
-150.21000000000001
 21
388.55335000000008
 31
0.0
  0
LINE
  8
DETAIL
  6
CONTINUOUS
 62
     5
 10
-153.43017000000009
 20
434.55579000000012
 30
0.0
 11
-154.5
 21
435.55334999999991
 31
0.0
  0
LINE
  8
DETAIL
  6
CONTINUOUS
 62
     5
 10
-84.5
 20
287.55335000000008
 30
0.0
 11
-64.5
 21
287.55335000000008
 31
0.0
  0
LINE
  8
DETAIL
  6
CONTINUOUS
 62
     5
 10
-149.0
 20
287.55335000000008
 30
0.0
 11
-118.0
 21
287.55335000000008
 31
0.0
  0
LINE
  8
DETAIL
  6
CONTINUOUS
 62
     5
 10
-118.0
 20
287.55335000000008
 30
0.0
 11
-118.0
 21
328.55335000000008
 31
0.0
  0
LINE
  8
DETAIL
  6
CONTINUOUS
 62
     5
 10
-84.5
 20
287.84222999999997
 30
0.0
 11
-118.0
 21
287.84222999999997
 31
0.0
  0
LINE
  8
DETAIL
  6
CONTINUOUS
 62
     5
 10
-64.5
 20
287.55335000000008
 30
0.0
 11
53.5
 21
287.55335000000008
 31
0.0
  0
LINE
  8
DETAIL
  6
CONTINUOUS
 62
     5
 10
-56.743469999999888
 20
285.55799000000002
 30
0.0
 11
-56.740499999999876
 21
285.55335000000008
 31
0.0
  0
LINE
  8
DETAIL
  6
CONTINUOUS
 62
     5
 10
-56.740440000000042
 20
285.55335000000008
 30
0.0
 11
-56.743469999999888
 21
285.55799000000002
 31
0.0
  0
LINE
  8
DETAIL
  6
CONTINUOUS
 62
     5
 10
-56.73691000000008
 20
285.55158000000011
 30
0.0
 11
-56.740440000000042
 21
285.55335000000008
 31
0.0
  0
LINE
  8
DETAIL
  6
CONTINUOUS
 62
     5
 10
56.740440000000042
 20
285.55335000000008
 30
0.0
 11
56.743469999999888
 21
285.55799000000002
 31
0.0
  0
LINE
  8
DETAIL
  6
CONTINUOUS
 62
     5
 10
56.743469999999888
 20
285.55799000000002
 30
0.0
 11
56.740510000000093
 21
285.55335000000008
 31
0.0
  0
LINE
  8
BASIS
  6
CENTER
 62
     6
 10
202.5
 20
451.62465999999989
 30
0.0
 11
202.5
 21
269.73613999999998
 31
0.0
  0
LINE
  8
DETAIL
  6
CONTINUOUS
 62
     5
 10
153.43017000000009
 20
434.55579000000012
 30
0.0
 11
150.21000000000001
 21
388.55335000000008
 31
0.0
  0
LINE
  8
DETAIL
  6
CONTINUOUS
 62
     5
 10
251.56982999999991
 20
434.55579000000012
 30
0.0
 11
254.78999999999999
 21
388.55335000000008
 31
0.0
  0
LINE
  8
DETAIL
  6
CONTINUOUS
 62
     5
 10
250.5
 20
435.55334999999991
 30
0.0
 11
154.5
 21
435.55334999999991
 31
0.0
  0
LINE
  8
DETAIL
  6
CONTINUOUS
 62
     5
 10
153.43017000000009
 20
434.55579000000012
 30
0.0
 11
154.5
 21
435.55334999999991
 31
0.0
  0
LINE
  8
DETAIL
  6
CONTINUOUS
 62
     5
 10
251.56982999999991
 20
434.55579000000012
 30
0.0
 11
250.5
 21
435.55334999999991
 31
0.0
  0
LINE
  8
DETAIL
  6
CONTINUOUS
 62
     5
 10
264.5
 20
358.55335000000008
 30
0.0
 11
140.5
 21
358.55335000000008
 31
0.0
  0
LINE
  8
DETAIL
  6
CONTINUOUS
 62
     5
 10
264.5
 20
388.55335000000008
 30
0.0
 11
140.5
 21
388.55335000000008
 31
0.0
  0
LINE
  8
DETAIL
  6
CONTINUOUS
 62
     5
 10
267.0
 20
287.55335000000008
 30
0.0
 11
149.0
 21
287.55335000000008
 31
0.0
  0
LINE
  8
DETAIL
  6
CONTINUOUS
 62
     5
 10
285.0
 20
328.55335000000008
 30
0.0
 11
118.0
 21
328.55335000000008
 31
0.0
  0
LINE
  8
DETAIL
  6
CONTINUOUS
 62
     5
 10
149.0
 20
287.55335000000008
 30
0.0
 11
118.0
 21
287.55335000000008
 31
0.0
  0
LINE
  8
DETAIL
  6
CONTINUOUS
 62
     5
 10
118.0
 20
287.55335000000008
 30
0.0
 11
118.0
 21
328.55335000000008
 31
0.0
  0
LINE
  8
DETAIL
  6
CONTINUOUS
 62
     5
 10
118.0
 20
287.84222999999997
 30
0.0
 11
84.5
 21
287.84222999999997
 31
0.0
  0
LINE
  8
DETAIL
  6
CONTINUOUS
 62
     5
 10
302.5
 20
344.15334999999982
 30
0.0
 11
302.5
 21
309.15334999999999
 31
0.0
  0
LINE
  8
DETAIL
  6
CONTINUOUS
 62
     5
 10
292.0
 20
344.15334999999982
 30
0.0
 11
292.0
 21
339.15334999999982
 31
0.0
  0
LINE
  8
DETAIL
  6
CONTINUOUS
 62
     5
 10
285.0
 20
339.15334999999982
 30
0.0
 11
292.0
 21
339.15334999999982
 31
0.0
  0
LINE
  8
DETAIL
  6
CONTINUOUS
 62
     5
 10
302.5
 20
344.15334999999982
 30
0.0
 11
292.0
 21
344.15334999999982
 31
0.0
  0
LINE
  8
NOTE
  6
CONTINUOUS
 62
     4
 10
309.0
 20
318.41154999999981
 30
0.0
 11
309.0
 21
296.09464000000003
 31
0.0
  0
LINE
  8
DETAIL
  6
CONTINUOUS
 62
     5
 10
285.0
 20
287.55335000000008
 30
0.0
 11
267.0
 21
287.55335000000008
 31
0.0
  0
ARC
  8
DETAIL
  6
CONTINUOUS
 62
     5
 10
283.39999999999958
 20
283.15334999999982
 30
0.0
 40
1.6000000000000001
 50
0.0
 51
90.0
  0
LINE
  8
DETAIL
  6
CONTINUOUS
 62
     5
 10
302.5
 20
228.15334999999999
 30
0.0
 11
302.5
 21
193.15334999999999
 31
0.0
  0
LINE
  8
NOTE
  6
CONTINUOUS
 62
     4
 10
309.0
 20
239.34017999999989
 30
0.0
 11
309.0
 21
217.57989000000001
 31
0.0
  0
LINE
  8
DETAIL
  6
CONTINUOUS
 62
     5
 10
292.0
 20
193.15334999999999
 30
0.0
 11
292.0
 21
198.15334999999999
 31
0.0
  0
LINE
  8
DETAIL
  6
CONTINUOUS
 62
     5
 10
292.0
 20
193.15334999999999
 30
0.0
 11
302.5
 21
193.15334999999999
 31
0.0
  0
LINE
  8
DETAIL
  6
CONTINUOUS
 62
     5
 10
285.0
 20
198.15334999999999
 30
0.0
 11
292.0
 21
198.15334999999999
 31
0.0
  0
LINE
  8
DETAIL
  6
PHANTOM
 62
     5
 10
435.0
 20
247.7532799999999
 30
0.0
 11
435.0
 21
151.75342000000001
 31
0.0
  0
LINE
  8
DETAIL
  6
CONTINUOUS
 62
     5
 10
331.0
 20
344.15334999999982
 30
0.0
 11
331.0
 21
193.15334999999999
 31
0.0
  0
LINE
  8
DETAIL
  6
PHANTOM
 62
     5
 10
328.0
 20
193.15334999999999
 30
0.0
 11
328.0
 21
115.25335
 31
0.0
  0
LINE
  8
DETAIL
  6
PHANTOM
 62
     5
 10
388.0
 20
261.75335000000001
 30
0.0
 11
388.0
 21
137.75335000000001
 31
0.0
  0
LINE
  8
DETAIL
  6
PHANTOM
 62
     5
 10
358.0
 20
261.75335000000001
 30
0.0
 11
358.0
 21
137.75335000000001
 31
0.0
  0
LINE
  8
DETAIL
  6
PHANTOM
 62
     5
 10
434.00244000000021
 20
248.82318000000009
 30
0.0
 11
435.0
 21
247.75335000000001
 31
0.0
  0
LINE
  8
DETAIL
  6
CONTINUOUS
 62
     5
 10
315.5
 20
344.15334999999982
 30
0.0
 11
315.5
 21
309.15334999999999
 31
0.0
  0
LINE
  8
DETAIL
  6
CONTINUOUS
 62
     5
 10
331.0
 20
342.15334999999982
 30
0.0
 11
315.5
 21
342.15334999999982
 31
0.0
  0
LINE
  8
DETAIL
  6
CONTINUOUS
 62
     5
 10
315.5
 20
344.15334999999982
 30
0.0
 11
331.0
 21
344.15334999999982
 31
0.0
  0
LINE
  8
DETAIL
  6
PHANTOM
 62
     5
 10
434.00244199999997
 20
248.8231780000001
 30
0.0
 11
428.69326699999971
 21
249.376205
 31
0.0
  0
LINE
  8
DETAIL
  6
PHANTOM
 62
     5
 10
428.69326699999971
 20
249.376205
 30
0.0
 11
423.22626700000001
 21
249.91760699999989
 31
0.0
  0
LINE
  8
DETAIL
  6
PHANTOM
 62
     5
 10
423.22626700000001
 20
249.91760699999989
 30
0.0
 11
417.4436169999999
 21
250.43575899999999
 31
0.0
  0
LINE
  8
DETAIL
  6
PHANTOM
 62
     5
 10
417.4436169999999
 20
250.43575899999999
 30
0.0
 11
411.18749000000031
 21
250.91903400000001
 31
0.0
  0
LINE
  8
DETAIL
  6
PHANTOM
 62
     5
 10
411.18749000000031
 20
250.91903400000001
 30
0.0
 11
404.3000619999998
 21
251.35580699999991
 31
0.0
  0
LINE
  8
DETAIL
  6
PHANTOM
 62
     5
 10
404.3000619999998
 20
251.35580699999991
 30
0.0
 11
396.62350700000019
 21
251.73445399999989
 31
0.0
  0
LINE
  8
DETAIL
  6
PHANTOM
 62
     5
 10
396.62350700000019
 20
251.73445399999989
 30
0.0
 11
388.00000099999988
 21
252.04334900000001
 31
0.0
  0
LINE
  8
DETAIL
  6
PHANTOM
 62
     5
 10
434.00244000000021
 20
150.6835199999999
 30
0.0
 11
435.0
 21
151.75335000000001
 31
0.0
  0
LINE
  8
DETAIL
  6
CONTINUOUS
 62
     5
 10
315.5
 20
228.15334999999999
 30
0.0
 11
315.5
 21
193.15334999999999
 31
0.0
  0
LINE
  8
DETAIL
  6
CONTINUOUS
 62
     5
 10
315.5
 20
193.15334999999999
 30
0.0
 11
331.0
 21
193.15334999999999
 31
0.0
  0
LINE
  8
DETAIL
  6
CONTINUOUS
 62
     5
 10
315.5
 20
195.15334999999999
 30
0.0
 11
331.0
 21
195.15334999999999
 31
0.0
  0
LINE
  8
DETAIL
  6
PHANTOM
 62
     5
 10
434.00244199999997
 20
150.6835199999999
 30
0.0
 11
428.69326699999971
 21
150.130492
 31
0.0
  0
LINE
  8
DETAIL
  6
PHANTOM
 62
     5
 10
428.69326699999971
 20
150.130492
 30
0.0
 11
423.22626700000001
 21
149.58908999999991
 31
0.0
  0
LINE
  8
DETAIL
  6
PHANTOM
 62
     5
 10
423.22626700000001
 20
149.58908999999991
 30
0.0
 11
417.4436169999999
 21
149.07093900000001
 31
0.0
  0
LINE
  8
DETAIL
  6
PHANTOM
 62
     5
 10
417.4436169999999
 20
149.07093900000001
 30
0.0
 11
411.18749000000031
 21
148.58766399999979
 31
0.0
  0
LINE
  8
DETAIL
  6
PHANTOM
 62
     5
 10
411.18749000000031
 20
148.58766399999979
 30
0.0
 11
404.3000619999998
 21
148.15089
 31
0.0
  0
LINE
  8
DETAIL
  6
PHANTOM
 62
     5
 10
404.3000619999998
 20
148.15089
 30
0.0
 11
396.62350700000019
 21
147.772243
 31
0.0
  0
LINE
  8
DETAIL
  6
PHANTOM
 62
     5
 10
396.62350700000019
 20
147.772243
 30
0.0
 11
388.00000099999988
 21
147.46334899999991
 31
0.0
  0
LINE
  8
DETAIL
  6
CONTINUOUS
 62
     5
 10
-120.0
 20
-287.64665000000002
 30
0.0
 11
-267.0
 21
-287.64665000000002
 31
0.0
  0
LINE
  8
DETAIL
  6
CONTINUOUS
 62
     5
 10
-283.40000000000009
 20
-284.84665000000001
 30
0.0
 11
283.39999999999958
 21
-284.84665000000001
 31
0.0
  0
LINE
  8
DETAIL
  6
CONTINUOUS
 62
     5
 10
-285.0
 20
-328.55335999999988
 30
0.0
 11
-118.0
 21
-328.55335999999988
 31
0.0
  0
LINE
  8
DETAIL
  6
CONTINUOUS
 62
     5
 10
-264.5
 20
-358.55243442377127
 30
0.0
 11
-140.5
 21
-358.55446894861092
 31
0.0
  0
LINE
  8
DETAIL
  6
CONTINUOUS
 62
     5
 10
-264.5
 20
-388.55336
 30
0.0
 11
-140.5
 21
-388.55336
 31
0.0
  0
LINE
  8
DETAIL
  6
CONTINUOUS
 62
     5
 10
-250.5
 20
-435.55335999999988
 30
0.0
 11
-154.5
 21
-435.55335999999988
 31
0.0
  0
LINE
  8
DETAIL
  6
CONTINUOUS
 62
     5
 10
-267.0
 20
-287.55336
 30
0.0
 11
-149.0
 21
-287.55336
 31
0.0
  0
LINE
  8
DETAIL
  6
CONTINUOUS
 62
     5
 10
-251.56982999999991
 20
-434.55579999999992
 30
0.0
 11
-254.78999999999999
 21
-388.55336
 31
0.0
  0
LINE
  8
DETAIL
  6
CONTINUOUS
 62
     5
 10
-331.0
 20
-194.2466499999999
 30
0.0
 11
-331.0
 21
-344.24664999999999
 31
0.0
  0
LINE
  8
NOTE
  6
CONTINUOUS
 62
     4
 10
-323.58010000000007
 20
-229.2466499999999
 30
0.0
 11
-292.61705999999998
 21
-229.2466499999999
 31
0.0
  0
LINE
  8
DETAIL
  6
CONTINUOUS
 62
     5
 10
-315.5
 20
-194.2466499999999
 30
0.0
 11
-331.0
 21
-194.2466499999999
 31
0.0
  0
LINE
  8
DETAIL
  6
CONTINUOUS
 62
     5
 10
-331.0
 20
-196.2466499999999
 30
0.0
 11
-315.5
 21
-196.2466499999999
 31
0.0
  0
LINE
  8
NOTE
  6
CONTINUOUS
 62
     4
 10
-309.0
 20
-216.6428699999999
 30
0.0
 11
-309.0
 21
-246.1852299999999
 31
0.0
  0
LINE
  8
DETAIL
  6
CONTINUOUS
 62
     5
 10
-302.5
 20
-194.2466499999999
 30
0.0
 11
-302.5
 21
-229.2466499999999
 31
0.0
  0
LINE
  8
DETAIL
  6
CONTINUOUS
 62
     5
 10
-315.5
 20
-194.2466499999999
 30
0.0
 11
-315.5
 21
-229.2466499999999
 31
0.0
  0
LINE
  8
DETAIL
  6
CONTINUOUS
 62
     5
 10
-285.0
 20
-199.2466499999999
 30
0.0
 11
-292.0
 21
-199.2466499999999
 31
0.0
  0
LINE
  8
DETAIL
  6
CONTINUOUS
 62
     5
 10
-292.0
 20
-194.2466499999999
 30
0.0
 11
-292.0
 21
-199.2466499999999
 31
0.0
  0
LINE
  8
DETAIL
  6
CONTINUOUS
 62
     5
 10
-302.5
 20
-194.2466499999999
 30
0.0
 11
-292.0
 21
-194.2466499999999
 31
0.0
  0
ARC
  8
DETAIL
  6
CONTINUOUS
 62
     5
 10
-309.0
 20
-229.2466499999999
 30
0.0
 40
6.5
 50
180.0
 51
0.0
  0
LINE
  8
NOTE
  6
CONTINUOUS
 62
     4
 10
-322.39620000000008
 20
-309.24664999999999
 30
0.0
 11
-292.97222999999991
 21
-309.24664999999999
 31
0.0
  0
LINE
  8
DETAIL
  6
CONTINUOUS
 62
     5
 10
-315.5
 20
-342.24664999999999
 30
0.0
 11
-331.0
 21
-342.24664999999999
 31
0.0
  0
LINE
  8
DETAIL
  6
CONTINUOUS
 62
     5
 10
-315.5
 20
-344.24664999999999
 30
0.0
 11
-331.0
 21
-344.24664999999999
 31
0.0
  0
LINE
  8
DETAIL
  6
CONTINUOUS
 62
     5
 10
-292.0
 20
-344.24664999999999
 30
0.0
 11
-292.0
 21
-339.24664999999982
 31
0.0
  0
LINE
  8
DETAIL
  6
CONTINUOUS
 62
     5
 10
-302.5
 20
-309.24664999999999
 30
0.0
 11
-302.5
 21
-344.24664999999999
 31
0.0
  0
LINE
  8
DETAIL
  6
CONTINUOUS
 62
     5
 10
-315.5
 20
-309.24664999999999
 30
0.0
 11
-315.5
 21
-344.24664999999999
 31
0.0
  0
LINE
  8
NOTE
  6
CONTINUOUS
 62
     4
 10
-309.0
 20
-291.58393000000001
 30
0.0
 11
-309.0
 21
-324.08605
 31
0.0
  0
ARC
  8
DETAIL
  6
CONTINUOUS
 62
     5
 10
-283.40000000000009
 20
-283.24664999999982
 30
0.0
 40
1.6000000000000001
 50
180.0
 51
270.0
  0
LINE
  8
DETAIL
  6
CONTINUOUS
 62
     5
 10
-284.9999399999997
 20
-287.64665000000002
 30
0.0
 11
-267.0
 21
-287.64665000000002
 31
0.0
  0
LINE
  8
DETAIL
  6
CONTINUOUS
 62
     5
 10
-285.0
 20
-287.55336
 30
0.0
 11
-267.0
 21
-287.55336
 31
0.0
  0
LINE
  8
DETAIL
  6
CONTINUOUS
 62
     5
 10
-285.0
 20
-339.24664999999982
 30
0.0
 11
-292.0
 21
-339.24664999999982
 31
0.0
  0
ARC
  8
DETAIL
  6
CONTINUOUS
 62
     5
 10
-309.0
 20
-309.24664999999999
 30
0.0
 40
6.5
 50
0.0
 51
180.0
  0
LINE
  8
DETAIL
  6
CONTINUOUS
 62
     5
 10
-202.47609999999989
 20
-266.58737000000002
 30
0.0
 11
-202.47609999999989
 21
-268.63364000000001
 31
0.0
  0
LINE
  8
DETAIL
  6
CONTINUOUS
 62
     5
 10
-292.0
 20
-344.24664999999999
 30
0.0
 11
-302.5
 21
-344.24664999999999
 31
0.0
  0
LINE
  8
DETAIL
  6
CONTINUOUS
 62
     5
 10
-251.56982999999991
 20
-434.55579999999992
 30
0.0
 11
-250.5
 21
-435.55335999999988
 31
0.0
  0
LINE
  8
BASIS
  6
CENTER
 62
     6
 10
278.04169000000002
 20
-199.84665000000001
 30
0.0
 11
452.14445999999998
 21
-199.84665000000001
 31
0.0
  0
LINE
  8
NOTE
  6
CONTINUOUS
 62
     4
 10
296.14796999999999
 20
-228.2466499999999
 30
0.0
 11
321.78255999999959
 21
-228.2466499999999
 31
0.0
  0
LINE
  8
NOTE
  6
CONTINUOUS
 62
     4
 10
294.15243999999979
 20
-309.24664999999999
 30
0.0
 11
322.92287000000027
 21
-309.24664999999999
 31
0.0
  0
ARC
  8
DETAIL
  6
CONTINUOUS
 62
     5
 10
309.0
 20
-309.24664999999999
 30
0.0
 40
6.5
 50
0.0
 51
180.0
  0
ARC
  8
DETAIL
  6
CONTINUOUS
 62
     5
 10
309.0
 20
-228.2466499999999
 30
0.0
 40
6.5
 50
180.0
 51
0.0
  0
LINE
  8
DETAIL
  6
PHANTOM
 62
     5
 10
288.61254000000008
 20
-115.34665
 30
0.0
 11
328.0
 21
-115.34665
 31
0.0
  0
LINE
  8
BASIS
  6
CENTER
 62
     6
 10
202.5
 20
-268.43013000000002
 30
0.0
 11
202.5
 21
-453.78870999999992
 31
0.0
  0
LINE
  8
DETAIL
  6
CONTINUOUS
 62
     5
 10
251.56982999999991
 20
-434.55579999999992
 30
0.0
 11
254.78999999999999
 21
-388.55336
 31
0.0
  0
LINE
  8
DETAIL
  6
CONTINUOUS
 62
     5
 10
153.43017000000009
 20
-434.55579999999992
 30
0.0
 11
150.21000000000001
 21
-388.55336
 31
0.0
  0
LINE
  8
DETAIL
  6
CONTINUOUS
 62
     5
 10
-153.43017000000009
 20
-434.55579999999992
 30
0.0
 11
-150.21000000000001
 21
-388.55336
 31
0.0
  0
LINE
  8
DETAIL
  6
CONTINUOUS
 62
     5
 10
-120.0
 20
-287.93553000000009
 30
0.0
 11
120.0
 21
-287.93553000000009
 31
0.0
  0
LINE
  8
DETAIL
  6
CONTINUOUS
 62
     5
 10
-149.0
 20
-287.55336
 30
0.0
 11
-118.0
 21
-287.55336
 31
0.0
  0
LINE
  8
DETAIL
  6
CONTINUOUS
 62
     5
 10
-118.0
 20
-287.55336
 30
0.0
 11
-118.0
 21
-328.55335999999988
 31
0.0
  0
LINE
  8
DETAIL
  6
CONTINUOUS
 62
     5
 10
285.00464999999991
 20
-144.10318000000009
 30
0.0
 11
285.0
 21
-144.1061500000001
 31
0.0
  0
LINE
  8
DETAIL
  6
CONTINUOUS
 62
     5
 10
285.0
 20
-144.10621
 30
0.0
 11
285.00464999999991
 21
-144.10318000000009
 31
0.0
  0
LINE
  8
DETAIL
  6
CONTINUOUS
 62
     5
 10
302.5
 20
-193.2466499999999
 30
0.0
 11
302.5
 21
-228.2466499999999
 31
0.0
  0
LINE
  8
DETAIL
  6
CONTINUOUS
 62
     5
 10
292.0
 20
-194.2466499999999
 30
0.0
 11
292.0
 21
-199.2466499999999
 31
0.0
  0
LINE
  8
DETAIL
  6
CONTINUOUS
 62
     5
 10
302.5
 20
-193.2466499999999
 30
0.0
 11
292.0
 21
-193.2466499999999
 31
0.0
  0
LINE
  8
DETAIL
  6
CONTINUOUS
 62
     5
 10
285.0
 20
-199.2466499999999
 30
0.0
 11
292.0
 21
-199.2466499999999
 31
0.0
  0
LINE
  8
NOTE
  6
CONTINUOUS
 62
     4
 10
309.0
 20
-217.92245999999989
 30
0.0
 11
309.0
 21
-245.69512000000009
 31
0.0
  0
LINE
  8
DETAIL
  6
CONTINUOUS
 62
     5
 10
267.0
 20
-287.64665000000002
 30
0.0
 11
149.0
 21
-287.64665000000002
 31
0.0
  0
LINE
  8
DETAIL
  6
CONTINUOUS
 62
     5
 10
285.0
 20
-328.55335999999988
 30
0.0
 11
118.0
 21
-328.55335999999988
 31
0.0
  0
LINE
  8
DETAIL
  6
CONTINUOUS
 62
     5
 10
264.5
 20
-358.55336
 30
0.0
 11
140.5
 21
-358.55336
 31
0.0
  0
LINE
  8
DETAIL
  6
CONTINUOUS
 62
     5
 10
264.5
 20
-388.55336
 30
0.0
 11
140.5
 21
-388.55336
 31
0.0
  0
LINE
  8
DETAIL
  6
CONTINUOUS
 62
     5
 10
267.0
 20
-287.55336
 30
0.0
 11
149.0
 21
-287.55336
 31
0.0
  0
LINE
  8
DETAIL
  6
CONTINUOUS
 62
     5
 10
120.00005999999981
 20
-287.64665000000002
 30
0.0
 11
149.0
 21
-287.64665000000002
 31
0.0
  0
LINE
  8
DETAIL
  6
CONTINUOUS
 62
     5
 10
149.0
 20
-287.55336
 30
0.0
 11
118.0
 21
-287.55336
 31
0.0
  0
LINE
  8
DETAIL
  6
CONTINUOUS
 62
     5
 10
118.0
 20
-287.55336
 30
0.0
 11
118.0
 21
-328.55335999999988
 31
0.0
  0
LINE
  8
DETAIL
  6
CONTINUOUS
 62
     5
 10
302.5
 20
-309.24664999999999
 30
0.0
 11
302.5
 21
-344.24664999999999
 31
0.0
  0
LINE
  8
DETAIL
  6
CONTINUOUS
 62
     5
 10
292.0
 20
-344.24664999999999
 30
0.0
 11
292.0
 21
-340.24664999999999
 31
0.0
  0
LINE
  8
NOTE
  6
CONTINUOUS
 62
     4
 10
309.0
 20
-295.89316999999983
 30
0.0
 11
309.0
 21
-319.10460999999992
 31
0.0
  0
LINE
  8
DETAIL
  6
CONTINUOUS
 62
     5
 10
267.0
 20
-287.64665000000002
 30
0.0
 11
284.9999399999997
 21
-287.64665000000002
 31
0.0
  0
LINE
  8
DETAIL
  6
CONTINUOUS
 62
     5
 10
285.0
 20
-287.55336
 30
0.0
 11
267.0
 21
-287.55336
 31
0.0
  0
ARC
  8
DETAIL
  6
CONTINUOUS
 62
     5
 10
283.39999999999958
 20
-283.24664999999982
 30
0.0
 40
1.6000000000000001
 50
270.0
 51
0.0
  0
LINE
  8
DETAIL
  6
CONTINUOUS
 62
     5
 10
282.63999999999987
 20
-284.84172000000001
 30
0.0
 11
282.59999999999991
 21
-284.84665000000001
 31
0.0
  0
LINE
  8
DETAIL
  6
CONTINUOUS
 62
     5
 10
285.0
 20
-340.24664999999999
 30
0.0
 11
292.0
 21
-340.24664999999999
 31
0.0
  0
LINE
  8
DETAIL
  6
CONTINUOUS
 62
     5
 10
292.0
 20
-344.24664999999999
 30
0.0
 11
302.5
 21
-344.24664999999999
 31
0.0
  0
LINE
  8
DETAIL
  6
CONTINUOUS
 62
     5
 10
-153.43017000000009
 20
-434.55579999999992
 30
0.0
 11
-154.5
 21
-435.55335999999988
 31
0.0
  0
LINE
  8
DETAIL
  6
CONTINUOUS
 62
     5
 10
250.5
 20
-435.55335999999988
 30
0.0
 11
154.5
 21
-435.55335999999988
 31
0.0
  0
LINE
  8
DETAIL
  6
CONTINUOUS
 62
     5
 10
153.43017000000009
 20
-434.55579999999992
 30
0.0
 11
154.5
 21
-435.55335999999988
 31
0.0
  0
LINE
  8
DETAIL
  6
CONTINUOUS
 62
     5
 10
251.56982999999991
 20
-434.55579999999992
 30
0.0
 11
250.5
 21
-435.55335999999988
 31
0.0
  0
LINE
  8
DETAIL
  6
CONTINUOUS
 62
     5
 10
331.0
 20
-193.2466499999999
 30
0.0
 11
331.0
 21
-344.24664999999999
 31
0.0
  0
LINE
  8
DETAIL
  6
PHANTOM
 62
     5
 10
388.0
 20
-137.84665000000001
 30
0.0
 11
388.0
 21
-261.84665000000001
 31
0.0
  0
LINE
  8
DETAIL
  6
PHANTOM
 62
     5
 10
328.0
 20
-115.34665
 30
0.0
 11
328.0
 21
-193.2466499999999
 31
0.0
  0
LINE
  8
DETAIL
  6
PHANTOM
 62
     5
 10
358.0
 20
-137.84665000000001
 30
0.0
 11
358.0
 21
-261.84665000000001
 31
0.0
  0
LINE
  8
DETAIL
  6
PHANTOM
 62
     5
 10
434.00244000000021
 20
-150.7768199999999
 30
0.0
 11
435.0
 21
-151.84665000000001
 31
0.0
  0
LINE
  8
DETAIL
  6
PHANTOM
 62
     5
 10
434.00244000000021
 20
-248.91648000000001
 30
0.0
 11
435.0
 21
-247.84665000000001
 31
0.0
  0
LINE
  8
DETAIL
  6
PHANTOM
 62
     5
 10
434.00244199999997
 20
-150.77682200000001
 30
0.0
 11
428.69326699999971
 21
-150.223795
 31
0.0
  0
LINE
  8
DETAIL
  6
PHANTOM
 62
     5
 10
428.69326699999971
 20
-150.223795
 30
0.0
 11
423.22626700000001
 21
-149.68239299999979
 31
0.0
  0
LINE
  8
DETAIL
  6
PHANTOM
 62
     5
 10
423.22626700000001
 20
-149.68239299999979
 30
0.0
 11
417.4436169999999
 21
-149.16424099999981
 31
0.0
  0
LINE
  8
DETAIL
  6
PHANTOM
 62
     5
 10
417.4436169999999
 20
-149.16424099999981
 30
0.0
 11
411.18749000000031
 21
-148.68096600000001
 31
0.0
  0
LINE
  8
DETAIL
  6
PHANTOM
 62
     5
 10
411.18749000000031
 20
-148.68096600000001
 30
0.0
 11
404.3000619999998
 21
-148.244193
 31
0.0
  0
LINE
  8
DETAIL
  6
PHANTOM
 62
     5
 10
404.3000619999998
 20
-148.244193
 30
0.0
 11
396.62350700000019
 21
-147.8655459999998
 31
0.0
  0
LINE
  8
DETAIL
  6
PHANTOM
 62
     5
 10
396.62350700000019
 20
-147.8655459999998
 30
0.0
 11
388.00000099999988
 21
-147.5566509999999
 31
0.0
  0
LINE
  8
DETAIL
  6
CONTINUOUS
 62
     5
 10
315.5
 20
-193.2466499999999
 30
0.0
 11
315.5
 21
-228.2466499999999
 31
0.0
  0
LINE
  8
DETAIL
  6
CONTINUOUS
 62
     5
 10
315.5
 20
-193.2466499999999
 30
0.0
 11
331.0
 21
-193.2466499999999
 31
0.0
  0
LINE
  8
DETAIL
  6
CONTINUOUS
 62
     5
 10
331.0
 20
-195.2466499999999
 30
0.0
 11
315.5
 21
-195.2466499999999
 31
0.0
  0
LINE
  8
DETAIL
  6
PHANTOM
 62
     5
 10
434.00244199999997
 20
-248.91648000000001
 30
0.0
 11
428.69326699999971
 21
-249.46950799999999
 31
0.0
  0
LINE
  8
DETAIL
  6
PHANTOM
 62
     5
 10
428.69326699999971
 20
-249.46950799999999
 30
0.0
 11
423.22626700000001
 21
-250.01091
 31
0.0
  0
LINE
  8
DETAIL
  6
PHANTOM
 62
     5
 10
423.22626700000001
 20
-250.01091
 30
0.0
 11
417.4436169999999
 21
-250.52906100000001
 31
0.0
  0
LINE
  8
DETAIL
  6
PHANTOM
 62
     5
 10
417.4436169999999
 20
-250.52906100000001
 30
0.0
 11
411.18749000000031
 21
-251.01233599999981
 31
0.0
  0
LINE
  8
DETAIL
  6
PHANTOM
 62
     5
 10
411.18749000000031
 20
-251.01233599999981
 30
0.0
 11
404.3000619999998
 21
-251.44910999999991
 31
0.0
  0
LINE
  8
DETAIL
  6
PHANTOM
 62
     5
 10
404.3000619999998
 20
-251.44910999999991
 30
0.0
 11
396.62350700000019
 21
-251.82775699999991
 31
0.0
  0
LINE
  8
DETAIL
  6
PHANTOM
 62
     5
 10
396.62350700000019
 20
-251.82775699999991
 30
0.0
 11
388.00000099999988
 21
-252.13665099999989
 31
0.0
  0
LINE
  8
DETAIL
  6
PHANTOM
 62
     5
 10
435.0
 20
-151.84672
 30
0.0
 11
435.0
 21
-247.8465799999999
 31
0.0
  0
LINE
  8
DETAIL
  6
CONTINUOUS
 62
     5
 10
315.5
 20
-309.24664999999999
 30
0.0
 11
315.5
 21
-344.24664999999999
 31
0.0
  0
LINE
  8
DETAIL
  6
CONTINUOUS
 62
     5
 10
315.5
 20
-342.24664999999999
 30
0.0
 11
331.0
 21
-342.24664999999999
 31
0.0
  0
LINE
  8
DETAIL
  6
CONTINUOUS
 62
     5
 10
315.5
 20
-344.24664999999999
 30
0.0
 11
331.0
 21
-344.24664999999999
 31
0.0
  0
LINE
  8
OUTLINE
  6
CONTINUOUS
 62
     3
 10
-285.0
 20
-328.55335999999988
 30
0.0
 11
-285.0
 21
328.55335000000008
 31
0.0
  0
LINE
  8
OUTLINE
  6
CONTINUOUS
 62
     3
 10
285.0
 20
-328.55335999999988
 30
0.0
 11
285.0
 21
328.55335000000008
 31
0.0
  0
LINE
  8
OUTLINE
  6
CONTINUOUS
 62
     3
 10
-285.0
 20
284.75335000000001
 30
0.0
 11
285.0
 21
284.75335000000001
 31
0.0
  0
LINE
  8
OUTLINE
  6
CONTINUOUS
 62
     3
 10
-285.0
 20
-284.84665000000001
 30
0.0
 11
285.0
 21
-284.84665000000001
 31
0.0
  0
LINE
  8
BASIS
  6
CENTER
 62
     6
 10
-202.47609999999989
 20
-266.58737000000002
 30
0.0
 11
-202.5
 21
-460.8261
 31
0.0
  0
LINE
  8
SIZE
  6
CONTINUOUS
 62
    30
 10
-202.5
 20
-480.8261
 30
0.0
 11
-202.5
 21
-610.084067
 31
0.0
  0
LINE
  8
SIZE
  6
CONTINUOUS
 62
    30
 10
202.5
 20
-480.8261
 30
0.0
 11
202.5
 21
-610.084067
 31
0.0
  0
LINE
  8
SIZE
  6
CONTINUOUS
 62
    30
 10
-190.5
 20
-590.084067
 30
0.0
 11
190.5
 21
-590.084067
 31
0.0
  0
CIRCLE
  8
SIZE
  6
CONTINUOUS
 62
    30
 10
-202.5
 20
-590.084067
 30
0.0
 40
6.0
  0
LINE
  8
SIZE
  6
CONTINUOUS
 62
    30
 10
-202.5
 20
-590.084067
 30
0.0
 11
-190.5
 21
-590.084067
 31
0.0
  0
CIRCLE
  8
SIZE
  6
CONTINUOUS
 62
    30
 10
202.5
 20
-590.084067
 30
0.0
 40
6.0
  0
LINE
  8
SIZE
  6
CONTINUOUS
 62
    30
 10
202.5
 20
-590.084067
 30
0.0
 11
190.5
 21
-590.084067
 31
0.0
  0
TEXT
  8
SIZE
  6
CONTINUOUS
 62
    30
 10
-74.05714285714285
 20
-565.084067
 30
0.0
 40
64.0
  1
405
 41
0.9
 72
     1
 11
0.0
 21
-565.084067
 31
0.0
  0
LINE
  8
SIZE
  6
CONTINUOUS
 62
    30
 10
-285.0
 20
-303.24664999999982
 30
0.0
 11
-285.0
 21
-730.084067
 31
0.0
  0
LINE
  8
SIZE
  6
CONTINUOUS
 62
    30
 10
285.0
 20
-360.24664999999987
 30
0.0
 11
285.0
 21
-730.084067
 31
0.0
  0
LINE
  8
SIZE
  6
CONTINUOUS
 62
    30
 10
-273.0
 20
-710.084067
 30
0.0
 11
273.0
 21
-710.084067
 31
0.0
  0
CIRCLE
  8
SIZE
  6
CONTINUOUS
 62
    30
 10
-285.0
 20
-710.084067
 30
0.0
 40
6.0
  0
LINE
  8
SIZE
  6
CONTINUOUS
 62
    30
 10
-285.0
 20
-710.084067
 30
0.0
 11
-273.0
 21
-710.084067
 31
0.0
  0
CIRCLE
  8
SIZE
  6
CONTINUOUS
 62
    30
 10
285.0
 20
-710.084067
 30
0.0
 40
6.0
  0
LINE
  8
SIZE
  6
CONTINUOUS
 62
    30
 10
285.0
 20
-710.084067
 30
0.0
 11
273.0
 21
-710.084067
 31
0.0
  0
TEXT
  8
SIZE
  6
CONTINUOUS
 62
    30
 10
-74.05714285714285
 20
-685.084067
 30
0.0
 40
64.0
  1
570
 41
0.9
 72
     1
 11
0.0
 21
-685.084067
 31
0.0
  0
LINE
  8
SIZE
  6
CONTINUOUS
 62
    30
 10
-309.0
 20
-343.08605
 30
0.0
 11
-309.0
 21
-849.084067
 31
0.0
  0
LINE
  8
SIZE
  6
CONTINUOUS
 62
    30
 10
309.0
 20
-344.08604999999977
 30
0.0
 11
309.0
 21
-849.084067
 31
0.0
  0
LINE
  8
SIZE
  6
CONTINUOUS
 62
    30
 10
-297.0
 20
-829.084067
 30
0.0
 11
297.0
 21
-829.084067
 31
0.0
  0
CIRCLE
  8
SIZE
  6
CONTINUOUS
 62
    30
 10
-309.0
 20
-829.084067
 30
0.0
 40
6.0
  0
LINE
  8
SIZE
  6
CONTINUOUS
 62
    30
 10
-309.0
 20
-829.084067
 30
0.0
 11
-297.0
 21
-829.084067
 31
0.0
  0
CIRCLE
  8
SIZE
  6
CONTINUOUS
 62
    30
 10
309.0
 20
-829.084067
 30
0.0
 40
6.0
  0
LINE
  8
SIZE
  6
CONTINUOUS
 62
    30
 10
309.0
 20
-829.084067
 30
0.0
 11
297.0
 21
-829.084067
 31
0.0
  0
TEXT
  8
SIZE
  6
CONTINUOUS
 62
    30
 10
-261.11999999999989
 20
-804.084067
 30
0.0
 40
64.0
  1
618（天吊位置）
 41
0.9
 72
     1
 11
0.0
 21
-804.084067
 31
0.0
  0
LINE
  8
SIZE
  6
CONTINUOUS
 62
    30
 10
-305.0
 20
284.75335000000001
 30
0.0
 11
-475.17819299999968
 21
284.75335000000001
 31
0.0
  0
LINE
  8
SIZE
  6
CONTINUOUS
 62
    30
 10
-305.0
 20
-284.84665000000001
 30
0.0
 11
-475.17819299999968
 21
-284.84665000000001
 31
0.0
  0
LINE
  8
SIZE
  6
CONTINUOUS
 62
    30
 10
-455.17819299999968
 20
272.75335000000001
 30
0.0
 11
-455.17819299999968
 21
-272.84665000000001
 31
0.0
  0
CIRCLE
  8
SIZE
  6
CONTINUOUS
 62
    30
 10
-455.17819299999968
 20
284.75335000000001
 30
0.0
 40
6.0
  0
LINE
  8
SIZE
  6
CONTINUOUS
 62
    30
 10
-455.17819299999968
 20
284.75335000000001
 30
0.0
 11
-455.17819299999968
 21
272.75335000000001
 31
0.0
  0
CIRCLE
  8
SIZE
  6
CONTINUOUS
 62
    30
 10
-455.17819299999968
 20
-284.84665000000001
 30
0.0
 40
6.0
  0
LINE
  8
SIZE
  6
CONTINUOUS
 62
    30
 10
-455.17819299999968
 20
-284.84665000000001
 30
0.0
 11
-455.17819299999968
 21
-272.84665000000001
 31
0.0
  0
TEXT
  8
SIZE
  6
CONTINUOUS
 62
    30
 10
-480.17819299999968
 20
-74.103792857142849
 30
0.0
 40
64.0
  1
570
 50
90.0
 41
0.9
 72
     1
 11
-480.17819299999968
 21
-0.0466499999999996
 31
0.0
  0
LINE
  8
SIZE
  6
CONTINUOUS
 62
    30
 10
-344.0302499999998
 20
309.15334999999999
 30
0.0
 11
-595.17819299999974
 21
309.15334999999999
 31
0.0
  0
LINE
  8
SIZE
  6
CONTINUOUS
 62
    30
 10
-344.0302499999998
 20
-309.24664999999999
 30
0.0
 11
-595.17819299999974
 21
-309.24664999999999
 31
0.0
  0
LINE
  8
SIZE
  6
CONTINUOUS
 62
    30
 10
-575.17819299999974
 20
297.15334999999982
 30
0.0
 11
-575.17819299999974
 21
-297.24664999999982
 31
0.0
  0
CIRCLE
  8
SIZE
  6
CONTINUOUS
 62
    30
 10
-575.17819299999974
 20
309.15334999999999
 30
0.0
 40
6.0
  0
LINE
  8
SIZE
  6
CONTINUOUS
 62
    30
 10
-575.17819299999974
 20
309.15334999999999
 30
0.0
 11
-575.17819299999974
 21
297.15334999999982
 31
0.0
  0
CIRCLE
  8
SIZE
  6
CONTINUOUS
 62
    30
 10
-575.17819299999974
 20
-309.24664999999999
 30
0.0
 40
6.0
  0
LINE
  8
SIZE
  6
CONTINUOUS
 62
    30
 10
-575.17819299999974
 20
-309.24664999999999
 30
0.0
 11
-575.17819299999974
 21
-297.24664999999982
 31
0.0
  0
TEXT
  8
SIZE
  6
CONTINUOUS
 62
    30
 10
-600.17819299999974
 20
-261.16664999999989
 30
0.0
 40
64.0
  1
618（天吊位置）
 50
90.0
 41
0.9
 72
     1
 11
-600.17819299999974
 21
-0.0466499999999996
 31
0.0
  0
LINE
  8
SIZE
  6
CONTINUOUS
 62
    30
 10
-286.67055499999969
 20
435.55334999999991
 30
0.0
 11
-475.17819299999968
 21
435.55334999999991
 31
0.0
  0
LINE
  8
SIZE
  6
CONTINUOUS
 62
    30
 10
-410.08909600000021
 20
284.75335000000001
 30
0.0
 11
-475.17819299999968
 21
284.75335000000001
 31
0.0
  0
LINE
  8
SIZE
  6
CONTINUOUS
 62
    30
 10
-455.17819299999968
 20
296.75335000000001
 30
0.0
 11
-455.17819299999968
 21
423.55335000000008
 31
0.0
  0
LINE
  8
SIZE
  6
CONTINUOUS
 62
    30
 10
-455.17819299999968
 20
435.55334999999991
 30
0.0
 11
-455.17819299999968
 21
610.010493
 31
0.0
  0
CIRCLE
  8
SIZE
  6
CONTINUOUS
 62
    30
 10
-455.17819299999968
 20
284.75335000000001
 30
0.0
 40
6.0
  0
LINE
  8
SIZE
  6
CONTINUOUS
 62
    30
 10
-455.17819299999968
 20
284.75335000000001
 30
0.0
 11
-455.17819299999968
 21
296.75335000000001
 31
0.0
  0
CIRCLE
  8
SIZE
  6
CONTINUOUS
 62
    30
 10
-455.17819299999968
 20
435.55334999999991
 30
0.0
 40
6.0
  0
LINE
  8
SIZE
  6
CONTINUOUS
 62
    30
 10
-455.17819299999968
 20
435.55334999999991
 30
0.0
 11
-455.17819299999968
 21
423.55335000000008
 31
0.0
  0
TEXT
  8
SIZE
  6
CONTINUOUS
 62
    30
 10
-480.17819299999968
 20
472.55334957142861
 30
0.0
 40
64.0
  1
151
 50
90.0
 41
0.9
 72
     1
 11
-480.17819299999968
 21
528.78192100000001
 31
0.0
  0
LINE
  8
SIZE
  6
CONTINUOUS
 62
    30
 10
-283.45037899999988
 20
-435.55335999999988
 30
0.0
 11
-475.17819299999968
 21
-435.55335999999988
 31
0.0
  0
LINE
  8
SIZE
  6
CONTINUOUS
 62
    30
 10
-391.84481899999992
 20
-284.84665000000001
 30
0.0
 11
-475.17819299999968
 21
-284.84665000000001
 31
0.0
  0
LINE
  8
SIZE
  6
CONTINUOUS
 62
    30
 10
-455.17819299999968
 20
-296.84665000000001
 30
0.0
 11
-455.17819299999968
 21
-423.55335999999988
 31
0.0
  0
LINE
  8
SIZE
  6
CONTINUOUS
 62
    30
 10
-455.17819299999968
 20
-435.55335999999988
 30
0.0
 11
-455.17819299999968
 21
-610.01050299999986
 31
0.0
  0
CIRCLE
  8
SIZE
  6
CONTINUOUS
 62
    30
 10
-455.17819299999968
 20
-284.84665000000001
 30
0.0
 40
6.0
  0
LINE
  8
SIZE
  6
CONTINUOUS
 62
    30
 10
-455.17819299999968
 20
-284.84665000000001
 30
0.0
 11
-455.17819299999968
 21
-296.84665000000001
 31
0.0
  0
CIRCLE
  8
SIZE
  6
CONTINUOUS
 62
    30
 10
-455.17819299999968
 20
-435.55335999999988
 30
0.0
 40
6.0
  0
LINE
  8
SIZE
  6
CONTINUOUS
 62
    30
 10
-455.17819299999968
 20
-435.55335999999988
 30
0.0
 11
-455.17819299999968
 21
-423.55335999999988
 31
0.0
  0
TEXT
  8
SIZE
  6
CONTINUOUS
 62
    30
 10
-480.17819299999968
 20
-585.01050242857104
 30
0.0
 40
64.0
  1
151
 50
90.0
 41
0.9
 72
     1
 11
-480.17819299999968
 21
-528.78193099999964
 31
0.0
  0
LINE
  8
SIZE
  6
CONTINUOUS
 62
    30
 10
470.54742999999962
 20
199.75335000000001
 30
0.0
 11
602.60921600000029
 21
199.75335000000001
 31
0.0
  0
LINE
  8
SIZE
  6
CONTINUOUS
 62
    30
 10
472.14445999999998
 20
-199.84665000000001
 30
0.0
 11
602.60921600000029
 21
-199.84665000000001
 31
0.0
  0
LINE
  8
SIZE
  6
CONTINUOUS
 62
    30
 10
582.60921599999983
 20
187.75335000000001
 30
0.0
 11
582.60921599999983
 21
-187.84665000000001
 31
0.0
  0
CIRCLE
  8
SIZE
  6
CONTINUOUS
 62
    30
 10
582.60921599999983
 20
199.75335000000001
 30
0.0
 40
6.0
  0
LINE
  8
SIZE
  6
CONTINUOUS
 62
    30
 10
582.60921599999983
 20
199.75335000000001
 30
0.0
 11
582.60921599999983
 21
187.75335000000001
 31
0.0
  0
CIRCLE
  8
SIZE
  6
CONTINUOUS
 62
    30
 10
582.60921599999983
 20
-199.84665000000001
 30
0.0
 40
6.0
  0
LINE
  8
SIZE
  6
CONTINUOUS
 62
    30
 10
582.60921599999983
 20
-199.84665000000001
 30
0.0
 11
582.60921599999983
 21
-187.84665000000001
 31
0.0
  0
TEXT
  8
SIZE
  6
CONTINUOUS
 62
    30
 10
557.60921599999983
 20
-74.103792857142849
 30
0.0
 40
64.0
  1
400
 50
90.0
 41
0.9
 72
     1
 11
557.60921599999983
 21
-0.0466499999999996
 31
0.0
  0
TEXT
  8
NOTE
  6
CONTINUOUS
 62
     4
 10
-231.9318050000002
 20
469.440744
 30
0.0
 40
40.0
  1
EA
 41
0.9
  0
TEXT
  8
NOTE
  6
CONTINUOUS
 62
     4
 10
173.99453199999971
 20
469.440744
 30
0.0
 40
40.0
  1
OA1
 41
0.9
  0
TEXT
  8
NOTE
  6
CONTINUOUS
 62
     4
 10
-231.9318050000002
 20
-499.50676499999997
 30
0.0
 40
40.0
  1
SA
 41
0.9
  0
TEXT
  8
NOTE
  6
CONTINUOUS
 62
     4
 10
173.99453199999971
 20
-499.50676499999997
 30
0.0
 40
40.0
  1
RA1
 41
0.9
  0
TEXT
  8
NOTE
  6
CONTINUOUS
 62
     4
 10
498.73560800000001
 20
-256.07660199999992
 30
0.0
 40
40.0
  1
RA2
 50
90.0
 41
0.9
  0
TEXT
  8
NOTE
  6
CONTINUOUS
 62
     4
 10
498.73560800000001
 20
149.6403309999998
 30
0.0
 40
40.0
  1
OA2
 50
90.0
 41
0.9
  0
LINE
  8
SIZE
  6
CONTINUOUS
 62
    30
 10
-251.5
 20
455.55335000000008
 30
0.0
 11
-251.5
 21
595.25705300000004
 31
0.0
  0
LINE
  8
SIZE
  6
CONTINUOUS
 62
    30
 10
-153.5
 20
455.55335000000008
 30
0.0
 11
-153.5
 21
595.25705300000004
 31
0.0
  0
LINE
  8
SIZE
  6
CONTINUOUS
 62
    30
 10
-239.5
 20
575.25705300000004
 30
0.0
 11
-165.5
 21
575.25705300000004
 31
0.0
  0
LINE
  8
SIZE
  6
CONTINUOUS
 62
    30
 10
-153.5
 20
575.25705300000004
 30
0.0
 11
59.357143000000178
 21
575.25705300000004
 31
0.0
  0
CIRCLE
  8
SIZE
  6
CONTINUOUS
 62
    30
 10
-251.5
 20
575.25705300000004
 30
0.0
 40
6.0
  0
LINE
  8
SIZE
  6
CONTINUOUS
 62
    30
 10
-251.5
 20
575.25705300000004
 30
0.0
 11
-239.5
 21
575.25705300000004
 31
0.0
  0
CIRCLE
  8
SIZE
  6
CONTINUOUS
 62
    30
 10
-153.5
 20
575.25705300000004
 30
0.0
 40
6.0
  0
LINE
  8
SIZE
  6
CONTINUOUS
 62
    30
 10
-153.5
 20
575.25705300000004
 30
0.0
 11
-165.5
 21
575.25705300000004
 31
0.0
  0
TEXT
  8
SIZE
  6
CONTINUOUS
 62
    30
 10
-128.02000042857151
 20
600.25705300000004
 30
0.0
 40
64.0
  1
φ98
 41
0.9
 72
     1
 11
-41.07142900000008
 21
600.25705300000004
 31
0.0
  0
LINE
  8
SIZE
  6
CONTINUOUS
 62
    30
 10
-264.5
 20
401.77279800000002
 30
0.0
 11
-264.5
 21
715.25705300000004
 31
0.0
  0
LINE
  8
SIZE
  6
CONTINUOUS
 62
    30
 10
-140.5
 20
401.77279800000002
 30
0.0
 11
-140.5
 21
715.25705300000004
 31
0.0
  0
LINE
  8
SIZE
  6
CONTINUOUS
 62
    30
 10
-252.5
 20
695.25705300000004
 30
0.0
 11
-152.5
 21
695.25705300000004
 31
0.0
  0
LINE
  8
SIZE
  6
CONTINUOUS
 62
    30
 10
-140.5
 20
695.25705300000004
 30
0.0
 11
118.9857139999999
 21
695.25705300000004
 31
0.0
  0
CIRCLE
  8
SIZE
  6
CONTINUOUS
 62
    30
 10
-264.5
 20
695.25705300000004
 30
0.0
 40
6.0
  0
LINE
  8
SIZE
  6
CONTINUOUS
 62
    30
 10
-264.5
 20
695.25705300000004
 30
0.0
 11
-252.5
 21
695.25705300000004
 31
0.0
  0
CIRCLE
  8
SIZE
  6
CONTINUOUS
 62
    30
 10
-140.5
 20
695.25705300000004
 30
0.0
 40
6.0
  0
LINE
  8
SIZE
  6
CONTINUOUS
 62
    30
 10
-140.5
 20
695.25705300000004
 30
0.0
 11
-152.5
 21
695.25705300000004
 31
0.0
  0
TEXT
  8
SIZE
  6
CONTINUOUS
 62
    30
 10
-115.0200001428569
 20
720.25705300000004
 30
0.0
 40
64.0
  1
φ124
 41
0.9
 72
     1
 11
-4.7571429999998136
 21
720.25705300000004
 31
0.0
  0
LINE
  8
SIZE
  6
CONTINUOUS
 62
    30
 10
-275.5
 20
366.50287870481378
 30
0.0
 11
-275.5
 21
835.25705300000027
 31
0.0
  0
LINE
  8
SIZE
  6
CONTINUOUS
 62
    30
 10
-129.5
 20
365.88019673130378
 30
0.0
 11
-129.5
 21
835.25705300000027
 31
0.0
  0
LINE
  8
SIZE
  6
CONTINUOUS
 62
    30
 10
-263.5
 20
815.25705300000004
 30
0.0
 11
-141.5
 21
815.25705300000004
 31
0.0
  0
LINE
  8
SIZE
  6
CONTINUOUS
 62
    30
 10
-129.5
 20
815.25705300000004
 30
0.0
 11
124.5
 21
815.25705300000004
 31
0.0
  0
CIRCLE
  8
SIZE
  6
CONTINUOUS
 62
    30
 10
-275.5
 20
815.25705300000004
 30
0.0
 40
6.0
  0
LINE
  8
SIZE
  6
CONTINUOUS
 62
    30
 10
-275.5
 20
815.25705300000004
 30
0.0
 11
-263.5
 21
815.25705300000004
 31
0.0
  0
CIRCLE
  8
SIZE
  6
CONTINUOUS
 62
    30
 10
-129.5
 20
815.25705300000004
 30
0.0
 40
6.0
  0
LINE
  8
SIZE
  6
CONTINUOUS
 62
    30
 10
-129.5
 20
815.25705300000004
 30
0.0
 11
-141.5
 21
815.25705300000004
 31
0.0
  0
TEXT
  8
SIZE
  6
CONTINUOUS
 62
    30
 10
-104.02
 20
840.25705300000004
 30
0.0
 40
64.0
  1
φ146
 41
0.9
 72
     1
 11
3.5
 21
840.25705300000004
 31
0.0
  0
TEXT
  8
ETC
  6
CONTINUOUS
 62
    61
 10
529.49568765204231
 20
831.33089357112658
 30
0.0
 40
64.0
  1
VL-15ZMH4-R_1
 41
0.9
  0
TEXT
  8
ETC
  6
CONTINUOUS
 62
    61
 10
525.30969365204191
 20
731.3820626893239
 30
0.0
 40
64.0
  1
換気扇
 41
0.9
  0
TEXT
  8
ETC
  6
CONTINUOUS
 62
    61
 10
661.79098827110147
 20
665.35419009280736
 30
0.0
 40
50.0
  1
VL-15ZMH4-R
 41
0.9
  0
CIRCLE
  8
FIX
  6
CONTINUOUS
 62
    11
 10
309.0
 20
-228.2466499999999
 30
0.0
 40
6.5
  0
CIRCLE
  8
FIX
  6
CONTINUOUS
 62
    11
 10
309.0
 20
-309.24664999999999
 30
0.0
 40
6.5
  0
CIRCLE
  8
FIX
  6
CONTINUOUS
 62
    11
 10
-309.0
 20
-229.2466499999999
 30
0.0
 40
6.5
  0
CIRCLE
  8
FIX
  6
CONTINUOUS
 62
    11
 10
-309.0
 20
-309.24664999999999
 30
0.0
 40
6.5
  0
CIRCLE
  8
FIX
  6
CONTINUOUS
 62
    11
 10
-309.0
 20
229.15334999999999
 30
0.0
 40
6.5
  0
CIRCLE
  8
FIX
  6
CONTINUOUS
 62
    11
 10
-309.0
 20
309.15334999999999
 30
0.0
 40
6.5
  0
CIRCLE
  8
FIX
  6
CONTINUOUS
 62
    11
 10
309.0
 20
228.15334999999999
 30
0.0
 40
6.5
  0
CIRCLE
  8
FIX
  6
CONTINUOUS
 62
    11
 10
309.0
 20
309.15334999999999
 30
0.0
 40
6.5
  0
LINE
  8
DETAIL
  6
CONTINUOUS
 62
     5
 10
-264.5
 20
328.55335000000008
 30
0.0
 11
-264.5
 21
388.55335000000008
 31
0.0
  0
LINE
  8
DETAIL
  6
CONTINUOUS
 62
     5
 10
-140.5
 20
328.55335000000008
 30
0.0
 11
-140.5
 21
388.55335000000008
 31
0.0
  0
LINE
  8
DETAIL
  6
CONTINUOUS
 62
     5
 10
140.5
 20
328.55335000000008
 30
0.0
 11
140.5
 21
388.55335000000008
 31
0.0
  0
LINE
  8
DETAIL
  6
CONTINUOUS
 62
     5
 10
264.5
 20
328.55335000000008
 30
0.0
 11
264.5
 21
388.55335000000008
 31
0.0
  0
LINE
  8
DETAIL
  6
PHANTOM
 62
     5
 10
328.0
 20
137.75335000000001
 30
0.0
 11
388.0
 21
137.75335000000001
 31
0.0
  0
LINE
  8
DETAIL
  6
PHANTOM
 62
     5
 10
331.0
 20
261.75335000000001
 30
0.0
 11
388.0
 21
261.75335000000001
 31
0.0
  0
LINE
  8
DETAIL
  6
PHANTOM
 62
     5
 10
331.0
 20
-261.84665000000001
 30
0.0
 11
388.0
 21
-261.84665000000001
 31
0.0
  0
LINE
  8
DETAIL
  6
PHANTOM
 62
     5
 10
328.0
 20
-137.84665000000001
 30
0.0
 11
388.0
 21
-137.84665000000001
 31
0.0
  0
LINE
  8
DETAIL
  6
CONTINUOUS
 62
     5
 10
140.5
 20
-328.55335999999988
 30
0.0
 11
140.5
 21
-388.55336
 31
0.0
  0
LINE
  8
DETAIL
  6
CONTINUOUS
 62
     5
 10
264.5
 20
-328.55335999999988
 30
0.0
 11
264.5
 21
-388.55336
 31
0.0
  0
LINE
  8
DETAIL
  6
CONTINUOUS
 62
     5
 10
-140.5
 20
-328.55335999999988
 30
0.0
 11
-140.5
 21
-388.55336
 31
0.0
  0
LINE
  8
DETAIL
  6
CONTINUOUS
 62
     5
 10
-264.5
 20
-328.55335999999988
 30
0.0
 11
-264.5
 21
-388.55336
 31
0.0
  0
TEXT
  8
ETC
  6
CONTINUOUS
 62
    61
 10
661.79098827110147
 20
581.73190927984706
 30
0.0
 40
50.0
  1
VL-20ZMH4-R
 41
0.9
  0
LINE
  8
OUTLINE
  6
CONTINUOUS
 62
     3
 10
-264.5
 20
388.55335000000008
 30
0.0
 11
-140.5
 21
388.55335000000008
 31
0.0
  0
LINE
  8
OUTLINE
  6
CONTINUOUS
 62
     3
 10
-250.5
 20
435.55334999999991
 30
0.0
 11
-154.49999999999949
 21
435.55334999999991
 31
0.0
  0
LINE
  8
OUTLINE
  6
CONTINUOUS
 62
     3
 10
-264.5
 20
358.55335000000008
 30
0.0
 11
-140.5
 21
358.55335000000008
 31
0.0
  0
LINE
  8
OUTLINE
  6
CONTINUOUS
 62
     3
 10
-285.0
 20
328.55335000000008
 30
0.0
 11
-118.0
 21
328.55335000000008
 31
0.0
  0
LINE
  8
OUTLINE
  6
CONTINUOUS
 62
     3
 10
-251.56982999999991
 20
434.55579000000012
 30
0.0
 11
-254.78999999999999
 21
388.55335000000008
 31
0.0
  0
LINE
  8
OUTLINE
  6
CONTINUOUS
 62
     3
 10
-251.56982999999991
 20
434.55579000000012
 30
0.0
 11
-250.5
 21
435.55334999999991
 31
0.0
  0
LINE
  8
OUTLINE
  6
CONTINUOUS
 62
     3
 10
-285.0
 20
287.55335000000008
 30
0.0
 11
-118.0
 21
287.55335000000008
 31
0.0
  0
LINE
  8
OUTLINE
  6
CONTINUOUS
 62
     3
 10
53.5
 20
287.55335000000008
 30
0.0
 11
84.5
 21
287.55335000000008
 31
0.0
  0
LINE
  8
OUTLINE
  6
CONTINUOUS
 62
     3
 10
-153.43016999999961
 20
434.55579000000012
 30
0.0
 11
-150.21000000000001
 21
388.55335000000008
 31
0.0
  0
LINE
  8
OUTLINE
  6
CONTINUOUS
 62
     3
 10
-153.43016999999961
 20
434.55579000000012
 30
0.0
 11
-154.49999999999949
 21
435.55334999999991
 31
0.0
  0
LINE
  8
OUTLINE
  6
CONTINUOUS
 62
     3
 10
-84.5
 20
287.55335000000008
 30
0.0
 11
-64.5
 21
287.55335000000008
 31
0.0
  0
LINE
  8
OUTLINE
  6
CONTINUOUS
 62
     3
 10
-118.0
 20
287.55335000000008
 30
0.0
 11
-118.0
 21
328.55335000000008
 31
0.0
  0
LINE
  8
OUTLINE
  6
CONTINUOUS
 62
     3
 10
-84.5
 20
287.84222999999997
 30
0.0
 11
-118.0
 21
287.84222999999997
 31
0.0
  0
LINE
  8
OUTLINE
  6
CONTINUOUS
 62
     3
 10
-64.5
 20
287.55335000000008
 30
0.0
 11
53.5
 21
287.55335000000008
 31
0.0
  0
LINE
  8
OUTLINE
  6
CONTINUOUS
 62
     3
 10
153.43017000000009
 20
434.55579000000012
 30
0.0
 11
150.21000000000001
 21
388.55335000000008
 31
0.0
  0
LINE
  8
OUTLINE
  6
CONTINUOUS
 62
     3
 10
251.56982999999991
 20
434.55579000000012
 30
0.0
 11
254.78999999999999
 21
388.55335000000008
 31
0.0
  0
LINE
  8
OUTLINE
  6
CONTINUOUS
 62
     3
 10
250.5
 20
435.55334999999991
 30
0.0
 11
154.5
 21
435.55334999999991
 31
0.0
  0
LINE
  8
OUTLINE
  6
CONTINUOUS
 62
     3
 10
153.43017000000009
 20
434.55579000000012
 30
0.0
 11
154.5
 21
435.55334999999991
 31
0.0
  0
LINE
  8
OUTLINE
  6
CONTINUOUS
 62
     3
 10
251.56982999999991
 20
434.55579000000012
 30
0.0
 11
250.5
 21
435.55334999999991
 31
0.0
  0
LINE
  8
OUTLINE
  6
CONTINUOUS
 62
     3
 10
264.5
 20
358.55335000000008
 30
0.0
 11
140.5
 21
358.55335000000008
 31
0.0
  0
LINE
  8
OUTLINE
  6
CONTINUOUS
 62
     3
 10
264.5
 20
388.55335000000008
 30
0.0
 11
140.5
 21
388.55335000000008
 31
0.0
  0
LINE
  8
OUTLINE
  6
CONTINUOUS
 62
     3
 10
285.0
 20
328.55335000000008
 30
0.0
 11
118.0
 21
328.55335000000008
 31
0.0
  0
LINE
  8
OUTLINE
  6
CONTINUOUS
 62
     3
 10
118.0
 20
287.55335000000008
 30
0.0
 11
118.0
 21
328.55335000000008
 31
0.0
  0
LINE
  8
OUTLINE
  6
CONTINUOUS
 62
     3
 10
118.0
 20
287.84222999999997
 30
0.0
 11
84.5
 21
287.84222999999997
 31
0.0
  0
LINE
  8
OUTLINE
  6
CONTINUOUS
 62
     3
 10
285.0
 20
287.55335000000008
 30
0.0
 11
118.0
 21
287.55335000000008
 31
0.0
  0
LINE
  8
OUTLINE
  6
CONTINUOUS
 62
     3
 10
-285.0
 20
-328.55335999999988
 30
0.0
 11
-118.0
 21
-328.55335999999988
 31
0.0
  0
LINE
  8
OUTLINE
  6
CONTINUOUS
 62
     3
 10
-264.5
 20
-358.55243442377127
 30
0.0
 11
-140.5
 21
-358.55446894861092
 31
0.0
  0
LINE
  8
OUTLINE
  6
CONTINUOUS
 62
     3
 10
-264.5
 20
-388.55336
 30
0.0
 11
-140.5
 21
-388.55336
 31
0.0
  0
LINE
  8
OUTLINE
  6
CONTINUOUS
 62
     3
 10
-250.5
 20
-435.55335999999988
 30
0.0
 11
-154.49999999999949
 21
-435.55335999999988
 31
0.0
  0
LINE
  8
OUTLINE
  6
CONTINUOUS
 62
     3
 10
-251.56982999999991
 20
-434.55579999999992
 30
0.0
 11
-254.78999999999999
 21
-388.55336
 31
0.0
  0
LINE
  8
OUTLINE
  6
CONTINUOUS
 62
     3
 10
-285.0
 20
-287.55336
 30
0.0
 11
-118.0
 21
-287.55336
 31
0.0
  0
LINE
  8
OUTLINE
  6
CONTINUOUS
 62
     3
 10
-251.56982999999991
 20
-434.55579999999992
 30
0.0
 11
-250.5
 21
-435.55335999999988
 31
0.0
  0
LINE
  8
OUTLINE
  6
CONTINUOUS
 62
     3
 10
251.56982999999991
 20
-434.55579999999992
 30
0.0
 11
254.78999999999999
 21
-388.55336
 31
0.0
  0
LINE
  8
OUTLINE
  6
CONTINUOUS
 62
     3
 10
153.43017000000009
 20
-434.55579999999992
 30
0.0
 11
150.21000000000001
 21
-388.55336
 31
0.0
  0
LINE
  8
OUTLINE
  6
CONTINUOUS
 62
     3
 10
-153.43016999999961
 20
-434.55579999999992
 30
0.0
 11
-150.21000000000001
 21
-388.55336
 31
0.0
  0
LINE
  8
OUTLINE
  6
CONTINUOUS
 62
     3
 10
-118.0
 20
-287.93553000000009
 30
0.0
 11
118.0
 21
-287.93553000000009
 31
0.0
  0
LINE
  8
OUTLINE
  6
CONTINUOUS
 62
     3
 10
-118.0
 20
-287.55336
 30
0.0
 11
-118.0
 21
-328.55335999999988
 31
0.0
  0
LINE
  8
OUTLINE
  6
CONTINUOUS
 62
     3
 10
285.0
 20
-328.55335999999988
 30
0.0
 11
118.0
 21
-328.55335999999988
 31
0.0
  0
LINE
  8
OUTLINE
  6
CONTINUOUS
 62
     3
 10
264.5
 20
-358.55336
 30
0.0
 11
140.5
 21
-358.55336
 31
0.0
  0
LINE
  8
OUTLINE
  6
CONTINUOUS
 62
     3
 10
264.5
 20
-388.55336
 30
0.0
 11
140.5
 21
-388.55336
 31
0.0
  0
LINE
  8
OUTLINE
  6
CONTINUOUS
 62
     3
 10
118.0
 20
-287.55336
 30
0.0
 11
118.0
 21
-328.55335999999988
 31
0.0
  0
LINE
  8
OUTLINE
  6
CONTINUOUS
 62
     3
 10
285.0
 20
-287.55336
 30
0.0
 11
118.0
 21
-287.55336
 31
0.0
  0
LINE
  8
OUTLINE
  6
CONTINUOUS
 62
     3
 10
-153.43016999999961
 20
-434.55579999999992
 30
0.0
 11
-154.49999999999949
 21
-435.55335999999988
 31
0.0
  0
LINE
  8
OUTLINE
  6
CONTINUOUS
 62
     3
 10
250.5
 20
-435.55335999999988
 30
0.0
 11
154.5
 21
-435.55335999999988
 31
0.0
  0
LINE
  8
OUTLINE
  6
CONTINUOUS
 62
     3
 10
153.43017000000009
 20
-434.55579999999992
 30
0.0
 11
154.5
 21
-435.55335999999988
 31
0.0
  0
LINE
  8
OUTLINE
  6
CONTINUOUS
 62
     3
 10
251.56982999999991
 20
-434.55579999999992
 30
0.0
 11
250.5
 21
-435.55335999999988
 31
0.0
  0
LINE
  8
OUTLINE
  6
CONTINUOUS
 62
     3
 10
-264.5
 20
328.55335000000008
 30
0.0
 11
-264.5
 21
388.55335000000008
 31
0.0
  0
LINE
  8
OUTLINE
  6
CONTINUOUS
 62
     3
 10
-140.5
 20
328.55335000000008
 30
0.0
 11
-140.5
 21
388.55335000000008
 31
0.0
  0
LINE
  8
OUTLINE
  6
CONTINUOUS
 62
     3
 10
140.5
 20
328.55335000000008
 30
0.0
 11
140.5
 21
388.55335000000008
 31
0.0
  0
LINE
  8
OUTLINE
  6
CONTINUOUS
 62
     3
 10
264.5
 20
328.55335000000008
 30
0.0
 11
264.5
 21
388.55335000000008
 31
0.0
  0
LINE
  8
OUTLINE
  6
CONTINUOUS
 62
     3
 10
140.5
 20
-328.55335999999988
 30
0.0
 11
140.5
 21
-388.55336
 31
0.0
  0
LINE
  8
OUTLINE
  6
CONTINUOUS
 62
     3
 10
264.5
 20
-328.55335999999988
 30
0.0
 11
264.5
 21
-388.55336
 31
0.0
  0
LINE
  8
OUTLINE
  6
CONTINUOUS
 62
     3
 10
-140.5
 20
-328.55335999999988
 30
0.0
 11
-140.5
 21
-388.55336
 31
0.0
  0
LINE
  8
OUTLINE
  6
CONTINUOUS
 62
     3
 10
-264.5
 20
-328.55335999999988
 30
0.0
 11
-264.5
 21
-388.55336
 31
0.0
  0
ENDSEC
  0
EOF
